  0
SECTION
  2
HEADER
  9
$ACADVER
  1
AC1009
  9
$INSBASE
 10
0.0
 20
0.0
 30
0.0
  9
$EXTMIN
 10
0.0
 20
-2.960436562073669
 30
0.0
  9
$EXTMAX
 10
413.0000000117256
 20
232.00000101329999
 30
0.0
  9
$LIMMIN
 10
0.0
 20
0.0
  9
$LIMMAX
 10
375.0
 20
270.0
  9
$ORTHOMODE
 70
     0
  9
$REGENMODE
 70
     1
  9
$FILLMODE
 70
     1
  9
$QTEXTMODE
 70
     0
  9
$MIRRTEXT
 70
     0
  9
$DRAGMODE
 70
     2
  9
$LTSCALE
 40
10.0
  9
$OSMODE
 70
    37
  9
$ATTMODE
 70
     1
  9
$TEXTSIZE
 40
0.2
  9
$TRACEWID
 40
0.05
  9
$TEXTSTYLE
  7
STANDARD
  9
$CLAYER
  8
0
  9
$CELTYPE
  6
BYLAYER
  9
$CECOLOR
 62
   256
  9
$DIMSCALE
 40
1.0
  9
$DIMASZ
 40
3.0
  9
$DIMEXO
 40
2.0
  9
$DIMDLI
 40
0.38
  9
$DIMRND
 40
0.0
  9
$DIMDLE
 40
0.0
  9
$DIMEXE
 40
2.0
  9
$DIMTP
 40
0.0
  9
$DIMTM
 40
0.0
  9
$DIMTXT
 40
3.2000000000000002
  9
$DIMCEN
 40
0.0
  9
$DIMTSZ
 40
0.0
  9
$DIMTOL
 70
     0
  9
$DIMLIM
 70
     0
  9
$DIMTIH
 70
     0
  9
$DIMTOH
 70
     0
  9
$DIMSE1
 70
     0
  9
$DIMSE2
 70
     0
  9
$DIMTAD
 70
     1
  9
$DIMZIN
 70
     0
  9
$DIMBLK
  1

  9
$DIMASO
 70
     1
  9
$DIMSHO
 70
     0
  9
$DIMPOST
  1

  9
$DIMAPOST
  1

  9
$DIMALT
 70
     0
  9
$DIMALTD
 70
     2
  9
$DIMALTF
 40
25.399999999999999
  9
$DIMLFAC
 40
1.0
  9
$DIMTOFL
 70
     1
  9
$DIMTVP
 40
1.6000000000000001
  9
$DIMTIX
 70
     1
  9
$DIMSOXD
 70
     0
  9
$DIMSAH
 70
     0
  9
$DIMBLK1
  1

  9
$DIMBLK2
  1

  9
$DIMSTYLE
  2
STANDARD
  9
$DIMCLRD
 70
     0
  9
$DIMCLRE
 70
     0
  9
$DIMCLRT
 70
     0
  9
$DIMTFAC
 40
1.0
  9
$DIMGAP
 40
0.09
  9
$LUNITS
 70
     2
  9
$LUPREC
 70
     4
  9
$SKETCHINC
 40
0.1
  9
$FILLETRAD
 40
20.0
  9
$AUNITS
 70
     0
  9
$AUPREC
 70
     4
  9
$MENU
  1
E:\r13\win\SUPPORT\ACAD
  9
$ELEVATION
 40
0.0
  9
$PELEVATION
 40
0.0
  9
$THICKNESS
 40
0.0
  9
$LIMCHECK
 70
     0
  9
$BLIPMODE
 70
     0
  9
$CHAMFERA
 40
0.0
  9
$CHAMFERB
 40
0.0
  9
$SKPOLY
 70
     0
  9
$TDCREATE
 40
2449840.6309259259
  9
$TDUPDATE
 40
2458824.5996470139
  9
$TDINDWG
 40
0.0304754977
  9
$TDUSRTIMER
 40
0.0304754977
  9
$USRTIMER
 70
     1
  9
$ANGBASE
 50
0.0
  9
$ANGDIR
 70
     0
  9
$PDMODE
 70
     0
  9
$PDSIZE
 40
0.0
  9
$PLINEWID
 40
0.0
  9
$COORDS
 70
     1
  9
$SPLFRAME
 70
     0
  9
$SPLINETYPE
 70
     6
  9
$SPLINESEGS
 70
     8
  9
$ATTDIA
 70
     0
  9
$ATTREQ
 70
     1
  9
$HANDLING
 70
     1
  9
$HANDSEED
  5
BA6
  9
$SURFTAB1
 70
     6
  9
$SURFTAB2
 70
     6
  9
$SURFTYPE
 70
     6
  9
$SURFU
 70
     6
  9
$SURFV
 70
     6
  9
$UCSNAME
  2

  9
$UCSORG
 10
0.0
 20
0.0
 30
0.0
  9
$UCSXDIR
 10
1.0
 20
0.0
 30
0.0
  9
$UCSYDIR
 10
0.0
 20
1.0
 30
0.0
  9
$PUCSNAME
  2

  9
$PUCSORG
 10
0.0
 20
0.0
 30
0.0
  9
$PUCSXDIR
 10
1.0
 20
0.0
 30
0.0
  9
$PUCSYDIR
 10
0.0
 20
1.0
 30
0.0
  9
$USERI1
 70
     0
  9
$USERI2
 70
     1
  9
$USERI3
 70
     1
  9
$USERI4
 70
     0
  9
$USERI5
 70
     0
  9
$USERR1
 40
0.0
  9
$USERR2
 40
0.0
  9
$USERR3
 40
0.0
  9
$USERR4
 40
0.0
  9
$USERR5
 40
0.0
  9
$WORLDVIEW
 70
     1
  9
$SHADEDGE
 70
     3
  9
$SHADEDIF
 70
    70
  9
$TILEMODE
 70
     1
  9
$MAXACTVP
 70
    16
  9
$PLIMCHECK
 70
     0
  9
$PEXTMIN
 10
1.0000000000000000E+020
 20
1.0000000000000000E+020
 30
1.0000000000000000E+020
  9
$PEXTMAX
 10
-1.0000000000000000E+020
 20
-1.0000000000000000E+020
 30
-1.0000000000000000E+020
  9
$PLIMMIN
 10
0.0
 20
0.0
  9
$PLIMMAX
 10
12.0
 20
9.0
  9
$UNITMODE
 70
     0
  9
$VISRETAIN
 70
     0
  9
$PLINEGEN
 70
     0
  9
$PSLTSCALE
 70
     0
  0
ENDSEC
  0
SECTION
  2
TABLES
  0
TABLE
  2
VPORT
 70
     1
  0
VPORT
  2
*ACTIVE
 70
     0
 10
0.0
 20
0.0
 11
1.0
 21
1.0
 12
206.50000096745339
 22
141.65133953336559
 13
0.0
 23
0.0
 14
10.0
 24
10.0
 15
10.0
 25
10.0
 16
0.0
 26
0.0
 36
1.0
 17
0.0
 27
0.0
 37
0.0
 40
291.84617473825023
 41
2.3366214549938338
 42
50.0
 43
0.0
 44
0.0
 50
0.0
 51
0.0
 71
     0
 72
   500
 73
     1
 74
     0
 75
     0
 76
     0
 77
     0
 78
     2
  0
ENDTAB
  0
TABLE
  2
LTYPE
 70
     4
  0
LTYPE
  2
CONTINUOUS
 70
     0
  3
Solid Line
 72
    65
 73
     0
 40
0.0
  0
LTYPE
  2
CENTER
 70
     0
  3
____ _ ____ _ ____ _ ____ _ ____ _ ____ _ ____
 72
    65
 73
     4
 40
2.0
 49
1.25
 49
-0.25
 49
0.25
 49
-0.25
  0
LTYPE
  2
HIDDEN
 70
     0
  3
_ _ _ _ _ _ _ _ _ _ _ _ _ _ _ _ _ _ _ _ _ _ _
 72
    65
 73
     2
 40
0.375
 49
0.25
 49
-0.125
  0
LTYPE
  2
PHANTOM2
 70
     0
  3
___ _ _ ___ _ _ ___ _ _ ___ _ _
 72
    65
 73
     6
 40
1.25
 49
0.625
 49
-0.125
 49
0.125
 49
-0.125
 49
0.125
 49
-0.125
  0
ENDTAB
  0
TABLE
  2
LAYER
 70
     3
  0
LAYER
  2
0
 70
     0
 62
     7
  6
CONTINUOUS
  0
LAYER
  2
1
 70
     0
 62
     1
  6
CENTER
  0
LAYER
  2
2
 70
     0
 62
     2
  6
HIDDEN
  0
ENDTAB
  0
TABLE
  2
STYLE
 70
     2
  0
STYLE
  2
STANDARD
 70
     0
 40
0.0
 41
1.0
 50
0.0
 71
     0
 42
0.2
  3
TXT
  4
BIGFONT
  0
STYLE
  2
STANDARD1
 70
     0
 40
0.0
 41
1.0
 50
0.0
 71
     0
 42
3.0
  3
txt
  4

  0
ENDTAB
  0
TABLE
  2
VIEW
 70
     1
  0
VIEW
  2
ALL
 70
     0
 40
270.0
 10
220.99159663865549
 20
135.0
 41
0.0
 11
0.0
 21
0.0
 31
1.0
 12
0.0
 22
0.0
 32
0.0
 42
0.0
 43
0.0
 44
0.0
 50
0.0
 71
     0
  0
ENDTAB
  0
TABLE
  2
UCS
 70
     0
  0
ENDTAB
  0
TABLE
  2
APPID
 70
     4
  0
APPID
  2
ACAD
 70
     0
  0
APPID
  2
ACAD_MLEADERVER
 70
     0
  0
APPID
  2
ACAD_NAV_VCDISPLAY
 70
     0
  0
APPID
  2
ACAD_EXEMPT_FROM_CAD_STANDARDS
 70
     0
  0
ENDTAB
  0
TABLE
  2
DIMSTYLE
 70
     1
  0
DIMSTYLE
  2
STANDARD
 70
     0
  3

  4

  5

  6

  7

 40
1.0
 41
0.18
 42
0.0625
 43
0.38
 44
0.18
 45
0.0
 46
0.0
 47
0.0
 48
0.0
140
0.18
141
0.09
142
0.0
143
25.399999999999999
144
1.0
145
0.0
146
1.0
147
0.09
 71
     0
 72
     0
 73
     1
 74
     1
 75
     0
 76
     0
 77
     0
 78
     0
170
     0
171
     2
172
     0
173
     0
174
     0
175
     0
176
     0
177
     0
178
     0
  0
ENDTAB
  0
ENDSEC
  0
SECTION
  2
BLOCKS
  0
BLOCK
  8
0
  2
$MODEL_SPACE
 70
     0
 10
0.0
 20
0.0
 30
0.0
  3
$MODEL_SPACE
  1

  0
ENDBLK
  5
FE
  8
0
  0
BLOCK
 67
     1
  8
0
  2
$PAPER_SPACE
 70
     0
 10
0.0
 20
0.0
 30
0.0
  3
$PAPER_SPACE
  1

  0
ENDBLK
  5
FC
 67
     1
  8
0
  0
ENDSEC
  0
SECTION
  2
ENTITIES
  0
TEXT
  5
20C
  8
0
 62
     3
 10
0.0
 20
0.0
 30
0.0
 40
10.0
  1
RD7-180B-SG-SUS
  7
STANDARD1
  0
LINE
  5
3D0
  8
0
 10
302.49999720446289
 20
141.00000101329999
 30
0.0
 11
162.50000280726269
 21
141.00000101329991
 31
0.0
  0
LINE
  5
3D1
  8
0
 10
162.50000033366291
 20
121.99999976160009
 30
0.0
 11
302.49999967806281
 21
121.99999976160009
 31
0.0
  0
LINE
  5
3D2
  8
0
 10
331.99999720446277
 20
75.000000000000057
 30
0.0
 11
331.99999720446277
 21
111.50000101329989
 31
0.0
  0
LINE
  5
3D3
  8
0
 10
312.99999967806292
 20
111.49999976160009
 30
0.0
 11
312.99999967806292
 21
75.000000000000057
 31
0.0
  0
ARC
  5
3D5
  8
0
 10
163.0000000058628
 20
111.0
 30
0.0
 40
11.000000000000011
 50
178.58025851360111
 51
180.0
  0
LINE
  5
3D6
  8
0
 10
331.99999720446277
 20
75.000000000000057
 30
0.0
 11
312.99999967806281
 21
75.0
 31
0.0
  0
LINE
  5
3D7
  8
0
 10
133.0000028072628
 20
111.50000101329989
 30
0.0
 11
133.0000028072628
 21
75.000000000000057
 31
0.0
  0
LINE
  5
3D8
  8
0
 10
152.0000003336628
 20
75.000000000000057
 30
0.0
 11
152.00000033366291
 21
111.49999976160009
 31
0.0
  0
LINE
  5
3D9
  8
0
 10
133.0000028072628
 20
75.000000000000114
 30
0.0
 11
152.0000003336628
 21
75.000000000000057
 31
0.0
  0
LINE
  5
3E7
  8
1
 10
142.5000000058628
 20
70.0
 30
0.0
 11
142.5000000058628
 21
111.5
 31
0.0
  0
LINE
  5
3E9
  8
1
 10
302.50000000586289
 20
131.5
 30
0.0
 11
162.5000000058628
 21
131.5
 31
0.0
  0
LINE
  5
3EB
  8
1
 10
322.50000000586277
 20
70.0
 30
0.0
 11
322.50000000586277
 21
111.5
 31
0.0
  0
LINE
  5
3F0
  8
0
 10
142.50000000040001
 20
201.00000101329999
 30
0.0
 11
322.50000001132571
 21
201.00000101329999
 31
0.0
  0
LINE
  5
3F1
  8
0
 10
322.50000001001172
 20
227.00000101329991
 30
0.0
 11
142.50000000040001
 21
227.00000101329991
 31
0.0
  0
POLYLINE
  5
3F2
  8
0
 10
142.50000000040001
 20
227.00000101329991
 30
0.0
 66
     1
 70
     8
  0
VERTEX
  8
0
  5
796
 10
142.500
 20
227.000
 30
0.000000
  70
    32
  0
VERTEX
  8
0
  5
797
 10
142.267
 20
226.996
 30
0.000000
  70
    32
  0
VERTEX
  8
0
  5
798
 10
142.034
 20
226.984
 30
0.000000
  70
    32
  0
VERTEX
  8
0
  5
799
 10
141.801
 20
226.965
 30
0.000000
  70
    32
  0
VERTEX
  8
0
  5
79A
 10
141.569
 20
226.937
 30
0.000000
  70
    32
  0
VERTEX
  8
0
  5
79B
 10
141.337
 20
226.902
 30
0.000000
  70
    32
  0
VERTEX
  8
0
  5
79C
 10
141.106
 20
226.859
 30
0.000000
  70
    32
  0
VERTEX
  8
0
  5
79D
 10
140.876
 20
226.809
 30
0.000000
  70
    32
  0
VERTEX
  8
0
  5
79E
 10
140.647
 20
226.750
 30
0.000000
  70
    32
  0
VERTEX
  8
0
  5
79F
 10
140.419
 20
226.684
 30
0.000000
  70
    32
  0
VERTEX
  8
0
  5
7A0
 10
140.192
 20
226.610
 30
0.000000
  70
    32
  0
VERTEX
  8
0
  5
7A1
 10
139.966
 20
226.529
 30
0.000000
  70
    32
  0
VERTEX
  8
0
  5
7A2
 10
139.742
 20
226.440
 30
0.000000
  70
    32
  0
VERTEX
  8
0
  5
7A3
 10
139.520
 20
226.344
 30
0.000000
  70
    32
  0
VERTEX
  8
0
  5
7A4
 10
139.300
 20
226.240
 30
0.000000
  70
    32
  0
VERTEX
  8
0
  5
7A5
 10
139.081
 20
226.129
 30
0.000000
  70
    32
  0
VERTEX
  8
0
  5
7A6
 10
138.865
 20
226.010
 30
0.000000
  70
    32
  0
VERTEX
  8
0
  5
7A7
 10
138.650
 20
225.885
 30
0.000000
  70
    32
  0
VERTEX
  8
0
  5
7A8
 10
138.438
 20
225.752
 30
0.000000
  70
    32
  0
VERTEX
  8
0
  5
7A9
 10
138.229
 20
225.612
 30
0.000000
  70
    32
  0
VERTEX
  8
0
  5
7AA
 10
138.022
 20
225.465
 30
0.000000
  70
    32
  0
VERTEX
  8
0
  5
7AB
 10
137.817
 20
225.311
 30
0.000000
  70
    32
  0
VERTEX
  8
0
  5
7AC
 10
137.616
 20
225.150
 30
0.000000
  70
    32
  0
VERTEX
  8
0
  5
7AD
 10
137.418
 20
224.983
 30
0.000000
  70
    32
  0
VERTEX
  8
0
  5
7AE
 10
137.222
 20
224.809
 30
0.000000
  70
    32
  0
VERTEX
  8
0
  5
7AF
 10
137.030
 20
224.629
 30
0.000000
  70
    32
  0
VERTEX
  8
0
  5
7B0
 10
136.841
 20
224.442
 30
0.000000
  70
    32
  0
VERTEX
  8
0
  5
7B1
 10
136.655
 20
224.249
 30
0.000000
  70
    32
  0
VERTEX
  8
0
  5
7B2
 10
136.473
 20
224.049
 30
0.000000
  70
    32
  0
VERTEX
  8
0
  5
7B3
 10
136.295
 20
223.844
 30
0.000000
  70
    32
  0
VERTEX
  8
0
  5
7B4
 10
136.120
 20
223.632
 30
0.000000
  70
    32
  0
VERTEX
  8
0
  5
7B5
 10
135.949
 20
223.415
 30
0.000000
  70
    32
  0
VERTEX
  8
0
  5
7B6
 10
135.782
 20
223.192
 30
0.000000
  70
    32
  0
VERTEX
  8
0
  5
7B7
 10
135.620
 20
222.964
 30
0.000000
  70
    32
  0
VERTEX
  8
0
  5
7B8
 10
135.461
 20
222.730
 30
0.000000
  70
    32
  0
VERTEX
  8
0
  5
7B9
 10
135.307
 20
222.491
 30
0.000000
  70
    32
  0
VERTEX
  8
0
  5
7BA
 10
135.156
 20
222.247
 30
0.000000
  70
    32
  0
VERTEX
  8
0
  5
7BB
 10
135.011
 20
221.998
 30
0.000000
  70
    32
  0
VERTEX
  8
0
  5
7BC
 10
134.870
 20
221.744
 30
0.000000
  70
    32
  0
VERTEX
  8
0
  5
7BD
 10
134.733
 20
221.486
 30
0.000000
  70
    32
  0
VERTEX
  8
0
  5
7BE
 10
134.601
 20
221.222
 30
0.000000
  70
    32
  0
VERTEX
  8
0
  5
7BF
 10
134.474
 20
220.955
 30
0.000000
  70
    32
  0
VERTEX
  8
0
  5
7C0
 10
134.352
 20
220.683
 30
0.000000
  70
    32
  0
VERTEX
  8
0
  5
7C1
 10
134.234
 20
220.408
 30
0.000000
  70
    32
  0
VERTEX
  8
0
  5
7C2
 10
134.122
 20
220.128
 30
0.000000
  70
    32
  0
VERTEX
  8
0
  5
7C3
 10
134.014
 20
219.845
 30
0.000000
  70
    32
  0
VERTEX
  8
0
  5
7C4
 10
133.912
 20
219.558
 30
0.000000
  70
    32
  0
VERTEX
  8
0
  5
7C5
 10
133.815
 20
219.268
 30
0.000000
  70
    32
  0
VERTEX
  8
0
  5
7C6
 10
133.723
 20
218.975
 30
0.000000
  70
    32
  0
VERTEX
  8
0
  5
7C7
 10
133.637
 20
218.679
 30
0.000000
  70
    32
  0
VERTEX
  8
0
  5
7C8
 10
133.555
 20
218.380
 30
0.000000
  70
    32
  0
VERTEX
  8
0
  5
7C9
 10
133.479
 20
218.078
 30
0.000000
  70
    32
  0
VERTEX
  8
0
  5
7CA
 10
133.409
 20
217.774
 30
0.000000
  70
    32
  0
VERTEX
  8
0
  5
7CB
 10
133.344
 20
217.467
 30
0.000000
  70
    32
  0
VERTEX
  8
0
  5
7CC
 10
133.285
 20
217.159
 30
0.000000
  70
    32
  0
VERTEX
  8
0
  5
7CD
 10
133.231
 20
216.848
 30
0.000000
  70
    32
  0
VERTEX
  8
0
  5
7CE
 10
133.183
 20
216.536
 30
0.000000
  70
    32
  0
VERTEX
  8
0
  5
7CF
 10
133.140
 20
216.223
 30
0.000000
  70
    32
  0
VERTEX
  8
0
  5
7D0
 10
133.103
 20
215.907
 30
0.000000
  70
    32
  0
VERTEX
  8
0
  5
7D1
 10
133.071
 20
215.591
 30
0.000000
  70
    32
  0
VERTEX
  8
0
  5
7D2
 10
133.046
 20
215.274
 30
0.000000
  70
    32
  0
VERTEX
  8
0
  5
7D3
 10
133.026
 20
214.956
 30
0.000000
  70
    32
  0
VERTEX
  8
0
  5
7D4
 10
133.011
 20
214.638
 30
0.000000
  70
    32
  0
VERTEX
  8
0
  5
7D5
 10
133.003
 20
214.319
 30
0.000000
  70
    32
  0
VERTEX
  8
0
  5
7D6
 10
133.000
 20
214.000
 30
0.000000
  70
    32
  0
VERTEX
  8
0
  5
7D7
 10
133.003
 20
213.681
 30
0.000000
  70
    32
  0
VERTEX
  8
0
  5
7D8
 10
133.011
 20
213.362
 30
0.000000
  70
    32
  0
VERTEX
  8
0
  5
7D9
 10
133.026
 20
213.044
 30
0.000000
  70
    32
  0
VERTEX
  8
0
  5
7DA
 10
133.046
 20
212.726
 30
0.000000
  70
    32
  0
VERTEX
  8
0
  5
7DB
 10
133.071
 20
212.409
 30
0.000000
  70
    32
  0
VERTEX
  8
0
  5
7DC
 10
133.103
 20
212.093
 30
0.000000
  70
    32
  0
VERTEX
  8
0
  5
7DD
 10
133.140
 20
211.777
 30
0.000000
  70
    32
  0
VERTEX
  8
0
  5
7DE
 10
133.183
 20
211.464
 30
0.000000
  70
    32
  0
VERTEX
  8
0
  5
7DF
 10
133.231
 20
211.152
 30
0.000000
  70
    32
  0
VERTEX
  8
0
  5
7E0
 10
133.285
 20
210.841
 30
0.000000
  70
    32
  0
VERTEX
  8
0
  5
7E1
 10
133.344
 20
210.533
 30
0.000000
  70
    32
  0
VERTEX
  8
0
  5
7E2
 10
133.409
 20
210.226
 30
0.000000
  70
    32
  0
VERTEX
  8
0
  5
7E3
 10
133.479
 20
209.922
 30
0.000000
  70
    32
  0
VERTEX
  8
0
  5
7E4
 10
133.555
 20
209.620
 30
0.000000
  70
    32
  0
VERTEX
  8
0
  5
7E5
 10
133.637
 20
209.321
 30
0.000000
  70
    32
  0
VERTEX
  8
0
  5
7E6
 10
133.723
 20
209.025
 30
0.000000
  70
    32
  0
VERTEX
  8
0
  5
7E7
 10
133.815
 20
208.732
 30
0.000000
  70
    32
  0
VERTEX
  8
0
  5
7E8
 10
133.912
 20
208.442
 30
0.000000
  70
    32
  0
VERTEX
  8
0
  5
7E9
 10
134.014
 20
208.155
 30
0.000000
  70
    32
  0
VERTEX
  8
0
  5
7EA
 10
134.122
 20
207.872
 30
0.000000
  70
    32
  0
VERTEX
  8
0
  5
7EB
 10
134.234
 20
207.592
 30
0.000000
  70
    32
  0
VERTEX
  8
0
  5
7EC
 10
134.352
 20
207.317
 30
0.000000
  70
    32
  0
VERTEX
  8
0
  5
7ED
 10
134.474
 20
207.045
 30
0.000000
  70
    32
  0
VERTEX
  8
0
  5
7EE
 10
134.601
 20
206.778
 30
0.000000
  70
    32
  0
VERTEX
  8
0
  5
7EF
 10
134.733
 20
206.514
 30
0.000000
  70
    32
  0
VERTEX
  8
0
  5
7F0
 10
134.870
 20
206.256
 30
0.000000
  70
    32
  0
VERTEX
  8
0
  5
7F1
 10
135.011
 20
206.002
 30
0.000000
  70
    32
  0
VERTEX
  8
0
  5
7F2
 10
135.156
 20
205.753
 30
0.000000
  70
    32
  0
VERTEX
  8
0
  5
7F3
 10
135.307
 20
205.509
 30
0.000000
  70
    32
  0
VERTEX
  8
0
  5
7F4
 10
135.461
 20
205.270
 30
0.000000
  70
    32
  0
VERTEX
  8
0
  5
7F5
 10
135.620
 20
205.036
 30
0.000000
  70
    32
  0
VERTEX
  8
0
  5
7F6
 10
135.782
 20
204.808
 30
0.000000
  70
    32
  0
VERTEX
  8
0
  5
7F7
 10
135.949
 20
204.585
 30
0.000000
  70
    32
  0
VERTEX
  8
0
  5
7F8
 10
136.120
 20
204.368
 30
0.000000
  70
    32
  0
VERTEX
  8
0
  5
7F9
 10
136.295
 20
204.156
 30
0.000000
  70
    32
  0
VERTEX
  8
0
  5
7FA
 10
136.473
 20
203.951
 30
0.000000
  70
    32
  0
VERTEX
  8
0
  5
7FB
 10
136.655
 20
203.751
 30
0.000000
  70
    32
  0
VERTEX
  8
0
  5
7FC
 10
136.841
 20
203.558
 30
0.000000
  70
    32
  0
VERTEX
  8
0
  5
7FD
 10
137.030
 20
203.371
 30
0.000000
  70
    32
  0
VERTEX
  8
0
  5
7FE
 10
137.222
 20
203.191
 30
0.000000
  70
    32
  0
VERTEX
  8
0
  5
7FF
 10
137.418
 20
203.017
 30
0.000000
  70
    32
  0
VERTEX
  8
0
  5
800
 10
137.616
 20
202.850
 30
0.000000
  70
    32
  0
VERTEX
  8
0
  5
801
 10
137.817
 20
202.689
 30
0.000000
  70
    32
  0
VERTEX
  8
0
  5
802
 10
138.022
 20
202.535
 30
0.000000
  70
    32
  0
VERTEX
  8
0
  5
803
 10
138.229
 20
202.388
 30
0.000000
  70
    32
  0
VERTEX
  8
0
  5
804
 10
138.438
 20
202.248
 30
0.000000
  70
    32
  0
VERTEX
  8
0
  5
805
 10
138.650
 20
202.115
 30
0.000000
  70
    32
  0
VERTEX
  8
0
  5
806
 10
138.865
 20
201.990
 30
0.000000
  70
    32
  0
VERTEX
  8
0
  5
807
 10
139.081
 20
201.871
 30
0.000000
  70
    32
  0
VERTEX
  8
0
  5
808
 10
139.300
 20
201.760
 30
0.000000
  70
    32
  0
VERTEX
  8
0
  5
809
 10
139.520
 20
201.656
 30
0.000000
  70
    32
  0
VERTEX
  8
0
  5
80A
 10
139.742
 20
201.560
 30
0.000000
  70
    32
  0
VERTEX
  8
0
  5
80B
 10
139.966
 20
201.471
 30
0.000000
  70
    32
  0
VERTEX
  8
0
  5
80C
 10
140.192
 20
201.390
 30
0.000000
  70
    32
  0
VERTEX
  8
0
  5
80D
 10
140.419
 20
201.316
 30
0.000000
  70
    32
  0
VERTEX
  8
0
  5
80E
 10
140.647
 20
201.250
 30
0.000000
  70
    32
  0
VERTEX
  8
0
  5
80F
 10
140.876
 20
201.191
 30
0.000000
  70
    32
  0
VERTEX
  8
0
  5
810
 10
141.106
 20
201.141
 30
0.000000
  70
    32
  0
VERTEX
  8
0
  5
811
 10
141.337
 20
201.098
 30
0.000000
  70
    32
  0
VERTEX
  8
0
  5
812
 10
141.569
 20
201.063
 30
0.000000
  70
    32
  0
VERTEX
  8
0
  5
813
 10
141.801
 20
201.035
 30
0.000000
  70
    32
  0
VERTEX
  8
0
  5
814
 10
142.034
 20
201.016
 30
0.000000
  70
    32
  0
VERTEX
  8
0
  5
815
 10
142.267
 20
201.004
 30
0.000000
  70
    32
  0
VERTEX
  8
0
  5
816
 10
142.500
 20
201.000
 30
0.000000
  70
    32
  0
SEQEND
  8
0
  5
817
  0
POLYLINE
  5
3F3
  8
0
 10
322.50000000040001
 20
201.00000101329991
 30
0.0
 66
     1
 70
     8
  0
VERTEX
  8
0
  5
818
 10
322.500
 20
201.000
 30
0.000000
  70
    32
  0
VERTEX
  8
0
  5
819
 10
322.733
 20
201.004
 30
0.000000
  70
    32
  0
VERTEX
  8
0
  5
81A
 10
322.966
 20
201.016
 30
0.000000
  70
    32
  0
VERTEX
  8
0
  5
81B
 10
323.199
 20
201.035
 30
0.000000
  70
    32
  0
VERTEX
  8
0
  5
81C
 10
323.431
 20
201.063
 30
0.000000
  70
    32
  0
VERTEX
  8
0
  5
81D
 10
323.663
 20
201.098
 30
0.000000
  70
    32
  0
VERTEX
  8
0
  5
81E
 10
323.894
 20
201.141
 30
0.000000
  70
    32
  0
VERTEX
  8
0
  5
81F
 10
324.124
 20
201.191
 30
0.000000
  70
    32
  0
VERTEX
  8
0
  5
820
 10
324.353
 20
201.250
 30
0.000000
  70
    32
  0
VERTEX
  8
0
  5
821
 10
324.581
 20
201.316
 30
0.000000
  70
    32
  0
VERTEX
  8
0
  5
822
 10
324.808
 20
201.390
 30
0.000000
  70
    32
  0
VERTEX
  8
0
  5
823
 10
325.034
 20
201.471
 30
0.000000
  70
    32
  0
VERTEX
  8
0
  5
824
 10
325.258
 20
201.560
 30
0.000000
  70
    32
  0
VERTEX
  8
0
  5
825
 10
325.480
 20
201.656
 30
0.000000
  70
    32
  0
VERTEX
  8
0
  5
826
 10
325.700
 20
201.760
 30
0.000000
  70
    32
  0
VERTEX
  8
0
  5
827
 10
325.919
 20
201.871
 30
0.000000
  70
    32
  0
VERTEX
  8
0
  5
828
 10
326.135
 20
201.990
 30
0.000000
  70
    32
  0
VERTEX
  8
0
  5
829
 10
326.350
 20
202.115
 30
0.000000
  70
    32
  0
VERTEX
  8
0
  5
82A
 10
326.562
 20
202.248
 30
0.000000
  70
    32
  0
VERTEX
  8
0
  5
82B
 10
326.771
 20
202.388
 30
0.000000
  70
    32
  0
VERTEX
  8
0
  5
82C
 10
326.978
 20
202.535
 30
0.000000
  70
    32
  0
VERTEX
  8
0
  5
82D
 10
327.183
 20
202.689
 30
0.000000
  70
    32
  0
VERTEX
  8
0
  5
82E
 10
327.384
 20
202.850
 30
0.000000
  70
    32
  0
VERTEX
  8
0
  5
82F
 10
327.582
 20
203.017
 30
0.000000
  70
    32
  0
VERTEX
  8
0
  5
830
 10
327.778
 20
203.191
 30
0.000000
  70
    32
  0
VERTEX
  8
0
  5
831
 10
327.970
 20
203.371
 30
0.000000
  70
    32
  0
VERTEX
  8
0
  5
832
 10
328.159
 20
203.558
 30
0.000000
  70
    32
  0
VERTEX
  8
0
  5
833
 10
328.345
 20
203.751
 30
0.000000
  70
    32
  0
VERTEX
  8
0
  5
834
 10
328.527
 20
203.951
 30
0.000000
  70
    32
  0
VERTEX
  8
0
  5
835
 10
328.705
 20
204.156
 30
0.000000
  70
    32
  0
VERTEX
  8
0
  5
836
 10
328.880
 20
204.368
 30
0.000000
  70
    32
  0
VERTEX
  8
0
  5
837
 10
329.051
 20
204.585
 30
0.000000
  70
    32
  0
VERTEX
  8
0
  5
838
 10
329.218
 20
204.808
 30
0.000000
  70
    32
  0
VERTEX
  8
0
  5
839
 10
329.380
 20
205.036
 30
0.000000
  70
    32
  0
VERTEX
  8
0
  5
83A
 10
329.539
 20
205.270
 30
0.000000
  70
    32
  0
VERTEX
  8
0
  5
83B
 10
329.693
 20
205.509
 30
0.000000
  70
    32
  0
VERTEX
  8
0
  5
83C
 10
329.844
 20
205.753
 30
0.000000
  70
    32
  0
VERTEX
  8
0
  5
83D
 10
329.989
 20
206.002
 30
0.000000
  70
    32
  0
VERTEX
  8
0
  5
83E
 10
330.130
 20
206.256
 30
0.000000
  70
    32
  0
VERTEX
  8
0
  5
83F
 10
330.267
 20
206.514
 30
0.000000
  70
    32
  0
VERTEX
  8
0
  5
840
 10
330.399
 20
206.778
 30
0.000000
  70
    32
  0
VERTEX
  8
0
  5
841
 10
330.526
 20
207.045
 30
0.000000
  70
    32
  0
VERTEX
  8
0
  5
842
 10
330.648
 20
207.317
 30
0.000000
  70
    32
  0
VERTEX
  8
0
  5
843
 10
330.766
 20
207.592
 30
0.000000
  70
    32
  0
VERTEX
  8
0
  5
844
 10
330.878
 20
207.872
 30
0.000000
  70
    32
  0
VERTEX
  8
0
  5
845
 10
330.986
 20
208.155
 30
0.000000
  70
    32
  0
VERTEX
  8
0
  5
846
 10
331.088
 20
208.442
 30
0.000000
  70
    32
  0
VERTEX
  8
0
  5
847
 10
331.185
 20
208.732
 30
0.000000
  70
    32
  0
VERTEX
  8
0
  5
848
 10
331.277
 20
209.025
 30
0.000000
  70
    32
  0
VERTEX
  8
0
  5
849
 10
331.363
 20
209.321
 30
0.000000
  70
    32
  0
VERTEX
  8
0
  5
84A
 10
331.445
 20
209.620
 30
0.000000
  70
    32
  0
VERTEX
  8
0
  5
84B
 10
331.521
 20
209.922
 30
0.000000
  70
    32
  0
VERTEX
  8
0
  5
84C
 10
331.591
 20
210.226
 30
0.000000
  70
    32
  0
VERTEX
  8
0
  5
84D
 10
331.656
 20
210.533
 30
0.000000
  70
    32
  0
VERTEX
  8
0
  5
84E
 10
331.715
 20
210.841
 30
0.000000
  70
    32
  0
VERTEX
  8
0
  5
84F
 10
331.769
 20
211.152
 30
0.000000
  70
    32
  0
VERTEX
  8
0
  5
850
 10
331.817
 20
211.464
 30
0.000000
  70
    32
  0
VERTEX
  8
0
  5
851
 10
331.860
 20
211.777
 30
0.000000
  70
    32
  0
VERTEX
  8
0
  5
852
 10
331.897
 20
212.093
 30
0.000000
  70
    32
  0
VERTEX
  8
0
  5
853
 10
331.929
 20
212.409
 30
0.000000
  70
    32
  0
VERTEX
  8
0
  5
854
 10
331.954
 20
212.726
 30
0.000000
  70
    32
  0
VERTEX
  8
0
  5
855
 10
331.974
 20
213.044
 30
0.000000
  70
    32
  0
VERTEX
  8
0
  5
856
 10
331.989
 20
213.362
 30
0.000000
  70
    32
  0
VERTEX
  8
0
  5
857
 10
331.997
 20
213.681
 30
0.000000
  70
    32
  0
VERTEX
  8
0
  5
858
 10
332.000
 20
214.000
 30
0.000000
  70
    32
  0
VERTEX
  8
0
  5
859
 10
331.997
 20
214.319
 30
0.000000
  70
    32
  0
VERTEX
  8
0
  5
85A
 10
331.989
 20
214.638
 30
0.000000
  70
    32
  0
VERTEX
  8
0
  5
85B
 10
331.974
 20
214.956
 30
0.000000
  70
    32
  0
VERTEX
  8
0
  5
85C
 10
331.954
 20
215.274
 30
0.000000
  70
    32
  0
VERTEX
  8
0
  5
85D
 10
331.929
 20
215.591
 30
0.000000
  70
    32
  0
VERTEX
  8
0
  5
85E
 10
331.897
 20
215.907
 30
0.000000
  70
    32
  0
VERTEX
  8
0
  5
85F
 10
331.860
 20
216.223
 30
0.000000
  70
    32
  0
VERTEX
  8
0
  5
860
 10
331.817
 20
216.536
 30
0.000000
  70
    32
  0
VERTEX
  8
0
  5
861
 10
331.769
 20
216.848
 30
0.000000
  70
    32
  0
VERTEX
  8
0
  5
862
 10
331.715
 20
217.159
 30
0.000000
  70
    32
  0
VERTEX
  8
0
  5
863
 10
331.656
 20
217.467
 30
0.000000
  70
    32
  0
VERTEX
  8
0
  5
864
 10
331.591
 20
217.774
 30
0.000000
  70
    32
  0
VERTEX
  8
0
  5
865
 10
331.521
 20
218.078
 30
0.000000
  70
    32
  0
VERTEX
  8
0
  5
866
 10
331.445
 20
218.380
 30
0.000000
  70
    32
  0
VERTEX
  8
0
  5
867
 10
331.363
 20
218.679
 30
0.000000
  70
    32
  0
VERTEX
  8
0
  5
868
 10
331.277
 20
218.975
 30
0.000000
  70
    32
  0
VERTEX
  8
0
  5
869
 10
331.185
 20
219.268
 30
0.000000
  70
    32
  0
VERTEX
  8
0
  5
86A
 10
331.088
 20
219.558
 30
0.000000
  70
    32
  0
VERTEX
  8
0
  5
86B
 10
330.986
 20
219.845
 30
0.000000
  70
    32
  0
VERTEX
  8
0
  5
86C
 10
330.878
 20
220.128
 30
0.000000
  70
    32
  0
VERTEX
  8
0
  5
86D
 10
330.766
 20
220.408
 30
0.000000
  70
    32
  0
VERTEX
  8
0
  5
86E
 10
330.648
 20
220.683
 30
0.000000
  70
    32
  0
VERTEX
  8
0
  5
86F
 10
330.526
 20
220.955
 30
0.000000
  70
    32
  0
VERTEX
  8
0
  5
870
 10
330.399
 20
221.222
 30
0.000000
  70
    32
  0
VERTEX
  8
0
  5
871
 10
330.267
 20
221.486
 30
0.000000
  70
    32
  0
VERTEX
  8
0
  5
872
 10
330.130
 20
221.744
 30
0.000000
  70
    32
  0
VERTEX
  8
0
  5
873
 10
329.989
 20
221.998
 30
0.000000
  70
    32
  0
VERTEX
  8
0
  5
874
 10
329.844
 20
222.247
 30
0.000000
  70
    32
  0
VERTEX
  8
0
  5
875
 10
329.693
 20
222.491
 30
0.000000
  70
    32
  0
VERTEX
  8
0
  5
876
 10
329.539
 20
222.730
 30
0.000000
  70
    32
  0
VERTEX
  8
0
  5
877
 10
329.380
 20
222.964
 30
0.000000
  70
    32
  0
VERTEX
  8
0
  5
878
 10
329.218
 20
223.192
 30
0.000000
  70
    32
  0
VERTEX
  8
0
  5
879
 10
329.051
 20
223.415
 30
0.000000
  70
    32
  0
VERTEX
  8
0
  5
87A
 10
328.880
 20
223.632
 30
0.000000
  70
    32
  0
VERTEX
  8
0
  5
87B
 10
328.705
 20
223.844
 30
0.000000
  70
    32
  0
VERTEX
  8
0
  5
87C
 10
328.527
 20
224.049
 30
0.000000
  70
    32
  0
VERTEX
  8
0
  5
87D
 10
328.345
 20
224.249
 30
0.000000
  70
    32
  0
VERTEX
  8
0
  5
87E
 10
328.159
 20
224.442
 30
0.000000
  70
    32
  0
VERTEX
  8
0
  5
87F
 10
327.970
 20
224.629
 30
0.000000
  70
    32
  0
VERTEX
  8
0
  5
880
 10
327.778
 20
224.809
 30
0.000000
  70
    32
  0
VERTEX
  8
0
  5
881
 10
327.582
 20
224.983
 30
0.000000
  70
    32
  0
VERTEX
  8
0
  5
882
 10
327.384
 20
225.150
 30
0.000000
  70
    32
  0
VERTEX
  8
0
  5
883
 10
327.183
 20
225.311
 30
0.000000
  70
    32
  0
VERTEX
  8
0
  5
884
 10
326.978
 20
225.465
 30
0.000000
  70
    32
  0
VERTEX
  8
0
  5
885
 10
326.771
 20
225.612
 30
0.000000
  70
    32
  0
VERTEX
  8
0
  5
886
 10
326.562
 20
225.752
 30
0.000000
  70
    32
  0
VERTEX
  8
0
  5
887
 10
326.350
 20
225.885
 30
0.000000
  70
    32
  0
VERTEX
  8
0
  5
888
 10
326.135
 20
226.010
 30
0.000000
  70
    32
  0
VERTEX
  8
0
  5
889
 10
325.919
 20
226.129
 30
0.000000
  70
    32
  0
VERTEX
  8
0
  5
88A
 10
325.700
 20
226.240
 30
0.000000
  70
    32
  0
VERTEX
  8
0
  5
88B
 10
325.480
 20
226.344
 30
0.000000
  70
    32
  0
VERTEX
  8
0
  5
88C
 10
325.258
 20
226.440
 30
0.000000
  70
    32
  0
VERTEX
  8
0
  5
88D
 10
325.034
 20
226.529
 30
0.000000
  70
    32
  0
VERTEX
  8
0
  5
88E
 10
324.808
 20
226.610
 30
0.000000
  70
    32
  0
VERTEX
  8
0
  5
88F
 10
324.581
 20
226.684
 30
0.000000
  70
    32
  0
VERTEX
  8
0
  5
890
 10
324.353
 20
226.750
 30
0.000000
  70
    32
  0
VERTEX
  8
0
  5
891
 10
324.124
 20
226.809
 30
0.000000
  70
    32
  0
VERTEX
  8
0
  5
892
 10
323.894
 20
226.859
 30
0.000000
  70
    32
  0
VERTEX
  8
0
  5
893
 10
323.663
 20
226.902
 30
0.000000
  70
    32
  0
VERTEX
  8
0
  5
894
 10
323.431
 20
226.937
 30
0.000000
  70
    32
  0
VERTEX
  8
0
  5
895
 10
323.199
 20
226.965
 30
0.000000
  70
    32
  0
VERTEX
  8
0
  5
896
 10
322.966
 20
226.984
 30
0.000000
  70
    32
  0
VERTEX
  8
0
  5
897
 10
322.733
 20
226.996
 30
0.000000
  70
    32
  0
VERTEX
  8
0
  5
898
 10
322.500
 20
227.000
 30
0.000000
  70
    32
  0
SEQEND
  8
0
  5
899
  0
LINE
  5
3F4
  8
1
 10
128.0
 20
214.00000101329991
 30
0.0
 11
337.0000000007999
 21
214.00000101329991
 31
0.0
  0
ARC
  5
3FC
  8
0
 10
162.50000033366291
 20
111.49999976160009
 30
0.0
 40
10.5
 50
90.0
 51
180.0
  0
ARC
  5
3FD
  8
0
 10
162.50000280726269
 20
111.50000101329989
 30
0.0
 40
29.5
 50
90.0
 51
180.0
  0
ARC
  5
3FE
  8
0
 10
302.49999720446289
 20
111.50000101329989
 30
0.0
 40
29.5
 50
0.0
 51
90.0
  0
ARC
  5
3FF
  8
0
 10
302.49999967806281
 20
111.49999976160009
 30
0.0
 40
10.5
 50
0.0
 51
90.0
  0
POLYLINE
  5
4D5
  8
2
 10
322.50000000040001
 20
227.00000101329991
 30
0.0
 66
     1
 70
     8
  0
VERTEX
  8
2
  5
89A
 10
322.500
 20
227.000
 30
0.000000
  70
    32
  0
VERTEX
  8
2
  5
89B
 10
322.267
 20
226.996
 30
0.000000
  70
    32
  0
VERTEX
  8
2
  5
89C
 10
322.034
 20
226.984
 30
0.000000
  70
    32
  0
VERTEX
  8
2
  5
89D
 10
321.801
 20
226.965
 30
0.000000
  70
    32
  0
VERTEX
  8
2
  5
89E
 10
321.569
 20
226.937
 30
0.000000
  70
    32
  0
VERTEX
  8
2
  5
89F
 10
321.337
 20
226.902
 30
0.000000
  70
    32
  0
VERTEX
  8
2
  5
8A0
 10
321.106
 20
226.859
 30
0.000000
  70
    32
  0
VERTEX
  8
2
  5
8A1
 10
320.876
 20
226.809
 30
0.000000
  70
    32
  0
VERTEX
  8
2
  5
8A2
 10
320.647
 20
226.750
 30
0.000000
  70
    32
  0
VERTEX
  8
2
  5
8A3
 10
320.419
 20
226.684
 30
0.000000
  70
    32
  0
VERTEX
  8
2
  5
8A4
 10
320.192
 20
226.610
 30
0.000000
  70
    32
  0
VERTEX
  8
2
  5
8A5
 10
319.966
 20
226.529
 30
0.000000
  70
    32
  0
VERTEX
  8
2
  5
8A6
 10
319.742
 20
226.440
 30
0.000000
  70
    32
  0
VERTEX
  8
2
  5
8A7
 10
319.520
 20
226.344
 30
0.000000
  70
    32
  0
VERTEX
  8
2
  5
8A8
 10
319.300
 20
226.240
 30
0.000000
  70
    32
  0
VERTEX
  8
2
  5
8A9
 10
319.081
 20
226.129
 30
0.000000
  70
    32
  0
VERTEX
  8
2
  5
8AA
 10
318.865
 20
226.010
 30
0.000000
  70
    32
  0
VERTEX
  8
2
  5
8AB
 10
318.650
 20
225.885
 30
0.000000
  70
    32
  0
VERTEX
  8
2
  5
8AC
 10
318.438
 20
225.752
 30
0.000000
  70
    32
  0
VERTEX
  8
2
  5
8AD
 10
318.229
 20
225.612
 30
0.000000
  70
    32
  0
VERTEX
  8
2
  5
8AE
 10
318.022
 20
225.465
 30
0.000000
  70
    32
  0
VERTEX
  8
2
  5
8AF
 10
317.817
 20
225.311
 30
0.000000
  70
    32
  0
VERTEX
  8
2
  5
8B0
 10
317.616
 20
225.150
 30
0.000000
  70
    32
  0
VERTEX
  8
2
  5
8B1
 10
317.418
 20
224.983
 30
0.000000
  70
    32
  0
VERTEX
  8
2
  5
8B2
 10
317.222
 20
224.809
 30
0.000000
  70
    32
  0
VERTEX
  8
2
  5
8B3
 10
317.030
 20
224.629
 30
0.000000
  70
    32
  0
VERTEX
  8
2
  5
8B4
 10
316.841
 20
224.442
 30
0.000000
  70
    32
  0
VERTEX
  8
2
  5
8B5
 10
316.655
 20
224.249
 30
0.000000
  70
    32
  0
VERTEX
  8
2
  5
8B6
 10
316.473
 20
224.049
 30
0.000000
  70
    32
  0
VERTEX
  8
2
  5
8B7
 10
316.295
 20
223.844
 30
0.000000
  70
    32
  0
VERTEX
  8
2
  5
8B8
 10
316.120
 20
223.632
 30
0.000000
  70
    32
  0
VERTEX
  8
2
  5
8B9
 10
315.949
 20
223.415
 30
0.000000
  70
    32
  0
VERTEX
  8
2
  5
8BA
 10
315.782
 20
223.192
 30
0.000000
  70
    32
  0
VERTEX
  8
2
  5
8BB
 10
315.620
 20
222.964
 30
0.000000
  70
    32
  0
VERTEX
  8
2
  5
8BC
 10
315.461
 20
222.730
 30
0.000000
  70
    32
  0
VERTEX
  8
2
  5
8BD
 10
315.307
 20
222.491
 30
0.000000
  70
    32
  0
VERTEX
  8
2
  5
8BE
 10
315.156
 20
222.247
 30
0.000000
  70
    32
  0
VERTEX
  8
2
  5
8BF
 10
315.011
 20
221.998
 30
0.000000
  70
    32
  0
VERTEX
  8
2
  5
8C0
 10
314.870
 20
221.744
 30
0.000000
  70
    32
  0
VERTEX
  8
2
  5
8C1
 10
314.733
 20
221.486
 30
0.000000
  70
    32
  0
VERTEX
  8
2
  5
8C2
 10
314.601
 20
221.222
 30
0.000000
  70
    32
  0
VERTEX
  8
2
  5
8C3
 10
314.474
 20
220.955
 30
0.000000
  70
    32
  0
VERTEX
  8
2
  5
8C4
 10
314.352
 20
220.683
 30
0.000000
  70
    32
  0
VERTEX
  8
2
  5
8C5
 10
314.234
 20
220.408
 30
0.000000
  70
    32
  0
VERTEX
  8
2
  5
8C6
 10
314.122
 20
220.128
 30
0.000000
  70
    32
  0
VERTEX
  8
2
  5
8C7
 10
314.014
 20
219.845
 30
0.000000
  70
    32
  0
VERTEX
  8
2
  5
8C8
 10
313.912
 20
219.558
 30
0.000000
  70
    32
  0
VERTEX
  8
2
  5
8C9
 10
313.815
 20
219.268
 30
0.000000
  70
    32
  0
VERTEX
  8
2
  5
8CA
 10
313.723
 20
218.975
 30
0.000000
  70
    32
  0
VERTEX
  8
2
  5
8CB
 10
313.637
 20
218.679
 30
0.000000
  70
    32
  0
VERTEX
  8
2
  5
8CC
 10
313.555
 20
218.380
 30
0.000000
  70
    32
  0
VERTEX
  8
2
  5
8CD
 10
313.479
 20
218.078
 30
0.000000
  70
    32
  0
VERTEX
  8
2
  5
8CE
 10
313.409
 20
217.774
 30
0.000000
  70
    32
  0
VERTEX
  8
2
  5
8CF
 10
313.344
 20
217.467
 30
0.000000
  70
    32
  0
VERTEX
  8
2
  5
8D0
 10
313.285
 20
217.159
 30
0.000000
  70
    32
  0
VERTEX
  8
2
  5
8D1
 10
313.231
 20
216.848
 30
0.000000
  70
    32
  0
VERTEX
  8
2
  5
8D2
 10
313.183
 20
216.536
 30
0.000000
  70
    32
  0
VERTEX
  8
2
  5
8D3
 10
313.140
 20
216.223
 30
0.000000
  70
    32
  0
VERTEX
  8
2
  5
8D4
 10
313.103
 20
215.907
 30
0.000000
  70
    32
  0
VERTEX
  8
2
  5
8D5
 10
313.071
 20
215.591
 30
0.000000
  70
    32
  0
VERTEX
  8
2
  5
8D6
 10
313.046
 20
215.274
 30
0.000000
  70
    32
  0
VERTEX
  8
2
  5
8D7
 10
313.026
 20
214.956
 30
0.000000
  70
    32
  0
VERTEX
  8
2
  5
8D8
 10
313.011
 20
214.638
 30
0.000000
  70
    32
  0
VERTEX
  8
2
  5
8D9
 10
313.003
 20
214.319
 30
0.000000
  70
    32
  0
VERTEX
  8
2
  5
8DA
 10
313.000
 20
214.000
 30
0.000000
  70
    32
  0
VERTEX
  8
2
  5
8DB
 10
313.003
 20
213.681
 30
0.000000
  70
    32
  0
VERTEX
  8
2
  5
8DC
 10
313.011
 20
213.362
 30
0.000000
  70
    32
  0
VERTEX
  8
2
  5
8DD
 10
313.026
 20
213.044
 30
0.000000
  70
    32
  0
VERTEX
  8
2
  5
8DE
 10
313.046
 20
212.726
 30
0.000000
  70
    32
  0
VERTEX
  8
2
  5
8DF
 10
313.071
 20
212.409
 30
0.000000
  70
    32
  0
VERTEX
  8
2
  5
8E0
 10
313.103
 20
212.093
 30
0.000000
  70
    32
  0
VERTEX
  8
2
  5
8E1
 10
313.140
 20
211.777
 30
0.000000
  70
    32
  0
VERTEX
  8
2
  5
8E2
 10
313.183
 20
211.464
 30
0.000000
  70
    32
  0
VERTEX
  8
2
  5
8E3
 10
313.231
 20
211.152
 30
0.000000
  70
    32
  0
VERTEX
  8
2
  5
8E4
 10
313.285
 20
210.841
 30
0.000000
  70
    32
  0
VERTEX
  8
2
  5
8E5
 10
313.344
 20
210.533
 30
0.000000
  70
    32
  0
VERTEX
  8
2
  5
8E6
 10
313.409
 20
210.226
 30
0.000000
  70
    32
  0
VERTEX
  8
2
  5
8E7
 10
313.479
 20
209.922
 30
0.000000
  70
    32
  0
VERTEX
  8
2
  5
8E8
 10
313.555
 20
209.620
 30
0.000000
  70
    32
  0
VERTEX
  8
2
  5
8E9
 10
313.637
 20
209.321
 30
0.000000
  70
    32
  0
VERTEX
  8
2
  5
8EA
 10
313.723
 20
209.025
 30
0.000000
  70
    32
  0
VERTEX
  8
2
  5
8EB
 10
313.815
 20
208.732
 30
0.000000
  70
    32
  0
VERTEX
  8
2
  5
8EC
 10
313.912
 20
208.442
 30
0.000000
  70
    32
  0
VERTEX
  8
2
  5
8ED
 10
314.014
 20
208.155
 30
0.000000
  70
    32
  0
VERTEX
  8
2
  5
8EE
 10
314.122
 20
207.872
 30
0.000000
  70
    32
  0
VERTEX
  8
2
  5
8EF
 10
314.234
 20
207.592
 30
0.000000
  70
    32
  0
VERTEX
  8
2
  5
8F0
 10
314.352
 20
207.317
 30
0.000000
  70
    32
  0
VERTEX
  8
2
  5
8F1
 10
314.474
 20
207.045
 30
0.000000
  70
    32
  0
VERTEX
  8
2
  5
8F2
 10
314.601
 20
206.778
 30
0.000000
  70
    32
  0
VERTEX
  8
2
  5
8F3
 10
314.733
 20
206.514
 30
0.000000
  70
    32
  0
VERTEX
  8
2
  5
8F4
 10
314.870
 20
206.256
 30
0.000000
  70
    32
  0
VERTEX
  8
2
  5
8F5
 10
315.011
 20
206.002
 30
0.000000
  70
    32
  0
VERTEX
  8
2
  5
8F6
 10
315.156
 20
205.753
 30
0.000000
  70
    32
  0
VERTEX
  8
2
  5
8F7
 10
315.307
 20
205.509
 30
0.000000
  70
    32
  0
VERTEX
  8
2
  5
8F8
 10
315.461
 20
205.270
 30
0.000000
  70
    32
  0
VERTEX
  8
2
  5
8F9
 10
315.620
 20
205.036
 30
0.000000
  70
    32
  0
VERTEX
  8
2
  5
8FA
 10
315.782
 20
204.808
 30
0.000000
  70
    32
  0
VERTEX
  8
2
  5
8FB
 10
315.949
 20
204.585
 30
0.000000
  70
    32
  0
VERTEX
  8
2
  5
8FC
 10
316.120
 20
204.368
 30
0.000000
  70
    32
  0
VERTEX
  8
2
  5
8FD
 10
316.295
 20
204.156
 30
0.000000
  70
    32
  0
VERTEX
  8
2
  5
8FE
 10
316.473
 20
203.951
 30
0.000000
  70
    32
  0
VERTEX
  8
2
  5
8FF
 10
316.655
 20
203.751
 30
0.000000
  70
    32
  0
VERTEX
  8
2
  5
900
 10
316.841
 20
203.558
 30
0.000000
  70
    32
  0
VERTEX
  8
2
  5
901
 10
317.030
 20
203.371
 30
0.000000
  70
    32
  0
VERTEX
  8
2
  5
902
 10
317.222
 20
203.191
 30
0.000000
  70
    32
  0
VERTEX
  8
2
  5
903
 10
317.418
 20
203.017
 30
0.000000
  70
    32
  0
VERTEX
  8
2
  5
904
 10
317.616
 20
202.850
 30
0.000000
  70
    32
  0
VERTEX
  8
2
  5
905
 10
317.817
 20
202.689
 30
0.000000
  70
    32
  0
VERTEX
  8
2
  5
906
 10
318.022
 20
202.535
 30
0.000000
  70
    32
  0
VERTEX
  8
2
  5
907
 10
318.229
 20
202.388
 30
0.000000
  70
    32
  0
VERTEX
  8
2
  5
908
 10
318.438
 20
202.248
 30
0.000000
  70
    32
  0
VERTEX
  8
2
  5
909
 10
318.650
 20
202.115
 30
0.000000
  70
    32
  0
VERTEX
  8
2
  5
90A
 10
318.865
 20
201.990
 30
0.000000
  70
    32
  0
VERTEX
  8
2
  5
90B
 10
319.081
 20
201.871
 30
0.000000
  70
    32
  0
VERTEX
  8
2
  5
90C
 10
319.300
 20
201.760
 30
0.000000
  70
    32
  0
VERTEX
  8
2
  5
90D
 10
319.520
 20
201.656
 30
0.000000
  70
    32
  0
VERTEX
  8
2
  5
90E
 10
319.742
 20
201.560
 30
0.000000
  70
    32
  0
VERTEX
  8
2
  5
90F
 10
319.966
 20
201.471
 30
0.000000
  70
    32
  0
VERTEX
  8
2
  5
910
 10
320.192
 20
201.390
 30
0.000000
  70
    32
  0
VERTEX
  8
2
  5
911
 10
320.419
 20
201.316
 30
0.000000
  70
    32
  0
VERTEX
  8
2
  5
912
 10
320.647
 20
201.250
 30
0.000000
  70
    32
  0
VERTEX
  8
2
  5
913
 10
320.876
 20
201.191
 30
0.000000
  70
    32
  0
VERTEX
  8
2
  5
914
 10
321.106
 20
201.141
 30
0.000000
  70
    32
  0
VERTEX
  8
2
  5
915
 10
321.337
 20
201.098
 30
0.000000
  70
    32
  0
VERTEX
  8
2
  5
916
 10
321.569
 20
201.063
 30
0.000000
  70
    32
  0
VERTEX
  8
2
  5
917
 10
321.801
 20
201.035
 30
0.000000
  70
    32
  0
VERTEX
  8
2
  5
918
 10
322.034
 20
201.016
 30
0.000000
  70
    32
  0
VERTEX
  8
2
  5
919
 10
322.267
 20
201.004
 30
0.000000
  70
    32
  0
VERTEX
  8
2
  5
91A
 10
322.500
 20
201.000
 30
0.000000
  70
    32
  0
SEQEND
  8
2
  5
91B
  0
POLYLINE
  5
4D6
  8
2
 10
142.50000000040001
 20
201.00000101329991
 30
0.0
 66
     1
 70
     8
  0
VERTEX
  8
2
  5
91C
 10
142.500
 20
201.000
 30
0.000000
  70
    32
  0
VERTEX
  8
2
  5
91D
 10
142.733
 20
201.004
 30
0.000000
  70
    32
  0
VERTEX
  8
2
  5
91E
 10
142.966
 20
201.016
 30
0.000000
  70
    32
  0
VERTEX
  8
2
  5
91F
 10
143.199
 20
201.035
 30
0.000000
  70
    32
  0
VERTEX
  8
2
  5
920
 10
143.431
 20
201.063
 30
0.000000
  70
    32
  0
VERTEX
  8
2
  5
921
 10
143.663
 20
201.098
 30
0.000000
  70
    32
  0
VERTEX
  8
2
  5
922
 10
143.894
 20
201.141
 30
0.000000
  70
    32
  0
VERTEX
  8
2
  5
923
 10
144.124
 20
201.191
 30
0.000000
  70
    32
  0
VERTEX
  8
2
  5
924
 10
144.353
 20
201.250
 30
0.000000
  70
    32
  0
VERTEX
  8
2
  5
925
 10
144.581
 20
201.316
 30
0.000000
  70
    32
  0
VERTEX
  8
2
  5
926
 10
144.808
 20
201.390
 30
0.000000
  70
    32
  0
VERTEX
  8
2
  5
927
 10
145.034
 20
201.471
 30
0.000000
  70
    32
  0
VERTEX
  8
2
  5
928
 10
145.258
 20
201.560
 30
0.000000
  70
    32
  0
VERTEX
  8
2
  5
929
 10
145.480
 20
201.656
 30
0.000000
  70
    32
  0
VERTEX
  8
2
  5
92A
 10
145.700
 20
201.760
 30
0.000000
  70
    32
  0
VERTEX
  8
2
  5
92B
 10
145.919
 20
201.871
 30
0.000000
  70
    32
  0
VERTEX
  8
2
  5
92C
 10
146.135
 20
201.990
 30
0.000000
  70
    32
  0
VERTEX
  8
2
  5
92D
 10
146.350
 20
202.115
 30
0.000000
  70
    32
  0
VERTEX
  8
2
  5
92E
 10
146.562
 20
202.248
 30
0.000000
  70
    32
  0
VERTEX
  8
2
  5
92F
 10
146.771
 20
202.388
 30
0.000000
  70
    32
  0
VERTEX
  8
2
  5
930
 10
146.978
 20
202.535
 30
0.000000
  70
    32
  0
VERTEX
  8
2
  5
931
 10
147.183
 20
202.689
 30
0.000000
  70
    32
  0
VERTEX
  8
2
  5
932
 10
147.384
 20
202.850
 30
0.000000
  70
    32
  0
VERTEX
  8
2
  5
933
 10
147.582
 20
203.017
 30
0.000000
  70
    32
  0
VERTEX
  8
2
  5
934
 10
147.778
 20
203.191
 30
0.000000
  70
    32
  0
VERTEX
  8
2
  5
935
 10
147.970
 20
203.371
 30
0.000000
  70
    32
  0
VERTEX
  8
2
  5
936
 10
148.159
 20
203.558
 30
0.000000
  70
    32
  0
VERTEX
  8
2
  5
937
 10
148.345
 20
203.751
 30
0.000000
  70
    32
  0
VERTEX
  8
2
  5
938
 10
148.527
 20
203.951
 30
0.000000
  70
    32
  0
VERTEX
  8
2
  5
939
 10
148.705
 20
204.156
 30
0.000000
  70
    32
  0
VERTEX
  8
2
  5
93A
 10
148.880
 20
204.368
 30
0.000000
  70
    32
  0
VERTEX
  8
2
  5
93B
 10
149.051
 20
204.585
 30
0.000000
  70
    32
  0
VERTEX
  8
2
  5
93C
 10
149.218
 20
204.808
 30
0.000000
  70
    32
  0
VERTEX
  8
2
  5
93D
 10
149.380
 20
205.036
 30
0.000000
  70
    32
  0
VERTEX
  8
2
  5
93E
 10
149.539
 20
205.270
 30
0.000000
  70
    32
  0
VERTEX
  8
2
  5
93F
 10
149.693
 20
205.509
 30
0.000000
  70
    32
  0
VERTEX
  8
2
  5
940
 10
149.844
 20
205.753
 30
0.000000
  70
    32
  0
VERTEX
  8
2
  5
941
 10
149.989
 20
206.002
 30
0.000000
  70
    32
  0
VERTEX
  8
2
  5
942
 10
150.130
 20
206.256
 30
0.000000
  70
    32
  0
VERTEX
  8
2
  5
943
 10
150.267
 20
206.514
 30
0.000000
  70
    32
  0
VERTEX
  8
2
  5
944
 10
150.399
 20
206.778
 30
0.000000
  70
    32
  0
VERTEX
  8
2
  5
945
 10
150.526
 20
207.045
 30
0.000000
  70
    32
  0
VERTEX
  8
2
  5
946
 10
150.648
 20
207.317
 30
0.000000
  70
    32
  0
VERTEX
  8
2
  5
947
 10
150.766
 20
207.592
 30
0.000000
  70
    32
  0
VERTEX
  8
2
  5
948
 10
150.878
 20
207.872
 30
0.000000
  70
    32
  0
VERTEX
  8
2
  5
949
 10
150.986
 20
208.155
 30
0.000000
  70
    32
  0
VERTEX
  8
2
  5
94A
 10
151.088
 20
208.442
 30
0.000000
  70
    32
  0
VERTEX
  8
2
  5
94B
 10
151.185
 20
208.732
 30
0.000000
  70
    32
  0
VERTEX
  8
2
  5
94C
 10
151.277
 20
209.025
 30
0.000000
  70
    32
  0
VERTEX
  8
2
  5
94D
 10
151.363
 20
209.321
 30
0.000000
  70
    32
  0
VERTEX
  8
2
  5
94E
 10
151.445
 20
209.620
 30
0.000000
  70
    32
  0
VERTEX
  8
2
  5
94F
 10
151.521
 20
209.922
 30
0.000000
  70
    32
  0
VERTEX
  8
2
  5
950
 10
151.591
 20
210.226
 30
0.000000
  70
    32
  0
VERTEX
  8
2
  5
951
 10
151.656
 20
210.533
 30
0.000000
  70
    32
  0
VERTEX
  8
2
  5
952
 10
151.715
 20
210.841
 30
0.000000
  70
    32
  0
VERTEX
  8
2
  5
953
 10
151.769
 20
211.152
 30
0.000000
  70
    32
  0
VERTEX
  8
2
  5
954
 10
151.817
 20
211.464
 30
0.000000
  70
    32
  0
VERTEX
  8
2
  5
955
 10
151.860
 20
211.777
 30
0.000000
  70
    32
  0
VERTEX
  8
2
  5
956
 10
151.897
 20
212.093
 30
0.000000
  70
    32
  0
VERTEX
  8
2
  5
957
 10
151.929
 20
212.409
 30
0.000000
  70
    32
  0
VERTEX
  8
2
  5
958
 10
151.954
 20
212.726
 30
0.000000
  70
    32
  0
VERTEX
  8
2
  5
959
 10
151.974
 20
213.044
 30
0.000000
  70
    32
  0
VERTEX
  8
2
  5
95A
 10
151.989
 20
213.362
 30
0.000000
  70
    32
  0
VERTEX
  8
2
  5
95B
 10
151.997
 20
213.681
 30
0.000000
  70
    32
  0
VERTEX
  8
2
  5
95C
 10
152.000
 20
214.000
 30
0.000000
  70
    32
  0
VERTEX
  8
2
  5
95D
 10
151.997
 20
214.319
 30
0.000000
  70
    32
  0
VERTEX
  8
2
  5
95E
 10
151.989
 20
214.638
 30
0.000000
  70
    32
  0
VERTEX
  8
2
  5
95F
 10
151.974
 20
214.956
 30
0.000000
  70
    32
  0
VERTEX
  8
2
  5
960
 10
151.954
 20
215.274
 30
0.000000
  70
    32
  0
VERTEX
  8
2
  5
961
 10
151.929
 20
215.591
 30
0.000000
  70
    32
  0
VERTEX
  8
2
  5
962
 10
151.897
 20
215.907
 30
0.000000
  70
    32
  0
VERTEX
  8
2
  5
963
 10
151.860
 20
216.223
 30
0.000000
  70
    32
  0
VERTEX
  8
2
  5
964
 10
151.817
 20
216.536
 30
0.000000
  70
    32
  0
VERTEX
  8
2
  5
965
 10
151.769
 20
216.848
 30
0.000000
  70
    32
  0
VERTEX
  8
2
  5
966
 10
151.715
 20
217.159
 30
0.000000
  70
    32
  0
VERTEX
  8
2
  5
967
 10
151.656
 20
217.467
 30
0.000000
  70
    32
  0
VERTEX
  8
2
  5
968
 10
151.591
 20
217.774
 30
0.000000
  70
    32
  0
VERTEX
  8
2
  5
969
 10
151.521
 20
218.078
 30
0.000000
  70
    32
  0
VERTEX
  8
2
  5
96A
 10
151.445
 20
218.380
 30
0.000000
  70
    32
  0
VERTEX
  8
2
  5
96B
 10
151.363
 20
218.679
 30
0.000000
  70
    32
  0
VERTEX
  8
2
  5
96C
 10
151.277
 20
218.975
 30
0.000000
  70
    32
  0
VERTEX
  8
2
  5
96D
 10
151.185
 20
219.268
 30
0.000000
  70
    32
  0
VERTEX
  8
2
  5
96E
 10
151.088
 20
219.558
 30
0.000000
  70
    32
  0
VERTEX
  8
2
  5
96F
 10
150.986
 20
219.845
 30
0.000000
  70
    32
  0
VERTEX
  8
2
  5
970
 10
150.878
 20
220.128
 30
0.000000
  70
    32
  0
VERTEX
  8
2
  5
971
 10
150.766
 20
220.408
 30
0.000000
  70
    32
  0
VERTEX
  8
2
  5
972
 10
150.648
 20
220.683
 30
0.000000
  70
    32
  0
VERTEX
  8
2
  5
973
 10
150.526
 20
220.955
 30
0.000000
  70
    32
  0
VERTEX
  8
2
  5
974
 10
150.399
 20
221.222
 30
0.000000
  70
    32
  0
VERTEX
  8
2
  5
975
 10
150.267
 20
221.486
 30
0.000000
  70
    32
  0
VERTEX
  8
2
  5
976
 10
150.130
 20
221.744
 30
0.000000
  70
    32
  0
VERTEX
  8
2
  5
977
 10
149.989
 20
221.998
 30
0.000000
  70
    32
  0
VERTEX
  8
2
  5
978
 10
149.844
 20
222.247
 30
0.000000
  70
    32
  0
VERTEX
  8
2
  5
979
 10
149.693
 20
222.491
 30
0.000000
  70
    32
  0
VERTEX
  8
2
  5
97A
 10
149.539
 20
222.730
 30
0.000000
  70
    32
  0
VERTEX
  8
2
  5
97B
 10
149.380
 20
222.964
 30
0.000000
  70
    32
  0
VERTEX
  8
2
  5
97C
 10
149.218
 20
223.192
 30
0.000000
  70
    32
  0
VERTEX
  8
2
  5
97D
 10
149.051
 20
223.415
 30
0.000000
  70
    32
  0
VERTEX
  8
2
  5
97E
 10
148.880
 20
223.632
 30
0.000000
  70
    32
  0
VERTEX
  8
2
  5
97F
 10
148.705
 20
223.844
 30
0.000000
  70
    32
  0
VERTEX
  8
2
  5
980
 10
148.527
 20
224.049
 30
0.000000
  70
    32
  0
VERTEX
  8
2
  5
981
 10
148.345
 20
224.249
 30
0.000000
  70
    32
  0
VERTEX
  8
2
  5
982
 10
148.159
 20
224.442
 30
0.000000
  70
    32
  0
VERTEX
  8
2
  5
983
 10
147.970
 20
224.629
 30
0.000000
  70
    32
  0
VERTEX
  8
2
  5
984
 10
147.778
 20
224.809
 30
0.000000
  70
    32
  0
VERTEX
  8
2
  5
985
 10
147.582
 20
224.983
 30
0.000000
  70
    32
  0
VERTEX
  8
2
  5
986
 10
147.384
 20
225.150
 30
0.000000
  70
    32
  0
VERTEX
  8
2
  5
987
 10
147.183
 20
225.311
 30
0.000000
  70
    32
  0
VERTEX
  8
2
  5
988
 10
146.978
 20
225.465
 30
0.000000
  70
    32
  0
VERTEX
  8
2
  5
989
 10
146.771
 20
225.612
 30
0.000000
  70
    32
  0
VERTEX
  8
2
  5
98A
 10
146.562
 20
225.752
 30
0.000000
  70
    32
  0
VERTEX
  8
2
  5
98B
 10
146.350
 20
225.885
 30
0.000000
  70
    32
  0
VERTEX
  8
2
  5
98C
 10
146.135
 20
226.010
 30
0.000000
  70
    32
  0
VERTEX
  8
2
  5
98D
 10
145.919
 20
226.129
 30
0.000000
  70
    32
  0
VERTEX
  8
2
  5
98E
 10
145.700
 20
226.240
 30
0.000000
  70
    32
  0
VERTEX
  8
2
  5
98F
 10
145.480
 20
226.344
 30
0.000000
  70
    32
  0
VERTEX
  8
2
  5
990
 10
145.258
 20
226.440
 30
0.000000
  70
    32
  0
VERTEX
  8
2
  5
991
 10
145.034
 20
226.529
 30
0.000000
  70
    32
  0
VERTEX
  8
2
  5
992
 10
144.808
 20
226.610
 30
0.000000
  70
    32
  0
VERTEX
  8
2
  5
993
 10
144.581
 20
226.684
 30
0.000000
  70
    32
  0
VERTEX
  8
2
  5
994
 10
144.353
 20
226.750
 30
0.000000
  70
    32
  0
VERTEX
  8
2
  5
995
 10
144.124
 20
226.809
 30
0.000000
  70
    32
  0
VERTEX
  8
2
  5
996
 10
143.894
 20
226.859
 30
0.000000
  70
    32
  0
VERTEX
  8
2
  5
997
 10
143.663
 20
226.902
 30
0.000000
  70
    32
  0
VERTEX
  8
2
  5
998
 10
143.431
 20
226.937
 30
0.000000
  70
    32
  0
VERTEX
  8
2
  5
999
 10
143.199
 20
226.965
 30
0.000000
  70
    32
  0
VERTEX
  8
2
  5
99A
 10
142.966
 20
226.984
 30
0.000000
  70
    32
  0
VERTEX
  8
2
  5
99B
 10
142.733
 20
226.996
 30
0.000000
  70
    32
  0
VERTEX
  8
2
  5
99C
 10
142.500
 20
227.000
 30
0.000000
  70
    32
  0
SEQEND
  8
2
  5
99D
  0
ARC
  5
4E1
  8
1
 10
162.5000000058628
 20
111.5
 30
0.0
 40
20.0
 50
90.0
 51
180.0
  0
ARC
  5
4E2
  8
1
 10
302.50000000586289
 20
111.5
 30
0.0
 40
20.0
 50
0.0
 51
90.0
  0
LINE
  5
4FD
  8
0
 10
82.999999999999943
 20
75.000000000000057
 30
0.0
 11
83.0
 21
131.50000102382569
 31
0.0
  0
LINE
  5
4FE
  8
0
 10
57.0
 20
131.5000010225117
 30
0.0
 11
57.0
 21
75.000000000000057
 31
0.0
  0
POLYLINE
  5
500
  8
0
 10
83.0
 20
131.50000101289999
 30
0.0
 66
     1
 70
     8
  0
VERTEX
  8
0
  5
99E
 10
83.0000
 20
131.500
 30
0.000000
  70
    32
  0
VERTEX
  8
0
  5
99F
 10
82.9961
 20
131.733
 30
0.000000
  70
    32
  0
VERTEX
  8
0
  5
9A0
 10
82.9843
 20
131.966
 30
0.000000
  70
    32
  0
VERTEX
  8
0
  5
9A1
 10
82.9648
 20
132.199
 30
0.000000
  70
    32
  0
VERTEX
  8
0
  5
9A2
 10
82.9374
 20
132.431
 30
0.000000
  70
    32
  0
VERTEX
  8
0
  5
9A3
 10
82.9022
 20
132.663
 30
0.000000
  70
    32
  0
VERTEX
  8
0
  5
9A4
 10
82.8593
 20
132.894
 30
0.000000
  70
    32
  0
VERTEX
  8
0
  5
9A5
 10
82.8086
 20
133.124
 30
0.000000
  70
    32
  0
VERTEX
  8
0
  5
9A6
 10
82.7502
 20
133.353
 30
0.000000
  70
    32
  0
VERTEX
  8
0
  5
9A7
 10
82.6841
 20
133.581
 30
0.000000
  70
    32
  0
VERTEX
  8
0
  5
9A8
 10
82.6104
 20
133.808
 30
0.000000
  70
    32
  0
VERTEX
  8
0
  5
9A9
 10
82.5291
 20
134.034
 30
0.000000
  70
    32
  0
VERTEX
  8
0
  5
9AA
 10
82.4402
 20
134.258
 30
0.000000
  70
    32
  0
VERTEX
  8
0
  5
9AB
 10
82.3439
 20
134.480
 30
0.000000
  70
    32
  0
VERTEX
  8
0
  5
9AC
 10
82.2401
 20
134.700
 30
0.000000
  70
    32
  0
VERTEX
  8
0
  5
9AD
 10
82.1289
 20
134.919
 30
0.000000
  70
    32
  0
VERTEX
  8
0
  5
9AE
 10
82.0104
 20
135.135
 30
0.000000
  70
    32
  0
VERTEX
  8
0
  5
9AF
 10
81.8847
 20
135.350
 30
0.000000
  70
    32
  0
VERTEX
  8
0
  5
9B0
 10
81.7519
 20
135.562
 30
0.000000
  70
    32
  0
VERTEX
  8
0
  5
9B1
 10
81.6119
 20
135.771
 30
0.000000
  70
    32
  0
VERTEX
  8
0
  5
9B2
 10
81.4650
 20
135.978
 30
0.000000
  70
    32
  0
VERTEX
  8
0
  5
9B3
 10
81.3111
 20
136.183
 30
0.000000
  70
    32
  0
VERTEX
  8
0
  5
9B4
 10
81.1505
 20
136.384
 30
0.000000
  70
    32
  0
VERTEX
  8
0
  5
9B5
 10
80.9831
 20
136.582
 30
0.000000
  70
    32
  0
VERTEX
  8
0
  5
9B6
 10
80.8091
 20
136.778
 30
0.000000
  70
    32
  0
VERTEX
  8
0
  5
9B7
 10
80.6286
 20
136.970
 30
0.000000
  70
    32
  0
VERTEX
  8
0
  5
9B8
 10
80.4417
 20
137.159
 30
0.000000
  70
    32
  0
VERTEX
  8
0
  5
9B9
 10
80.2485
 20
137.345
 30
0.000000
  70
    32
  0
VERTEX
  8
0
  5
9BA
 10
80.0491
 20
137.527
 30
0.000000
  70
    32
  0
VERTEX
  8
0
  5
9BB
 10
79.8437
 20
137.705
 30
0.000000
  70
    32
  0
VERTEX
  8
0
  5
9BC
 10
79.6324
 20
137.880
 30
0.000000
  70
    32
  0
VERTEX
  8
0
  5
9BD
 10
79.4152
 20
138.051
 30
0.000000
  70
    32
  0
VERTEX
  8
0
  5
9BE
 10
79.1924
 20
138.218
 30
0.000000
  70
    32
  0
VERTEX
  8
0
  5
9BF
 10
78.9640
 20
138.380
 30
0.000000
  70
    32
  0
VERTEX
  8
0
  5
9C0
 10
78.7303
 20
138.539
 30
0.000000
  70
    32
  0
VERTEX
  8
0
  5
9C1
 10
78.4912
 20
138.693
 30
0.000000
  70
    32
  0
VERTEX
  8
0
  5
9C2
 10
78.2471
 20
138.844
 30
0.000000
  70
    32
  0
VERTEX
  8
0
  5
9C3
 10
77.9980
 20
138.989
 30
0.000000
  70
    32
  0
VERTEX
  8
0
  5
9C4
 10
77.7441
 20
139.130
 30
0.000000
  70
    32
  0
VERTEX
  8
0
  5
9C5
 10
77.4855
 20
139.267
 30
0.000000
  70
    32
  0
VERTEX
  8
0
  5
9C6
 10
77.2224
 20
139.399
 30
0.000000
  70
    32
  0
VERTEX
  8
0
  5
9C7
 10
76.9550
 20
139.526
 30
0.000000
  70
    32
  0
VERTEX
  8
0
  5
9C8
 10
76.6833
 20
139.648
 30
0.000000
  70
    32
  0
VERTEX
  8
0
  5
9C9
 10
76.4077
 20
139.766
 30
0.000000
  70
    32
  0
VERTEX
  8
0
  5
9CA
 10
76.1282
 20
139.878
 30
0.000000
  70
    32
  0
VERTEX
  8
0
  5
9CB
 10
75.8449
 20
139.986
 30
0.000000
  70
    32
  0
VERTEX
  8
0
  5
9CC
 10
75.5582
 20
140.088
 30
0.000000
  70
    32
  0
VERTEX
  8
0
  5
9CD
 10
75.2681
 20
140.185
 30
0.000000
  70
    32
  0
VERTEX
  8
0
  5
9CE
 10
74.9749
 20
140.277
 30
0.000000
  70
    32
  0
VERTEX
  8
0
  5
9CF
 10
74.6786
 20
140.363
 30
0.000000
  70
    32
  0
VERTEX
  8
0
  5
9D0
 10
74.3796
 20
140.445
 30
0.000000
  70
    32
  0
VERTEX
  8
0
  5
9D1
 10
74.0779
 20
140.521
 30
0.000000
  70
    32
  0
VERTEX
  8
0
  5
9D2
 10
73.7737
 20
140.591
 30
0.000000
  70
    32
  0
VERTEX
  8
0
  5
9D3
 10
73.4673
 20
140.656
 30
0.000000
  70
    32
  0
VERTEX
  8
0
  5
9D4
 10
73.1587
 20
140.715
 30
0.000000
  70
    32
  0
VERTEX
  8
0
  5
9D5
 10
72.8483
 20
140.769
 30
0.000000
  70
    32
  0
VERTEX
  8
0
  5
9D6
 10
72.5362
 20
140.817
 30
0.000000
  70
    32
  0
VERTEX
  8
0
  5
9D7
 10
72.2225
 20
140.860
 30
0.000000
  70
    32
  0
VERTEX
  8
0
  5
9D8
 10
71.9075
 20
140.897
 30
0.000000
  70
    32
  0
VERTEX
  8
0
  5
9D9
 10
71.5913
 20
140.929
 30
0.000000
  70
    32
  0
VERTEX
  8
0
  5
9DA
 10
71.2742
 20
140.954
 30
0.000000
  70
    32
  0
VERTEX
  8
0
  5
9DB
 10
70.9563
 20
140.974
 30
0.000000
  70
    32
  0
VERTEX
  8
0
  5
9DC
 10
70.6379
 20
140.989
 30
0.000000
  70
    32
  0
VERTEX
  8
0
  5
9DD
 10
70.3190
 20
140.997
 30
0.000000
  70
    32
  0
VERTEX
  8
0
  5
9DE
 10
70.0000
 20
141.000
 30
0.000000
  70
    32
  0
VERTEX
  8
0
  5
9DF
 10
69.6810
 20
140.997
 30
0.000000
  70
    32
  0
VERTEX
  8
0
  5
9E0
 10
69.3621
 20
140.989
 30
0.000000
  70
    32
  0
VERTEX
  8
0
  5
9E1
 10
69.0437
 20
140.974
 30
0.000000
  70
    32
  0
VERTEX
  8
0
  5
9E2
 10
68.7258
 20
140.954
 30
0.000000
  70
    32
  0
VERTEX
  8
0
  5
9E3
 10
68.4087
 20
140.929
 30
0.000000
  70
    32
  0
VERTEX
  8
0
  5
9E4
 10
68.0925
 20
140.897
 30
0.000000
  70
    32
  0
VERTEX
  8
0
  5
9E5
 10
67.7775
 20
140.860
 30
0.000000
  70
    32
  0
VERTEX
  8
0
  5
9E6
 10
67.4638
 20
140.817
 30
0.000000
  70
    32
  0
VERTEX
  8
0
  5
9E7
 10
67.1517
 20
140.769
 30
0.000000
  70
    32
  0
VERTEX
  8
0
  5
9E8
 10
66.8413
 20
140.715
 30
0.000000
  70
    32
  0
VERTEX
  8
0
  5
9E9
 10
66.5327
 20
140.656
 30
0.000000
  70
    32
  0
VERTEX
  8
0
  5
9EA
 10
66.2263
 20
140.591
 30
0.000000
  70
    32
  0
VERTEX
  8
0
  5
9EB
 10
65.9221
 20
140.521
 30
0.000000
  70
    32
  0
VERTEX
  8
0
  5
9EC
 10
65.6204
 20
140.445
 30
0.000000
  70
    32
  0
VERTEX
  8
0
  5
9ED
 10
65.3214
 20
140.363
 30
0.000000
  70
    32
  0
VERTEX
  8
0
  5
9EE
 10
65.0251
 20
140.277
 30
0.000000
  70
    32
  0
VERTEX
  8
0
  5
9EF
 10
64.7319
 20
140.185
 30
0.000000
  70
    32
  0
VERTEX
  8
0
  5
9F0
 10
64.4418
 20
140.088
 30
0.000000
  70
    32
  0
VERTEX
  8
0
  5
9F1
 10
64.1551
 20
139.986
 30
0.000000
  70
    32
  0
VERTEX
  8
0
  5
9F2
 10
63.8718
 20
139.878
 30
0.000000
  70
    32
  0
VERTEX
  8
0
  5
9F3
 10
63.5923
 20
139.766
 30
0.000000
  70
    32
  0
VERTEX
  8
0
  5
9F4
 10
63.3167
 20
139.648
 30
0.000000
  70
    32
  0
VERTEX
  8
0
  5
9F5
 10
63.0450
 20
139.526
 30
0.000000
  70
    32
  0
VERTEX
  8
0
  5
9F6
 10
62.7776
 20
139.399
 30
0.000000
  70
    32
  0
VERTEX
  8
0
  5
9F7
 10
62.5145
 20
139.267
 30
0.000000
  70
    32
  0
VERTEX
  8
0
  5
9F8
 10
62.2559
 20
139.130
 30
0.000000
  70
    32
  0
VERTEX
  8
0
  5
9F9
 10
62.0020
 20
138.989
 30
0.000000
  70
    32
  0
VERTEX
  8
0
  5
9FA
 10
61.7529
 20
138.844
 30
0.000000
  70
    32
  0
VERTEX
  8
0
  5
9FB
 10
61.5088
 20
138.693
 30
0.000000
  70
    32
  0
VERTEX
  8
0
  5
9FC
 10
61.2697
 20
138.539
 30
0.000000
  70
    32
  0
VERTEX
  8
0
  5
9FD
 10
61.0360
 20
138.380
 30
0.000000
  70
    32
  0
VERTEX
  8
0
  5
9FE
 10
60.8076
 20
138.218
 30
0.000000
  70
    32
  0
VERTEX
  8
0
  5
9FF
 10
60.5848
 20
138.051
 30
0.000000
  70
    32
  0
VERTEX
  8
0
  5
A00
 10
60.3676
 20
137.880
 30
0.000000
  70
    32
  0
VERTEX
  8
0
  5
A01
 10
60.1563
 20
137.705
 30
0.000000
  70
    32
  0
VERTEX
  8
0
  5
A02
 10
59.9509
 20
137.527
 30
0.000000
  70
    32
  0
VERTEX
  8
0
  5
A03
 10
59.7515
 20
137.345
 30
0.000000
  70
    32
  0
VERTEX
  8
0
  5
A04
 10
59.5583
 20
137.159
 30
0.000000
  70
    32
  0
VERTEX
  8
0
  5
A05
 10
59.3714
 20
136.970
 30
0.000000
  70
    32
  0
VERTEX
  8
0
  5
A06
 10
59.1909
 20
136.778
 30
0.000000
  70
    32
  0
VERTEX
  8
0
  5
A07
 10
59.0169
 20
136.582
 30
0.000000
  70
    32
  0
VERTEX
  8
0
  5
A08
 10
58.8495
 20
136.384
 30
0.000000
  70
    32
  0
VERTEX
  8
0
  5
A09
 10
58.6889
 20
136.183
 30
0.000000
  70
    32
  0
VERTEX
  8
0
  5
A0A
 10
58.5350
 20
135.978
 30
0.000000
  70
    32
  0
VERTEX
  8
0
  5
A0B
 10
58.3881
 20
135.771
 30
0.000000
  70
    32
  0
VERTEX
  8
0
  5
A0C
 10
58.2481
 20
135.562
 30
0.000000
  70
    32
  0
VERTEX
  8
0
  5
A0D
 10
58.1153
 20
135.350
 30
0.000000
  70
    32
  0
VERTEX
  8
0
  5
A0E
 10
57.9896
 20
135.135
 30
0.000000
  70
    32
  0
VERTEX
  8
0
  5
A0F
 10
57.8711
 20
134.919
 30
0.000000
  70
    32
  0
VERTEX
  8
0
  5
A10
 10
57.7599
 20
134.700
 30
0.000000
  70
    32
  0
VERTEX
  8
0
  5
A11
 10
57.6561
 20
134.480
 30
0.000000
  70
    32
  0
VERTEX
  8
0
  5
A12
 10
57.5598
 20
134.258
 30
0.000000
  70
    32
  0
VERTEX
  8
0
  5
A13
 10
57.4709
 20
134.034
 30
0.000000
  70
    32
  0
VERTEX
  8
0
  5
A14
 10
57.3896
 20
133.808
 30
0.000000
  70
    32
  0
VERTEX
  8
0
  5
A15
 10
57.3159
 20
133.581
 30
0.000000
  70
    32
  0
VERTEX
  8
0
  5
A16
 10
57.2498
 20
133.353
 30
0.000000
  70
    32
  0
VERTEX
  8
0
  5
A17
 10
57.1914
 20
133.124
 30
0.000000
  70
    32
  0
VERTEX
  8
0
  5
A18
 10
57.1407
 20
132.894
 30
0.000000
  70
    32
  0
VERTEX
  8
0
  5
A19
 10
57.0978
 20
132.663
 30
0.000000
  70
    32
  0
VERTEX
  8
0
  5
A1A
 10
57.0626
 20
132.431
 30
0.000000
  70
    32
  0
VERTEX
  8
0
  5
A1B
 10
57.0352
 20
132.199
 30
0.000000
  70
    32
  0
VERTEX
  8
0
  5
A1C
 10
57.0157
 20
131.966
 30
0.000000
  70
    32
  0
VERTEX
  8
0
  5
A1D
 10
57.0039
 20
131.733
 30
0.000000
  70
    32
  0
VERTEX
  8
0
  5
A1E
 10
57.0000
 20
131.500
 30
0.000000
  70
    32
  0
SEQEND
  8
0
  5
A1F
  0
LINE
  5
501
  8
1
 10
70.0
 20
70.0
 30
0.0
 11
70.0
 21
146.00000101329991
 31
0.0
  0
POLYLINE
  5
502
  8
2
 10
57.0
 20
131.50000101289999
 30
0.0
 66
     1
 70
     8
  0
VERTEX
  8
2
  5
A20
 10
57.0000
 20
131.500
 30
0.000000
  70
    32
  0
VERTEX
  8
2
  5
A21
 10
57.0039
 20
131.267
 30
0.000000
  70
    32
  0
VERTEX
  8
2
  5
A22
 10
57.0157
 20
131.034
 30
0.000000
  70
    32
  0
VERTEX
  8
2
  5
A23
 10
57.0352
 20
130.801
 30
0.000000
  70
    32
  0
VERTEX
  8
2
  5
A24
 10
57.0626
 20
130.569
 30
0.000000
  70
    32
  0
VERTEX
  8
2
  5
A25
 10
57.0978
 20
130.337
 30
0.000000
  70
    32
  0
VERTEX
  8
2
  5
A26
 10
57.1407
 20
130.106
 30
0.000000
  70
    32
  0
VERTEX
  8
2
  5
A27
 10
57.1914
 20
129.876
 30
0.000000
  70
    32
  0
VERTEX
  8
2
  5
A28
 10
57.2498
 20
129.647
 30
0.000000
  70
    32
  0
VERTEX
  8
2
  5
A29
 10
57.3159
 20
129.419
 30
0.000000
  70
    32
  0
VERTEX
  8
2
  5
A2A
 10
57.3896
 20
129.192
 30
0.000000
  70
    32
  0
VERTEX
  8
2
  5
A2B
 10
57.4709
 20
128.966
 30
0.000000
  70
    32
  0
VERTEX
  8
2
  5
A2C
 10
57.5598
 20
128.742
 30
0.000000
  70
    32
  0
VERTEX
  8
2
  5
A2D
 10
57.6561
 20
128.520
 30
0.000000
  70
    32
  0
VERTEX
  8
2
  5
A2E
 10
57.7599
 20
128.300
 30
0.000000
  70
    32
  0
VERTEX
  8
2
  5
A2F
 10
57.8711
 20
128.081
 30
0.000000
  70
    32
  0
VERTEX
  8
2
  5
A30
 10
57.9896
 20
127.865
 30
0.000000
  70
    32
  0
VERTEX
  8
2
  5
A31
 10
58.1153
 20
127.650
 30
0.000000
  70
    32
  0
VERTEX
  8
2
  5
A32
 10
58.2481
 20
127.438
 30
0.000000
  70
    32
  0
VERTEX
  8
2
  5
A33
 10
58.3881
 20
127.229
 30
0.000000
  70
    32
  0
VERTEX
  8
2
  5
A34
 10
58.5350
 20
127.022
 30
0.000000
  70
    32
  0
VERTEX
  8
2
  5
A35
 10
58.6889
 20
126.817
 30
0.000000
  70
    32
  0
VERTEX
  8
2
  5
A36
 10
58.8495
 20
126.616
 30
0.000000
  70
    32
  0
VERTEX
  8
2
  5
A37
 10
59.0169
 20
126.418
 30
0.000000
  70
    32
  0
VERTEX
  8
2
  5
A38
 10
59.1909
 20
126.222
 30
0.000000
  70
    32
  0
VERTEX
  8
2
  5
A39
 10
59.3714
 20
126.030
 30
0.000000
  70
    32
  0
VERTEX
  8
2
  5
A3A
 10
59.5583
 20
125.841
 30
0.000000
  70
    32
  0
VERTEX
  8
2
  5
A3B
 10
59.7515
 20
125.655
 30
0.000000
  70
    32
  0
VERTEX
  8
2
  5
A3C
 10
59.9509
 20
125.473
 30
0.000000
  70
    32
  0
VERTEX
  8
2
  5
A3D
 10
60.1563
 20
125.295
 30
0.000000
  70
    32
  0
VERTEX
  8
2
  5
A3E
 10
60.3676
 20
125.120
 30
0.000000
  70
    32
  0
VERTEX
  8
2
  5
A3F
 10
60.5848
 20
124.949
 30
0.000000
  70
    32
  0
VERTEX
  8
2
  5
A40
 10
60.8076
 20
124.782
 30
0.000000
  70
    32
  0
VERTEX
  8
2
  5
A41
 10
61.0360
 20
124.620
 30
0.000000
  70
    32
  0
VERTEX
  8
2
  5
A42
 10
61.2697
 20
124.461
 30
0.000000
  70
    32
  0
VERTEX
  8
2
  5
A43
 10
61.5088
 20
124.307
 30
0.000000
  70
    32
  0
VERTEX
  8
2
  5
A44
 10
61.7529
 20
124.156
 30
0.000000
  70
    32
  0
VERTEX
  8
2
  5
A45
 10
62.0020
 20
124.011
 30
0.000000
  70
    32
  0
VERTEX
  8
2
  5
A46
 10
62.2559
 20
123.870
 30
0.000000
  70
    32
  0
VERTEX
  8
2
  5
A47
 10
62.5145
 20
123.733
 30
0.000000
  70
    32
  0
VERTEX
  8
2
  5
A48
 10
62.7776
 20
123.601
 30
0.000000
  70
    32
  0
VERTEX
  8
2
  5
A49
 10
63.0450
 20
123.474
 30
0.000000
  70
    32
  0
VERTEX
  8
2
  5
A4A
 10
63.3167
 20
123.352
 30
0.000000
  70
    32
  0
VERTEX
  8
2
  5
A4B
 10
63.5923
 20
123.234
 30
0.000000
  70
    32
  0
VERTEX
  8
2
  5
A4C
 10
63.8718
 20
123.122
 30
0.000000
  70
    32
  0
VERTEX
  8
2
  5
A4D
 10
64.1551
 20
123.014
 30
0.000000
  70
    32
  0
VERTEX
  8
2
  5
A4E
 10
64.4418
 20
122.912
 30
0.000000
  70
    32
  0
VERTEX
  8
2
  5
A4F
 10
64.7319
 20
122.815
 30
0.000000
  70
    32
  0
VERTEX
  8
2
  5
A50
 10
65.0251
 20
122.723
 30
0.000000
  70
    32
  0
VERTEX
  8
2
  5
A51
 10
65.3214
 20
122.637
 30
0.000000
  70
    32
  0
VERTEX
  8
2
  5
A52
 10
65.6204
 20
122.555
 30
0.000000
  70
    32
  0
VERTEX
  8
2
  5
A53
 10
65.9221
 20
122.479
 30
0.000000
  70
    32
  0
VERTEX
  8
2
  5
A54
 10
66.2263
 20
122.409
 30
0.000000
  70
    32
  0
VERTEX
  8
2
  5
A55
 10
66.5327
 20
122.344
 30
0.000000
  70
    32
  0
VERTEX
  8
2
  5
A56
 10
66.8413
 20
122.285
 30
0.000000
  70
    32
  0
VERTEX
  8
2
  5
A57
 10
67.1517
 20
122.231
 30
0.000000
  70
    32
  0
VERTEX
  8
2
  5
A58
 10
67.4638
 20
122.183
 30
0.000000
  70
    32
  0
VERTEX
  8
2
  5
A59
 10
67.7775
 20
122.140
 30
0.000000
  70
    32
  0
VERTEX
  8
2
  5
A5A
 10
68.0925
 20
122.103
 30
0.000000
  70
    32
  0
VERTEX
  8
2
  5
A5B
 10
68.4087
 20
122.071
 30
0.000000
  70
    32
  0
VERTEX
  8
2
  5
A5C
 10
68.7258
 20
122.046
 30
0.000000
  70
    32
  0
VERTEX
  8
2
  5
A5D
 10
69.0437
 20
122.026
 30
0.000000
  70
    32
  0
VERTEX
  8
2
  5
A5E
 10
69.3621
 20
122.011
 30
0.000000
  70
    32
  0
VERTEX
  8
2
  5
A5F
 10
69.6810
 20
122.003
 30
0.000000
  70
    32
  0
VERTEX
  8
2
  5
A60
 10
70.0000
 20
122.000
 30
0.000000
  70
    32
  0
VERTEX
  8
2
  5
A61
 10
70.3190
 20
122.003
 30
0.000000
  70
    32
  0
VERTEX
  8
2
  5
A62
 10
70.6379
 20
122.011
 30
0.000000
  70
    32
  0
VERTEX
  8
2
  5
A63
 10
70.9563
 20
122.026
 30
0.000000
  70
    32
  0
VERTEX
  8
2
  5
A64
 10
71.2742
 20
122.046
 30
0.000000
  70
    32
  0
VERTEX
  8
2
  5
A65
 10
71.5913
 20
122.071
 30
0.000000
  70
    32
  0
VERTEX
  8
2
  5
A66
 10
71.9075
 20
122.103
 30
0.000000
  70
    32
  0
VERTEX
  8
2
  5
A67
 10
72.2225
 20
122.140
 30
0.000000
  70
    32
  0
VERTEX
  8
2
  5
A68
 10
72.5362
 20
122.183
 30
0.000000
  70
    32
  0
VERTEX
  8
2
  5
A69
 10
72.8483
 20
122.231
 30
0.000000
  70
    32
  0
VERTEX
  8
2
  5
A6A
 10
73.1587
 20
122.285
 30
0.000000
  70
    32
  0
VERTEX
  8
2
  5
A6B
 10
73.4673
 20
122.344
 30
0.000000
  70
    32
  0
VERTEX
  8
2
  5
A6C
 10
73.7737
 20
122.409
 30
0.000000
  70
    32
  0
VERTEX
  8
2
  5
A6D
 10
74.0779
 20
122.479
 30
0.000000
  70
    32
  0
VERTEX
  8
2
  5
A6E
 10
74.3796
 20
122.555
 30
0.000000
  70
    32
  0
VERTEX
  8
2
  5
A6F
 10
74.6786
 20
122.637
 30
0.000000
  70
    32
  0
VERTEX
  8
2
  5
A70
 10
74.9749
 20
122.723
 30
0.000000
  70
    32
  0
VERTEX
  8
2
  5
A71
 10
75.2681
 20
122.815
 30
0.000000
  70
    32
  0
VERTEX
  8
2
  5
A72
 10
75.5582
 20
122.912
 30
0.000000
  70
    32
  0
VERTEX
  8
2
  5
A73
 10
75.8449
 20
123.014
 30
0.000000
  70
    32
  0
VERTEX
  8
2
  5
A74
 10
76.1282
 20
123.122
 30
0.000000
  70
    32
  0
VERTEX
  8
2
  5
A75
 10
76.4077
 20
123.234
 30
0.000000
  70
    32
  0
VERTEX
  8
2
  5
A76
 10
76.6833
 20
123.352
 30
0.000000
  70
    32
  0
VERTEX
  8
2
  5
A77
 10
76.9550
 20
123.474
 30
0.000000
  70
    32
  0
VERTEX
  8
2
  5
A78
 10
77.2224
 20
123.601
 30
0.000000
  70
    32
  0
VERTEX
  8
2
  5
A79
 10
77.4855
 20
123.733
 30
0.000000
  70
    32
  0
VERTEX
  8
2
  5
A7A
 10
77.7441
 20
123.870
 30
0.000000
  70
    32
  0
VERTEX
  8
2
  5
A7B
 10
77.9980
 20
124.011
 30
0.000000
  70
    32
  0
VERTEX
  8
2
  5
A7C
 10
78.2471
 20
124.156
 30
0.000000
  70
    32
  0
VERTEX
  8
2
  5
A7D
 10
78.4912
 20
124.307
 30
0.000000
  70
    32
  0
VERTEX
  8
2
  5
A7E
 10
78.7303
 20
124.461
 30
0.000000
  70
    32
  0
VERTEX
  8
2
  5
A7F
 10
78.9640
 20
124.620
 30
0.000000
  70
    32
  0
VERTEX
  8
2
  5
A80
 10
79.1924
 20
124.782
 30
0.000000
  70
    32
  0
VERTEX
  8
2
  5
A81
 10
79.4152
 20
124.949
 30
0.000000
  70
    32
  0
VERTEX
  8
2
  5
A82
 10
79.6324
 20
125.120
 30
0.000000
  70
    32
  0
VERTEX
  8
2
  5
A83
 10
79.8437
 20
125.295
 30
0.000000
  70
    32
  0
VERTEX
  8
2
  5
A84
 10
80.0491
 20
125.473
 30
0.000000
  70
    32
  0
VERTEX
  8
2
  5
A85
 10
80.2485
 20
125.655
 30
0.000000
  70
    32
  0
VERTEX
  8
2
  5
A86
 10
80.4417
 20
125.841
 30
0.000000
  70
    32
  0
VERTEX
  8
2
  5
A87
 10
80.6286
 20
126.030
 30
0.000000
  70
    32
  0
VERTEX
  8
2
  5
A88
 10
80.8091
 20
126.222
 30
0.000000
  70
    32
  0
VERTEX
  8
2
  5
A89
 10
80.9831
 20
126.418
 30
0.000000
  70
    32
  0
VERTEX
  8
2
  5
A8A
 10
81.1505
 20
126.616
 30
0.000000
  70
    32
  0
VERTEX
  8
2
  5
A8B
 10
81.3111
 20
126.817
 30
0.000000
  70
    32
  0
VERTEX
  8
2
  5
A8C
 10
81.4650
 20
127.022
 30
0.000000
  70
    32
  0
VERTEX
  8
2
  5
A8D
 10
81.6119
 20
127.229
 30
0.000000
  70
    32
  0
VERTEX
  8
2
  5
A8E
 10
81.7519
 20
127.438
 30
0.000000
  70
    32
  0
VERTEX
  8
2
  5
A8F
 10
81.8847
 20
127.650
 30
0.000000
  70
    32
  0
VERTEX
  8
2
  5
A90
 10
82.0104
 20
127.865
 30
0.000000
  70
    32
  0
VERTEX
  8
2
  5
A91
 10
82.1289
 20
128.081
 30
0.000000
  70
    32
  0
VERTEX
  8
2
  5
A92
 10
82.2401
 20
128.300
 30
0.000000
  70
    32
  0
VERTEX
  8
2
  5
A93
 10
82.3439
 20
128.520
 30
0.000000
  70
    32
  0
VERTEX
  8
2
  5
A94
 10
82.4402
 20
128.742
 30
0.000000
  70
    32
  0
VERTEX
  8
2
  5
A95
 10
82.5291
 20
128.966
 30
0.000000
  70
    32
  0
VERTEX
  8
2
  5
A96
 10
82.6104
 20
129.192
 30
0.000000
  70
    32
  0
VERTEX
  8
2
  5
A97
 10
82.6841
 20
129.419
 30
0.000000
  70
    32
  0
VERTEX
  8
2
  5
A98
 10
82.7502
 20
129.647
 30
0.000000
  70
    32
  0
VERTEX
  8
2
  5
A99
 10
82.8086
 20
129.876
 30
0.000000
  70
    32
  0
VERTEX
  8
2
  5
A9A
 10
82.8593
 20
130.106
 30
0.000000
  70
    32
  0
VERTEX
  8
2
  5
A9B
 10
82.9022
 20
130.337
 30
0.000000
  70
    32
  0
VERTEX
  8
2
  5
A9C
 10
82.9374
 20
130.569
 30
0.000000
  70
    32
  0
VERTEX
  8
2
  5
A9D
 10
82.9648
 20
130.801
 30
0.000000
  70
    32
  0
VERTEX
  8
2
  5
A9E
 10
82.9843
 20
131.034
 30
0.000000
  70
    32
  0
VERTEX
  8
2
  5
A9F
 10
82.9961
 20
131.267
 30
0.000000
  70
    32
  0
VERTEX
  8
2
  5
AA0
 10
83.0000
 20
131.500
 30
0.000000
  70
    32
  0
SEQEND
  8
2
  5
AA1
  0
LINE
  5
507
  8
0
 10
57.0
 20
75.000000000000057
 30
0.0
 11
83.0
 21
75.000000000000057
 31
0.0
  0
LINE
  5
508
  8
0
 10
382.00000001172572
 20
75.000000000000057
 30
0.0
 11
382.00000001172572
 21
131.50000102382569
 31
0.0
  0
LINE
  5
509
  8
0
 10
408.0000000117256
 20
131.5000010225117
 30
0.0
 11
408.0000000117256
 21
75.000000000000057
 31
0.0
  0
POLYLINE
  5
50A
  8
0
 10
382.0000000117256
 20
131.50000101289999
 30
0.0
 66
     1
 70
     8
  0
VERTEX
  8
0
  5
AA2
 10
382.000
 20
131.500
 30
0.000000
  70
    32
  0
VERTEX
  8
0
  5
AA3
 10
382.004
 20
131.733
 30
0.000000
  70
    32
  0
VERTEX
  8
0
  5
AA4
 10
382.016
 20
131.966
 30
0.000000
  70
    32
  0
VERTEX
  8
0
  5
AA5
 10
382.035
 20
132.199
 30
0.000000
  70
    32
  0
VERTEX
  8
0
  5
AA6
 10
382.063
 20
132.431
 30
0.000000
  70
    32
  0
VERTEX
  8
0
  5
AA7
 10
382.098
 20
132.663
 30
0.000000
  70
    32
  0
VERTEX
  8
0
  5
AA8
 10
382.141
 20
132.894
 30
0.000000
  70
    32
  0
VERTEX
  8
0
  5
AA9
 10
382.191
 20
133.124
 30
0.000000
  70
    32
  0
VERTEX
  8
0
  5
AAA
 10
382.250
 20
133.353
 30
0.000000
  70
    32
  0
VERTEX
  8
0
  5
AAB
 10
382.316
 20
133.581
 30
0.000000
  70
    32
  0
VERTEX
  8
0
  5
AAC
 10
382.390
 20
133.808
 30
0.000000
  70
    32
  0
VERTEX
  8
0
  5
AAD
 10
382.471
 20
134.034
 30
0.000000
  70
    32
  0
VERTEX
  8
0
  5
AAE
 10
382.560
 20
134.258
 30
0.000000
  70
    32
  0
VERTEX
  8
0
  5
AAF
 10
382.656
 20
134.480
 30
0.000000
  70
    32
  0
VERTEX
  8
0
  5
AB0
 10
382.760
 20
134.700
 30
0.000000
  70
    32
  0
VERTEX
  8
0
  5
AB1
 10
382.871
 20
134.919
 30
0.000000
  70
    32
  0
VERTEX
  8
0
  5
AB2
 10
382.990
 20
135.135
 30
0.000000
  70
    32
  0
VERTEX
  8
0
  5
AB3
 10
383.115
 20
135.350
 30
0.000000
  70
    32
  0
VERTEX
  8
0
  5
AB4
 10
383.248
 20
135.562
 30
0.000000
  70
    32
  0
VERTEX
  8
0
  5
AB5
 10
383.388
 20
135.771
 30
0.000000
  70
    32
  0
VERTEX
  8
0
  5
AB6
 10
383.535
 20
135.978
 30
0.000000
  70
    32
  0
VERTEX
  8
0
  5
AB7
 10
383.689
 20
136.183
 30
0.000000
  70
    32
  0
VERTEX
  8
0
  5
AB8
 10
383.850
 20
136.384
 30
0.000000
  70
    32
  0
VERTEX
  8
0
  5
AB9
 10
384.017
 20
136.582
 30
0.000000
  70
    32
  0
VERTEX
  8
0
  5
ABA
 10
384.191
 20
136.778
 30
0.000000
  70
    32
  0
VERTEX
  8
0
  5
ABB
 10
384.371
 20
136.970
 30
0.000000
  70
    32
  0
VERTEX
  8
0
  5
ABC
 10
384.558
 20
137.159
 30
0.000000
  70
    32
  0
VERTEX
  8
0
  5
ABD
 10
384.751
 20
137.345
 30
0.000000
  70
    32
  0
VERTEX
  8
0
  5
ABE
 10
384.951
 20
137.527
 30
0.000000
  70
    32
  0
VERTEX
  8
0
  5
ABF
 10
385.156
 20
137.705
 30
0.000000
  70
    32
  0
VERTEX
  8
0
  5
AC0
 10
385.368
 20
137.880
 30
0.000000
  70
    32
  0
VERTEX
  8
0
  5
AC1
 10
385.585
 20
138.051
 30
0.000000
  70
    32
  0
VERTEX
  8
0
  5
AC2
 10
385.808
 20
138.218
 30
0.000000
  70
    32
  0
VERTEX
  8
0
  5
AC3
 10
386.036
 20
138.380
 30
0.000000
  70
    32
  0
VERTEX
  8
0
  5
AC4
 10
386.270
 20
138.539
 30
0.000000
  70
    32
  0
VERTEX
  8
0
  5
AC5
 10
386.509
 20
138.693
 30
0.000000
  70
    32
  0
VERTEX
  8
0
  5
AC6
 10
386.753
 20
138.844
 30
0.000000
  70
    32
  0
VERTEX
  8
0
  5
AC7
 10
387.002
 20
138.989
 30
0.000000
  70
    32
  0
VERTEX
  8
0
  5
AC8
 10
387.256
 20
139.130
 30
0.000000
  70
    32
  0
VERTEX
  8
0
  5
AC9
 10
387.514
 20
139.267
 30
0.000000
  70
    32
  0
VERTEX
  8
0
  5
ACA
 10
387.778
 20
139.399
 30
0.000000
  70
    32
  0
VERTEX
  8
0
  5
ACB
 10
388.045
 20
139.526
 30
0.000000
  70
    32
  0
VERTEX
  8
0
  5
ACC
 10
388.317
 20
139.648
 30
0.000000
  70
    32
  0
VERTEX
  8
0
  5
ACD
 10
388.592
 20
139.766
 30
0.000000
  70
    32
  0
VERTEX
  8
0
  5
ACE
 10
388.872
 20
139.878
 30
0.000000
  70
    32
  0
VERTEX
  8
0
  5
ACF
 10
389.155
 20
139.986
 30
0.000000
  70
    32
  0
VERTEX
  8
0
  5
AD0
 10
389.442
 20
140.088
 30
0.000000
  70
    32
  0
VERTEX
  8
0
  5
AD1
 10
389.732
 20
140.185
 30
0.000000
  70
    32
  0
VERTEX
  8
0
  5
AD2
 10
390.025
 20
140.277
 30
0.000000
  70
    32
  0
VERTEX
  8
0
  5
AD3
 10
390.321
 20
140.363
 30
0.000000
  70
    32
  0
VERTEX
  8
0
  5
AD4
 10
390.620
 20
140.445
 30
0.000000
  70
    32
  0
VERTEX
  8
0
  5
AD5
 10
390.922
 20
140.521
 30
0.000000
  70
    32
  0
VERTEX
  8
0
  5
AD6
 10
391.226
 20
140.591
 30
0.000000
  70
    32
  0
VERTEX
  8
0
  5
AD7
 10
391.533
 20
140.656
 30
0.000000
  70
    32
  0
VERTEX
  8
0
  5
AD8
 10
391.841
 20
140.715
 30
0.000000
  70
    32
  0
VERTEX
  8
0
  5
AD9
 10
392.152
 20
140.769
 30
0.000000
  70
    32
  0
VERTEX
  8
0
  5
ADA
 10
392.464
 20
140.817
 30
0.000000
  70
    32
  0
VERTEX
  8
0
  5
ADB
 10
392.777
 20
140.860
 30
0.000000
  70
    32
  0
VERTEX
  8
0
  5
ADC
 10
393.093
 20
140.897
 30
0.000000
  70
    32
  0
VERTEX
  8
0
  5
ADD
 10
393.409
 20
140.929
 30
0.000000
  70
    32
  0
VERTEX
  8
0
  5
ADE
 10
393.726
 20
140.954
 30
0.000000
  70
    32
  0
VERTEX
  8
0
  5
ADF
 10
394.044
 20
140.974
 30
0.000000
  70
    32
  0
VERTEX
  8
0
  5
AE0
 10
394.362
 20
140.989
 30
0.000000
  70
    32
  0
VERTEX
  8
0
  5
AE1
 10
394.681
 20
140.997
 30
0.000000
  70
    32
  0
VERTEX
  8
0
  5
AE2
 10
395.000
 20
141.000
 30
0.000000
  70
    32
  0
VERTEX
  8
0
  5
AE3
 10
395.319
 20
140.997
 30
0.000000
  70
    32
  0
VERTEX
  8
0
  5
AE4
 10
395.638
 20
140.989
 30
0.000000
  70
    32
  0
VERTEX
  8
0
  5
AE5
 10
395.956
 20
140.974
 30
0.000000
  70
    32
  0
VERTEX
  8
0
  5
AE6
 10
396.274
 20
140.954
 30
0.000000
  70
    32
  0
VERTEX
  8
0
  5
AE7
 10
396.591
 20
140.929
 30
0.000000
  70
    32
  0
VERTEX
  8
0
  5
AE8
 10
396.907
 20
140.897
 30
0.000000
  70
    32
  0
VERTEX
  8
0
  5
AE9
 10
397.223
 20
140.860
 30
0.000000
  70
    32
  0
VERTEX
  8
0
  5
AEA
 10
397.536
 20
140.817
 30
0.000000
  70
    32
  0
VERTEX
  8
0
  5
AEB
 10
397.848
 20
140.769
 30
0.000000
  70
    32
  0
VERTEX
  8
0
  5
AEC
 10
398.159
 20
140.715
 30
0.000000
  70
    32
  0
VERTEX
  8
0
  5
AED
 10
398.467
 20
140.656
 30
0.000000
  70
    32
  0
VERTEX
  8
0
  5
AEE
 10
398.774
 20
140.591
 30
0.000000
  70
    32
  0
VERTEX
  8
0
  5
AEF
 10
399.078
 20
140.521
 30
0.000000
  70
    32
  0
VERTEX
  8
0
  5
AF0
 10
399.380
 20
140.445
 30
0.000000
  70
    32
  0
VERTEX
  8
0
  5
AF1
 10
399.679
 20
140.363
 30
0.000000
  70
    32
  0
VERTEX
  8
0
  5
AF2
 10
399.975
 20
140.277
 30
0.000000
  70
    32
  0
VERTEX
  8
0
  5
AF3
 10
400.268
 20
140.185
 30
0.000000
  70
    32
  0
VERTEX
  8
0
  5
AF4
 10
400.558
 20
140.088
 30
0.000000
  70
    32
  0
VERTEX
  8
0
  5
AF5
 10
400.845
 20
139.986
 30
0.000000
  70
    32
  0
VERTEX
  8
0
  5
AF6
 10
401.128
 20
139.878
 30
0.000000
  70
    32
  0
VERTEX
  8
0
  5
AF7
 10
401.408
 20
139.766
 30
0.000000
  70
    32
  0
VERTEX
  8
0
  5
AF8
 10
401.683
 20
139.648
 30
0.000000
  70
    32
  0
VERTEX
  8
0
  5
AF9
 10
401.955
 20
139.526
 30
0.000000
  70
    32
  0
VERTEX
  8
0
  5
AFA
 10
402.222
 20
139.399
 30
0.000000
  70
    32
  0
VERTEX
  8
0
  5
AFB
 10
402.486
 20
139.267
 30
0.000000
  70
    32
  0
VERTEX
  8
0
  5
AFC
 10
402.744
 20
139.130
 30
0.000000
  70
    32
  0
VERTEX
  8
0
  5
AFD
 10
402.998
 20
138.989
 30
0.000000
  70
    32
  0
VERTEX
  8
0
  5
AFE
 10
403.247
 20
138.844
 30
0.000000
  70
    32
  0
VERTEX
  8
0
  5
AFF
 10
403.491
 20
138.693
 30
0.000000
  70
    32
  0
VERTEX
  8
0
  5
B00
 10
403.730
 20
138.539
 30
0.000000
  70
    32
  0
VERTEX
  8
0
  5
B01
 10
403.964
 20
138.380
 30
0.000000
  70
    32
  0
VERTEX
  8
0
  5
B02
 10
404.192
 20
138.218
 30
0.000000
  70
    32
  0
VERTEX
  8
0
  5
B03
 10
404.415
 20
138.051
 30
0.000000
  70
    32
  0
VERTEX
  8
0
  5
B04
 10
404.632
 20
137.880
 30
0.000000
  70
    32
  0
VERTEX
  8
0
  5
B05
 10
404.844
 20
137.705
 30
0.000000
  70
    32
  0
VERTEX
  8
0
  5
B06
 10
405.049
 20
137.527
 30
0.000000
  70
    32
  0
VERTEX
  8
0
  5
B07
 10
405.249
 20
137.345
 30
0.000000
  70
    32
  0
VERTEX
  8
0
  5
B08
 10
405.442
 20
137.159
 30
0.000000
  70
    32
  0
VERTEX
  8
0
  5
B09
 10
405.629
 20
136.970
 30
0.000000
  70
    32
  0
VERTEX
  8
0
  5
B0A
 10
405.809
 20
136.778
 30
0.000000
  70
    32
  0
VERTEX
  8
0
  5
B0B
 10
405.983
 20
136.582
 30
0.000000
  70
    32
  0
VERTEX
  8
0
  5
B0C
 10
406.150
 20
136.384
 30
0.000000
  70
    32
  0
VERTEX
  8
0
  5
B0D
 10
406.311
 20
136.183
 30
0.000000
  70
    32
  0
VERTEX
  8
0
  5
B0E
 10
406.465
 20
135.978
 30
0.000000
  70
    32
  0
VERTEX
  8
0
  5
B0F
 10
406.612
 20
135.771
 30
0.000000
  70
    32
  0
VERTEX
  8
0
  5
B10
 10
406.752
 20
135.562
 30
0.000000
  70
    32
  0
VERTEX
  8
0
  5
B11
 10
406.885
 20
135.350
 30
0.000000
  70
    32
  0
VERTEX
  8
0
  5
B12
 10
407.010
 20
135.135
 30
0.000000
  70
    32
  0
VERTEX
  8
0
  5
B13
 10
407.129
 20
134.919
 30
0.000000
  70
    32
  0
VERTEX
  8
0
  5
B14
 10
407.240
 20
134.700
 30
0.000000
  70
    32
  0
VERTEX
  8
0
  5
B15
 10
407.344
 20
134.480
 30
0.000000
  70
    32
  0
VERTEX
  8
0
  5
B16
 10
407.440
 20
134.258
 30
0.000000
  70
    32
  0
VERTEX
  8
0
  5
B17
 10
407.529
 20
134.034
 30
0.000000
  70
    32
  0
VERTEX
  8
0
  5
B18
 10
407.610
 20
133.808
 30
0.000000
  70
    32
  0
VERTEX
  8
0
  5
B19
 10
407.684
 20
133.581
 30
0.000000
  70
    32
  0
VERTEX
  8
0
  5
B1A
 10
407.750
 20
133.353
 30
0.000000
  70
    32
  0
VERTEX
  8
0
  5
B1B
 10
407.809
 20
133.124
 30
0.000000
  70
    32
  0
VERTEX
  8
0
  5
B1C
 10
407.859
 20
132.894
 30
0.000000
  70
    32
  0
VERTEX
  8
0
  5
B1D
 10
407.902
 20
132.663
 30
0.000000
  70
    32
  0
VERTEX
  8
0
  5
B1E
 10
407.937
 20
132.431
 30
0.000000
  70
    32
  0
VERTEX
  8
0
  5
B1F
 10
407.965
 20
132.199
 30
0.000000
  70
    32
  0
VERTEX
  8
0
  5
B20
 10
407.984
 20
131.966
 30
0.000000
  70
    32
  0
VERTEX
  8
0
  5
B21
 10
407.996
 20
131.733
 30
0.000000
  70
    32
  0
VERTEX
  8
0
  5
B22
 10
408.000
 20
131.500
 30
0.000000
  70
    32
  0
SEQEND
  8
0
  5
B23
  0
LINE
  5
50B
  8
1
 10
395.0000000117256
 20
70.0
 30
0.0
 11
395.0000000117256
 21
146.00000101329991
 31
0.0
  0
POLYLINE
  5
50C
  8
2
 10
408.0000000117256
 20
131.50000101289999
 30
0.0
 66
     1
 70
     8
  0
VERTEX
  8
2
  5
B24
 10
408.000
 20
131.500
 30
0.000000
  70
    32
  0
VERTEX
  8
2
  5
B25
 10
407.996
 20
131.267
 30
0.000000
  70
    32
  0
VERTEX
  8
2
  5
B26
 10
407.984
 20
131.034
 30
0.000000
  70
    32
  0
VERTEX
  8
2
  5
B27
 10
407.965
 20
130.801
 30
0.000000
  70
    32
  0
VERTEX
  8
2
  5
B28
 10
407.937
 20
130.569
 30
0.000000
  70
    32
  0
VERTEX
  8
2
  5
B29
 10
407.902
 20
130.337
 30
0.000000
  70
    32
  0
VERTEX
  8
2
  5
B2A
 10
407.859
 20
130.106
 30
0.000000
  70
    32
  0
VERTEX
  8
2
  5
B2B
 10
407.809
 20
129.876
 30
0.000000
  70
    32
  0
VERTEX
  8
2
  5
B2C
 10
407.750
 20
129.647
 30
0.000000
  70
    32
  0
VERTEX
  8
2
  5
B2D
 10
407.684
 20
129.419
 30
0.000000
  70
    32
  0
VERTEX
  8
2
  5
B2E
 10
407.610
 20
129.192
 30
0.000000
  70
    32
  0
VERTEX
  8
2
  5
B2F
 10
407.529
 20
128.966
 30
0.000000
  70
    32
  0
VERTEX
  8
2
  5
B30
 10
407.440
 20
128.742
 30
0.000000
  70
    32
  0
VERTEX
  8
2
  5
B31
 10
407.344
 20
128.520
 30
0.000000
  70
    32
  0
VERTEX
  8
2
  5
B32
 10
407.240
 20
128.300
 30
0.000000
  70
    32
  0
VERTEX
  8
2
  5
B33
 10
407.129
 20
128.081
 30
0.000000
  70
    32
  0
VERTEX
  8
2
  5
B34
 10
407.010
 20
127.865
 30
0.000000
  70
    32
  0
VERTEX
  8
2
  5
B35
 10
406.885
 20
127.650
 30
0.000000
  70
    32
  0
VERTEX
  8
2
  5
B36
 10
406.752
 20
127.438
 30
0.000000
  70
    32
  0
VERTEX
  8
2
  5
B37
 10
406.612
 20
127.229
 30
0.000000
  70
    32
  0
VERTEX
  8
2
  5
B38
 10
406.465
 20
127.022
 30
0.000000
  70
    32
  0
VERTEX
  8
2
  5
B39
 10
406.311
 20
126.817
 30
0.000000
  70
    32
  0
VERTEX
  8
2
  5
B3A
 10
406.150
 20
126.616
 30
0.000000
  70
    32
  0
VERTEX
  8
2
  5
B3B
 10
405.983
 20
126.418
 30
0.000000
  70
    32
  0
VERTEX
  8
2
  5
B3C
 10
405.809
 20
126.222
 30
0.000000
  70
    32
  0
VERTEX
  8
2
  5
B3D
 10
405.629
 20
126.030
 30
0.000000
  70
    32
  0
VERTEX
  8
2
  5
B3E
 10
405.442
 20
125.841
 30
0.000000
  70
    32
  0
VERTEX
  8
2
  5
B3F
 10
405.249
 20
125.655
 30
0.000000
  70
    32
  0
VERTEX
  8
2
  5
B40
 10
405.049
 20
125.473
 30
0.000000
  70
    32
  0
VERTEX
  8
2
  5
B41
 10
404.844
 20
125.295
 30
0.000000
  70
    32
  0
VERTEX
  8
2
  5
B42
 10
404.632
 20
125.120
 30
0.000000
  70
    32
  0
VERTEX
  8
2
  5
B43
 10
404.415
 20
124.949
 30
0.000000
  70
    32
  0
VERTEX
  8
2
  5
B44
 10
404.192
 20
124.782
 30
0.000000
  70
    32
  0
VERTEX
  8
2
  5
B45
 10
403.964
 20
124.620
 30
0.000000
  70
    32
  0
VERTEX
  8
2
  5
B46
 10
403.730
 20
124.461
 30
0.000000
  70
    32
  0
VERTEX
  8
2
  5
B47
 10
403.491
 20
124.307
 30
0.000000
  70
    32
  0
VERTEX
  8
2
  5
B48
 10
403.247
 20
124.156
 30
0.000000
  70
    32
  0
VERTEX
  8
2
  5
B49
 10
402.998
 20
124.011
 30
0.000000
  70
    32
  0
VERTEX
  8
2
  5
B4A
 10
402.744
 20
123.870
 30
0.000000
  70
    32
  0
VERTEX
  8
2
  5
B4B
 10
402.486
 20
123.733
 30
0.000000
  70
    32
  0
VERTEX
  8
2
  5
B4C
 10
402.222
 20
123.601
 30
0.000000
  70
    32
  0
VERTEX
  8
2
  5
B4D
 10
401.955
 20
123.474
 30
0.000000
  70
    32
  0
VERTEX
  8
2
  5
B4E
 10
401.683
 20
123.352
 30
0.000000
  70
    32
  0
VERTEX
  8
2
  5
B4F
 10
401.408
 20
123.234
 30
0.000000
  70
    32
  0
VERTEX
  8
2
  5
B50
 10
401.128
 20
123.122
 30
0.000000
  70
    32
  0
VERTEX
  8
2
  5
B51
 10
400.845
 20
123.014
 30
0.000000
  70
    32
  0
VERTEX
  8
2
  5
B52
 10
400.558
 20
122.912
 30
0.000000
  70
    32
  0
VERTEX
  8
2
  5
B53
 10
400.268
 20
122.815
 30
0.000000
  70
    32
  0
VERTEX
  8
2
  5
B54
 10
399.975
 20
122.723
 30
0.000000
  70
    32
  0
VERTEX
  8
2
  5
B55
 10
399.679
 20
122.637
 30
0.000000
  70
    32
  0
VERTEX
  8
2
  5
B56
 10
399.380
 20
122.555
 30
0.000000
  70
    32
  0
VERTEX
  8
2
  5
B57
 10
399.078
 20
122.479
 30
0.000000
  70
    32
  0
VERTEX
  8
2
  5
B58
 10
398.774
 20
122.409
 30
0.000000
  70
    32
  0
VERTEX
  8
2
  5
B59
 10
398.467
 20
122.344
 30
0.000000
  70
    32
  0
VERTEX
  8
2
  5
B5A
 10
398.159
 20
122.285
 30
0.000000
  70
    32
  0
VERTEX
  8
2
  5
B5B
 10
397.848
 20
122.231
 30
0.000000
  70
    32
  0
VERTEX
  8
2
  5
B5C
 10
397.536
 20
122.183
 30
0.000000
  70
    32
  0
VERTEX
  8
2
  5
B5D
 10
397.223
 20
122.140
 30
0.000000
  70
    32
  0
VERTEX
  8
2
  5
B5E
 10
396.907
 20
122.103
 30
0.000000
  70
    32
  0
VERTEX
  8
2
  5
B5F
 10
396.591
 20
122.071
 30
0.000000
  70
    32
  0
VERTEX
  8
2
  5
B60
 10
396.274
 20
122.046
 30
0.000000
  70
    32
  0
VERTEX
  8
2
  5
B61
 10
395.956
 20
122.026
 30
0.000000
  70
    32
  0
VERTEX
  8
2
  5
B62
 10
395.638
 20
122.011
 30
0.000000
  70
    32
  0
VERTEX
  8
2
  5
B63
 10
395.319
 20
122.003
 30
0.000000
  70
    32
  0
VERTEX
  8
2
  5
B64
 10
395.000
 20
122.000
 30
0.000000
  70
    32
  0
VERTEX
  8
2
  5
B65
 10
394.681
 20
122.003
 30
0.000000
  70
    32
  0
VERTEX
  8
2
  5
B66
 10
394.362
 20
122.011
 30
0.000000
  70
    32
  0
VERTEX
  8
2
  5
B67
 10
394.044
 20
122.026
 30
0.000000
  70
    32
  0
VERTEX
  8
2
  5
B68
 10
393.726
 20
122.046
 30
0.000000
  70
    32
  0
VERTEX
  8
2
  5
B69
 10
393.409
 20
122.071
 30
0.000000
  70
    32
  0
VERTEX
  8
2
  5
B6A
 10
393.093
 20
122.103
 30
0.000000
  70
    32
  0
VERTEX
  8
2
  5
B6B
 10
392.777
 20
122.140
 30
0.000000
  70
    32
  0
VERTEX
  8
2
  5
B6C
 10
392.464
 20
122.183
 30
0.000000
  70
    32
  0
VERTEX
  8
2
  5
B6D
 10
392.152
 20
122.231
 30
0.000000
  70
    32
  0
VERTEX
  8
2
  5
B6E
 10
391.841
 20
122.285
 30
0.000000
  70
    32
  0
VERTEX
  8
2
  5
B6F
 10
391.533
 20
122.344
 30
0.000000
  70
    32
  0
VERTEX
  8
2
  5
B70
 10
391.226
 20
122.409
 30
0.000000
  70
    32
  0
VERTEX
  8
2
  5
B71
 10
390.922
 20
122.479
 30
0.000000
  70
    32
  0
VERTEX
  8
2
  5
B72
 10
390.620
 20
122.555
 30
0.000000
  70
    32
  0
VERTEX
  8
2
  5
B73
 10
390.321
 20
122.637
 30
0.000000
  70
    32
  0
VERTEX
  8
2
  5
B74
 10
390.025
 20
122.723
 30
0.000000
  70
    32
  0
VERTEX
  8
2
  5
B75
 10
389.732
 20
122.815
 30
0.000000
  70
    32
  0
VERTEX
  8
2
  5
B76
 10
389.442
 20
122.912
 30
0.000000
  70
    32
  0
VERTEX
  8
2
  5
B77
 10
389.155
 20
123.014
 30
0.000000
  70
    32
  0
VERTEX
  8
2
  5
B78
 10
388.872
 20
123.122
 30
0.000000
  70
    32
  0
VERTEX
  8
2
  5
B79
 10
388.592
 20
123.234
 30
0.000000
  70
    32
  0
VERTEX
  8
2
  5
B7A
 10
388.317
 20
123.352
 30
0.000000
  70
    32
  0
VERTEX
  8
2
  5
B7B
 10
388.045
 20
123.474
 30
0.000000
  70
    32
  0
VERTEX
  8
2
  5
B7C
 10
387.778
 20
123.601
 30
0.000000
  70
    32
  0
VERTEX
  8
2
  5
B7D
 10
387.514
 20
123.733
 30
0.000000
  70
    32
  0
VERTEX
  8
2
  5
B7E
 10
387.256
 20
123.870
 30
0.000000
  70
    32
  0
VERTEX
  8
2
  5
B7F
 10
387.002
 20
124.011
 30
0.000000
  70
    32
  0
VERTEX
  8
2
  5
B80
 10
386.753
 20
124.156
 30
0.000000
  70
    32
  0
VERTEX
  8
2
  5
B81
 10
386.509
 20
124.307
 30
0.000000
  70
    32
  0
VERTEX
  8
2
  5
B82
 10
386.270
 20
124.461
 30
0.000000
  70
    32
  0
VERTEX
  8
2
  5
B83
 10
386.036
 20
124.620
 30
0.000000
  70
    32
  0
VERTEX
  8
2
  5
B84
 10
385.808
 20
124.782
 30
0.000000
  70
    32
  0
VERTEX
  8
2
  5
B85
 10
385.585
 20
124.949
 30
0.000000
  70
    32
  0
VERTEX
  8
2
  5
B86
 10
385.368
 20
125.120
 30
0.000000
  70
    32
  0
VERTEX
  8
2
  5
B87
 10
385.156
 20
125.295
 30
0.000000
  70
    32
  0
VERTEX
  8
2
  5
B88
 10
384.951
 20
125.473
 30
0.000000
  70
    32
  0
VERTEX
  8
2
  5
B89
 10
384.751
 20
125.655
 30
0.000000
  70
    32
  0
VERTEX
  8
2
  5
B8A
 10
384.558
 20
125.841
 30
0.000000
  70
    32
  0
VERTEX
  8
2
  5
B8B
 10
384.371
 20
126.030
 30
0.000000
  70
    32
  0
VERTEX
  8
2
  5
B8C
 10
384.191
 20
126.222
 30
0.000000
  70
    32
  0
VERTEX
  8
2
  5
B8D
 10
384.017
 20
126.418
 30
0.000000
  70
    32
  0
VERTEX
  8
2
  5
B8E
 10
383.850
 20
126.616
 30
0.000000
  70
    32
  0
VERTEX
  8
2
  5
B8F
 10
383.689
 20
126.817
 30
0.000000
  70
    32
  0
VERTEX
  8
2
  5
B90
 10
383.535
 20
127.022
 30
0.000000
  70
    32
  0
VERTEX
  8
2
  5
B91
 10
383.388
 20
127.229
 30
0.000000
  70
    32
  0
VERTEX
  8
2
  5
B92
 10
383.248
 20
127.438
 30
0.000000
  70
    32
  0
VERTEX
  8
2
  5
B93
 10
383.115
 20
127.650
 30
0.000000
  70
    32
  0
VERTEX
  8
2
  5
B94
 10
382.990
 20
127.865
 30
0.000000
  70
    32
  0
VERTEX
  8
2
  5
B95
 10
382.871
 20
128.081
 30
0.000000
  70
    32
  0
VERTEX
  8
2
  5
B96
 10
382.760
 20
128.300
 30
0.000000
  70
    32
  0
VERTEX
  8
2
  5
B97
 10
382.656
 20
128.520
 30
0.000000
  70
    32
  0
VERTEX
  8
2
  5
B98
 10
382.560
 20
128.742
 30
0.000000
  70
    32
  0
VERTEX
  8
2
  5
B99
 10
382.471
 20
128.966
 30
0.000000
  70
    32
  0
VERTEX
  8
2
  5
B9A
 10
382.390
 20
129.192
 30
0.000000
  70
    32
  0
VERTEX
  8
2
  5
B9B
 10
382.316
 20
129.419
 30
0.000000
  70
    32
  0
VERTEX
  8
2
  5
B9C
 10
382.250
 20
129.647
 30
0.000000
  70
    32
  0
VERTEX
  8
2
  5
B9D
 10
382.191
 20
129.876
 30
0.000000
  70
    32
  0
VERTEX
  8
2
  5
B9E
 10
382.141
 20
130.106
 30
0.000000
  70
    32
  0
VERTEX
  8
2
  5
B9F
 10
382.098
 20
130.337
 30
0.000000
  70
    32
  0
VERTEX
  8
2
  5
BA0
 10
382.063
 20
130.569
 30
0.000000
  70
    32
  0
VERTEX
  8
2
  5
BA1
 10
382.035
 20
130.801
 30
0.000000
  70
    32
  0
VERTEX
  8
2
  5
BA2
 10
382.016
 20
131.034
 30
0.000000
  70
    32
  0
VERTEX
  8
2
  5
BA3
 10
382.004
 20
131.267
 30
0.000000
  70
    32
  0
VERTEX
  8
2
  5
BA4
 10
382.000
 20
131.500
 30
0.000000
  70
    32
  0
SEQEND
  8
2
  5
BA5
  0
LINE
  5
50D
  8
0
 10
408.0000000117256
 20
75.000000000000057
 30
0.0
 11
382.00000001172572
 21
75.000000000000057
 31
0.0
  0
LINE
  5
608
  8
2
 10
139.50000157046281
 20
75.458500000000186
 30
0.0
 11
139.50000157046281
 21
87.000000000000085
 31
0.0
  0
LINE
  5
609
  8
2
 10
140.04150157046271
 20
76.000000000000085
 30
0.0
 11
140.04150157046271
 21
92.000000000000085
 31
0.0
  0
LINE
  5
60A
  8
2
 10
144.95850157046289
 20
76.000000000000085
 30
0.0
 11
144.95850157046289
 21
92.000000000000085
 31
0.0
  0
LINE
  5
60B
  8
2
 10
145.50000157046281
 20
75.458500000000186
 30
0.0
 11
145.50000157046281
 21
87.000000000000085
 31
0.0
  0
LINE
  5
60C
  8
2
 10
139.50000157046281
 20
87.000000000000085
 30
0.0
 11
145.50000157046281
 21
87.000000000000085
 31
0.0
  0
LINE
  5
60D
  8
2
 10
140.04150157046271
 20
92.000000000000085
 30
0.0
 11
144.95850157046289
 21
92.000000000000085
 31
0.0
  0
LINE
  5
60E
  8
2
 10
140.0415015704628
 20
92.000000000000057
 30
0.0
 11
142.50000157046281
 21
93.477215831879377
 31
0.0
  0
LINE
  5
60F
  8
2
 10
144.95850157046289
 20
92.000000000000114
 30
0.0
 11
142.50000157046281
 21
93.477215831879377
 31
0.0
  0
LINE
  5
610
  8
2
 10
145.50000157046281
 20
87.000000000000085
 30
0.0
 11
144.95850157046289
 21
87.937905512298471
 31
0.0
  0
LINE
  5
611
  8
2
 10
139.5000015704629
 20
87.000000000000085
 30
0.0
 11
140.0415015704628
 21
87.937905512298471
 31
0.0
  0
LINE
  5
612
  8
2
 10
139.04150157046271
 20
75.000000000000085
 30
0.0
 11
140.0415015704628
 21
76.000000000000114
 31
0.0
  0
LINE
  5
613
  8
2
 10
144.95850157046289
 20
76.000000000000085
 30
0.0
 11
145.95850157046289
 21
75.000000000000085
 31
0.0
  0
LINE
  5
614
  8
2
 10
140.04150157046271
 20
76.000000000000085
 30
0.0
 11
144.95850157046289
 21
76.000000000000085
 31
0.0
  0
LINE
  5
628
  8
2
 10
319.49999844126279
 20
75.458500000000129
 30
0.0
 11
319.49999844126279
 21
87.000000000000014
 31
0.0
  0
LINE
  5
629
  8
2
 10
320.04149844126272
 20
76.000000000000028
 30
0.0
 11
320.04149844126272
 21
92.000000000000014
 31
0.0
  0
LINE
  5
62A
  8
2
 10
324.95849844126292
 20
76.000000000000028
 30
0.0
 11
324.95849844126292
 21
92.000000000000014
 31
0.0
  0
LINE
  5
62B
  8
2
 10
325.49999844126279
 20
75.458500000000129
 30
0.0
 11
325.49999844126279
 21
87.000000000000014
 31
0.0
  0
LINE
  5
62C
  8
2
 10
319.49999844126279
 20
87.000000000000014
 30
0.0
 11
325.49999844126279
 21
87.000000000000014
 31
0.0
  0
LINE
  5
62D
  8
2
 10
320.04149844126272
 20
92.000000000000014
 30
0.0
 11
324.95849844126292
 21
92.000000000000014
 31
0.0
  0
LINE
  5
62E
  8
2
 10
320.04149844126277
 20
92.0
 30
0.0
 11
322.4999984412629
 21
93.477215831879334
 31
0.0
  0
LINE
  5
62F
  8
2
 10
324.95849844126292
 20
92.000000000000057
 30
0.0
 11
322.4999984412629
 21
93.477215831879334
 31
0.0
  0
LINE
  5
630
  8
2
 10
325.49999844126279
 20
87.000000000000014
 30
0.0
 11
324.9584984412628
 21
87.937905512298414
 31
0.0
  0
LINE
  5
631
  8
2
 10
319.49999844126279
 20
87.000000000000014
 30
0.0
 11
320.04149844126277
 21
87.937905512298414
 31
0.0
  0
LINE
  5
632
  8
2
 10
319.04149844126272
 20
75.000000000000028
 30
0.0
 11
320.04149844126277
 21
76.000000000000057
 31
0.0
  0
LINE
  5
633
  8
2
 10
324.95849844126292
 20
76.000000000000028
 30
0.0
 11
325.95849844126292
 21
75.000000000000028
 31
0.0
  0
LINE
  5
634
  8
2
 10
320.04149844126272
 20
76.000000000000028
 30
0.0
 11
324.9584984412628
 21
76.000000000000028
 31
0.0
  0
LINE
  5
63C
  8
1
 10
52.0
 20
131.50000101224299
 30
0.0
 11
88.0
 21
131.50000101355701
 31
0.0
  0
LINE
  5
644
  8
1
 10
377.00000001172572
 20
131.50000101224299
 30
0.0
 11
413.0000000117256
 21
131.50000101355701
 31
0.0
  0
LINE
  5
64C
  8
1
 10
142.500000001057
 20
196.00000101329991
 30
0.0
 11
142.49999999974301
 21
232.00000101329999
 31
0.0
  0
LINE
  5
654
  8
1
 10
322.67753195159571
 20
196.00000101329991
 30
0.0
 11
322.67753195028172
 21
232.00000101329999
 31
0.0
  0
ENDSEC
  0
EOF
