  0
SECTION
  2
HEADER
  9
$ACADVER
  1
AC1009
  9
$INSBASE
 10
0.0
 20
0.0
 30
0.0
  9
$EXTMIN
 10
0.0
 20
-2.960436562073669
 30
0.0
  9
$EXTMAX
 10
353.66025403784442
 20
212.5
 30
0.0
  9
$LIMMIN
 10
0.0
 20
0.0
  9
$LIMMAX
 10
375.0
 20
270.0
  9
$ORTHOMODE
 70
     1
  9
$REGENMODE
 70
     1
  9
$FILLMODE
 70
     1
  9
$QTEXTMODE
 70
     0
  9
$MIRRTEXT
 70
     0
  9
$DRAGMODE
 70
     2
  9
$LTSCALE
 40
10.0
  9
$OSMODE
 70
    55
  9
$ATTMODE
 70
     1
  9
$TEXTSIZE
 40
0.2
  9
$TRACEWID
 40
0.05
  9
$TEXTSTYLE
  7
STANDARD
  9
$CLAYER
  8
0
  9
$CELTYPE
  6
BYLAYER
  9
$CECOLOR
 62
   256
  9
$DIMSCALE
 40
1.0
  9
$DIMASZ
 40
3.0
  9
$DIMEXO
 40
2.0
  9
$DIMDLI
 40
0.38
  9
$DIMRND
 40
0.0
  9
$DIMDLE
 40
0.0
  9
$DIMEXE
 40
2.0
  9
$DIMTP
 40
0.0
  9
$DIMTM
 40
0.0
  9
$DIMTXT
 40
3.2000000000000002
  9
$DIMCEN
 40
0.0
  9
$DIMTSZ
 40
0.0
  9
$DIMTOL
 70
     0
  9
$DIMLIM
 70
     0
  9
$DIMTIH
 70
     0
  9
$DIMTOH
 70
     0
  9
$DIMSE1
 70
     0
  9
$DIMSE2
 70
     0
  9
$DIMTAD
 70
     1
  9
$DIMZIN
 70
     0
  9
$DIMBLK
  1

  9
$DIMASO
 70
     1
  9
$DIMSHO
 70
     0
  9
$DIMPOST
  1

  9
$DIMAPOST
  1

  9
$DIMALT
 70
     0
  9
$DIMALTD
 70
     2
  9
$DIMALTF
 40
25.399999999999999
  9
$DIMLFAC
 40
1.0
  9
$DIMTOFL
 70
     1
  9
$DIMTVP
 40
1.6000000000000001
  9
$DIMTIX
 70
     1
  9
$DIMSOXD
 70
     0
  9
$DIMSAH
 70
     0
  9
$DIMBLK1
  1

  9
$DIMBLK2
  1

  9
$DIMSTYLE
  2
STANDARD
  9
$DIMCLRD
 70
     0
  9
$DIMCLRE
 70
     0
  9
$DIMCLRT
 70
     0
  9
$DIMTFAC
 40
1.0
  9
$DIMGAP
 40
0.09
  9
$LUNITS
 70
     2
  9
$LUPREC
 70
     4
  9
$SKETCHINC
 40
0.1
  9
$FILLETRAD
 40
0.0
  9
$AUNITS
 70
     0
  9
$AUPREC
 70
     4
  9
$MENU
  1
E:\r13\win\SUPPORT\ACAD
  9
$ELEVATION
 40
0.0
  9
$PELEVATION
 40
0.0
  9
$THICKNESS
 40
0.0
  9
$LIMCHECK
 70
     0
  9
$BLIPMODE
 70
     0
  9
$CHAMFERA
 40
0.0
  9
$CHAMFERB
 40
0.0
  9
$SKPOLY
 70
     0
  9
$TDCREATE
 40
2449840.6309027779
  9
$TDUPDATE
 40
2456598.5878859488
  9
$TDINDWG
 40
0.0001710648
  9
$TDUSRTIMER
 40
0.0001710648
  9
$USRTIMER
 70
     1
  9
$ANGBASE
 50
0.0
  9
$ANGDIR
 70
     0
  9
$PDMODE
 70
     0
  9
$PDSIZE
 40
0.0
  9
$PLINEWID
 40
0.0
  9
$COORDS
 70
     1
  9
$SPLFRAME
 70
     0
  9
$SPLINETYPE
 70
     6
  9
$SPLINESEGS
 70
     8
  9
$ATTDIA
 70
     0
  9
$ATTREQ
 70
     1
  9
$HANDLING
 70
     1
  9
$HANDSEED
  5
270
  9
$SURFTAB1
 70
     6
  9
$SURFTAB2
 70
     6
  9
$SURFTYPE
 70
     6
  9
$SURFU
 70
     6
  9
$SURFV
 70
     6
  9
$UCSNAME
  2

  9
$UCSORG
 10
0.0
 20
0.0
 30
0.0
  9
$UCSXDIR
 10
1.0
 20
0.0
 30
0.0
  9
$UCSYDIR
 10
0.0
 20
1.0
 30
0.0
  9
$PUCSNAME
  2

  9
$PUCSORG
 10
0.0
 20
0.0
 30
0.0
  9
$PUCSXDIR
 10
1.0
 20
0.0
 30
0.0
  9
$PUCSYDIR
 10
0.0
 20
1.0
 30
0.0
  9
$USERI1
 70
     0
  9
$USERI2
 70
     1
  9
$USERI3
 70
     1
  9
$USERI4
 70
     0
  9
$USERI5
 70
     0
  9
$USERR1
 40
0.0
  9
$USERR2
 40
0.0
  9
$USERR3
 40
0.0
  9
$USERR4
 40
0.0
  9
$USERR5
 40
0.0
  9
$WORLDVIEW
 70
     1
  9
$SHADEDGE
 70
     3
  9
$SHADEDIF
 70
    70
  9
$TILEMODE
 70
     1
  9
$MAXACTVP
 70
    16
  9
$PLIMCHECK
 70
     0
  9
$PEXTMIN
 10
1.0000000000000000E+020
 20
1.0000000000000000E+020
 30
1.0000000000000000E+020
  9
$PEXTMAX
 10
-1.0000000000000000E+020
 20
-1.0000000000000000E+020
 30
-1.0000000000000000E+020
  9
$PLIMMIN
 10
0.0
 20
0.0
  9
$PLIMMAX
 10
12.0
 20
9.0
  9
$UNITMODE
 70
     0
  9
$VISRETAIN
 70
     0
  9
$PLINEGEN
 70
     0
  9
$PSLTSCALE
 70
     0
  0
ENDSEC
  0
SECTION
  2
TABLES
  0
TABLE
  2
VPORT
 70
     1
  0
VPORT
  2
*ACTIVE
 70
     0
 10
0.0
 20
0.0
 11
1.0
 21
1.0
 12
187.49427839065231
 22
194.785247995265
 13
0.0
 23
0.0
 14
10.0
 24
10.0
 15
10.0
 25
10.0
 16
0.0
 26
0.0
 36
1.0
 17
0.0
 27
0.0
 37
0.0
 40
399.3463374158577
 41
1.7807262569832401
 42
50.0
 43
0.0
 44
0.0
 50
0.0
 51
0.0
 71
     0
 72
   500
 73
     1
 74
     0
 75
     0
 76
     0
 77
     0
 78
     2
  0
ENDTAB
  0
TABLE
  2
LTYPE
 70
     4
  0
LTYPE
  2
CONTINUOUS
 70
     0
  3
Solid Line
 72
    65
 73
     0
 40
0.0
  0
LTYPE
  2
CENTER
 70
     0
  3
____ _ ____ _ ____ _ ____ _ ____ _ ____ _ ____
 72
    65
 73
     4
 40
2.0
 49
1.25
 49
-0.25
 49
0.25
 49
-0.25
  0
LTYPE
  2
HIDDEN
 70
     0
  3
_ _ _ _ _ _ _ _ _ _ _ _ _ _ _ _ _ _ _ _ _ _ _
 72
    65
 73
     2
 40
0.375
 49
0.25
 49
-0.125
  0
LTYPE
  2
PHANTOM2
 70
     0
  3
___ _ _ ___ _ _ ___ _ _ ___ _ _
 72
    65
 73
     6
 40
1.25
 49
0.625
 49
-0.125
 49
0.125
 49
-0.125
 49
0.125
 49
-0.125
  0
ENDTAB
  0
TABLE
  2
LAYER
 70
     3
  0
LAYER
  2
0
 70
     0
 62
     7
  6
CONTINUOUS
  0
LAYER
  2
1
 70
     0
 62
     1
  6
CENTER
  0
LAYER
  2
2
 70
     0
 62
     2
  6
HIDDEN
  0
ENDTAB
  0
TABLE
  2
STYLE
 70
     2
  0
STYLE
  2
STANDARD
 70
     0
 40
0.0
 41
1.0
 50
0.0
 71
     0
 42
0.2
  3
TXT
  4
BIGFONT
  0
STYLE
  2
STANDARD1
 70
     0
 40
0.0
 41
1.0
 50
0.0
 71
     0
 42
3.0
  3
txt
  4

  0
ENDTAB
  0
TABLE
  2
VIEW
 70
     1
  0
VIEW
  2
ALL
 70
     0
 40
270.0
 10
220.99159663865549
 20
135.0
 41
0.0
 11
0.0
 21
0.0
 31
1.0
 12
0.0
 22
0.0
 32
0.0
 42
0.0
 43
0.0
 44
0.0
 50
0.0
 71
     0
  0
ENDTAB
  0
TABLE
  2
UCS
 70
     0
  0
ENDTAB
  0
TABLE
  2
APPID
 70
     3
  0
APPID
  2
ACAD
 70
     0
  0
APPID
  2
ACAD_MLEADERVER
 70
     0
  0
APPID
  2
ACAD_NAV_VCDISPLAY
 70
     0
  0
ENDTAB
  0
TABLE
  2
DIMSTYLE
 70
     1
  0
DIMSTYLE
  2
STANDARD
 70
     0
  3

  4

  5

  6

  7

 40
1.0
 41
0.18
 42
0.0625
 43
0.38
 44
0.18
 45
0.0
 46
0.0
 47
0.0
 48
0.0
140
0.18
141
0.09
142
0.0
143
25.399999999999999
144
1.0
145
0.0
146
1.0
147
0.09
 71
     0
 72
     0
 73
     1
 74
     1
 75
     0
 76
     0
 77
     0
 78
     0
170
     0
171
     2
172
     0
173
     0
174
     0
175
     0
176
     0
177
     0
178
     0
  0
ENDTAB
  0
ENDSEC
  0
SECTION
  2
BLOCKS
  0
BLOCK
  8
0
  2
$MODEL_SPACE
 70
     0
 10
0.0
 20
0.0
 30
0.0
  3
$MODEL_SPACE
  1

  0
ENDBLK
  5
F1
  8
0
  0
BLOCK
 67
     1
  8
0
  2
$PAPER_SPACE
 70
     0
 10
0.0
 20
0.0
 30
0.0
  3
$PAPER_SPACE
  1

  0
ENDBLK
  5
EF
 67
     1
  8
0
  0
ENDSEC
  0
SECTION
  2
ENTITIES
  0
LINE
  5
35
  8
1
 10
65.0
 20
55.0
 30
0.0
 11
65.0
 21
79.019237886466868
 31
0.0
  0
LINE
  5
36
  8
0
 10
124.9999999999999
 20
65.0
 30
0.0
 11
134.99999999999989
 21
65.0
 31
0.0
  0
LINE
  5
37
  8
1
 10
130.0
 20
60.0
 30
0.0
 11
130.0
 21
83.0
 31
0.0
  0
LINE
  5
38
  8
2
 10
132.49999999999989
 20
65.46700000000024
 30
0.0
 11
132.49999999999989
 21
75.000000000000014
 31
0.0
  0
LINE
  5
39
  8
2
 10
132.06700000000021
 20
65.900000000000034
 30
0.0
 11
132.06700000000021
 21
77.500000000000014
 31
0.0
  0
LINE
  5
3A
  8
2
 10
127.93299999999969
 20
65.900000000000034
 30
0.0
 11
127.93299999999969
 21
77.500000000000014
 31
0.0
  0
LINE
  5
3B
  8
2
 10
127.4999999999999
 20
65.46700000000024
 30
0.0
 11
127.4999999999999
 21
75.000000000000014
 31
0.0
  0
LINE
  5
3C
  8
2
 10
127.4999999999999
 20
75.000000000000014
 30
0.0
 11
132.49999999999989
 21
75.000000000000014
 31
0.0
  0
LINE
  5
3D
  8
2
 10
132.06700000000021
 20
77.500000000000014
 30
0.0
 11
127.93299999999969
 21
77.500000000000014
 31
0.0
  0
LINE
  5
3E
  8
2
 10
127.93299999999969
 20
77.500000000000014
 30
0.0
 11
130.0
 21
78.693383006415075
 31
0.0
  0
LINE
  5
3F
  8
2
 10
132.06700000000009
 20
77.500000000000014
 30
0.0
 11
130.0
 21
78.693383006415075
 31
0.0
  0
LINE
  5
40
  8
2
 10
132.06700000000021
 20
65.90000000000002
 30
0.0
 11
127.93299999999969
 21
65.90000000000002
 31
0.0
  0
LINE
  5
41
  8
2
 10
132.06700000000021
 20
65.900000000000034
 30
0.0
 11
132.96700000000021
 21
65.000000000000028
 31
0.0
  0
LINE
  5
42
  8
2
 10
127.93299999999969
 20
65.900000000000034
 30
0.0
 11
127.0329999999997
 21
65.000000000000028
 31
0.0
  0
LINE
  5
43
  8
0
 10
134.99999999999989
 20
65.0
 30
0.0
 11
134.99999999999989
 21
97.692307381069412
 31
0.0
  0
LINE
  5
44
  8
0
 10
124.9999999999999
 20
65.0
 30
0.0
 11
124.9999999999999
 21
99.999998651300857
 31
0.0
  0
LINE
  5
45
  8
1
 10
189.99999999999989
 20
60.000000000000007
 30
0.0
 11
189.99999999999989
 21
115.0
 31
0.0
  0
LINE
  5
46
  8
1
 10
265.00000000000011
 20
172.5
 30
0.0
 11
114.9999999999999
 21
172.5
 31
0.0
  0
LINE
  5
47
  8
1
 10
189.99999999999989
 20
212.5
 30
0.0
 11
189.99999999999989
 21
162.5
 31
0.0
  0
LINE
  5
48
  8
0
 10
60.0
 20
65.0
 30
0.0
 11
69.999999999999986
 21
65.0
 31
0.0
  0
LINE
  5
49
  8
0
 10
60.0
 20
65.0
 30
0.0
 11
59.999999999999993
 21
79.019237886466826
 31
0.0
  0
LINE
  5
4A
  8
0
 10
69.999999999999986
 20
65.0
 30
0.0
 11
69.999999999999972
 21
79.019237886466868
 31
0.0
  0
LINE
  5
4B
  8
1
 10
26.339745962155469
 20
110.0000000000001
 30
0.0
 11
57.5
 21
92.009618943233448
 31
0.0
  0
LINE
  5
4C
  8
0
 10
37.5
 20
109.3301270189222
 30
0.0
 11
59.999999999999972
 21
96.339745962155661
 31
0.0
  0
LINE
  5
4D
  8
0
 10
32.5
 20
100.6698729810778
 30
0.0
 11
54.999999999999993
 21
87.679491924311236
 31
0.0
  0
ARC
  5
4E
  8
0
 10
49.999999999999972
 20
79.019237886466868
 30
0.0
 40
20.0
 50
0.0
 51
60.0
  0
ARC
  5
4F
  8
0
 10
49.999999999999993
 20
79.019237886466826
 30
0.0
 40
10.0
 50
0.0000000000000509
 51
60.0
  0
ARC
  5
50
  8
1
 10
50.0
 20
79.019237886466868
 30
0.0
 40
15.0
 50
0.0
 51
60.0
  0
ARC
  5
51
  8
0
 10
35.0
 20
105.0
 30
0.0
 40
5.0
 50
60.000000000000028
 51
240.0
  0
ARC
  5
52
  8
2
 10
35.0
 20
105.0
 30
0.0
 40
5.0
 50
240.00000000000011
 51
60.000000000000057
  0
LINE
  5
53
  8
0
 10
139.9999999999998
 20
110.0
 30
0.0
 11
239.99999999999969
 21
110.0
 31
0.0
  0
LINE
  5
54
  8
0
 10
140.00000000000011
 20
100.0
 30
0.0
 11
239.99999999999969
 21
100.0
 31
0.0
  0
LINE
  5
55
  8
0
 10
254.99999999999989
 20
65.0
 30
0.0
 11
244.99999999999989
 21
65.0
 31
0.0
  0
LINE
  5
56
  8
1
 10
249.99999999999989
 20
60.0
 30
0.0
 11
249.99999999999989
 21
85.0
 31
0.0
  0
LINE
  5
57
  8
1
 10
129.99999999999989
 20
162.5
 30
0.0
 11
129.99999999999989
 21
182.5
 31
0.0
  0
LINE
  5
58
  8
0
 10
139.99999999999949
 20
197.5
 30
0.0
 11
240.63890366405221
 21
197.5
 31
0.0
  0
LINE
  5
59
  8
0
 10
140.00000190734809
 20
207.5
 30
0.0
 11
240.0000000000002
 21
207.5
 31
0.0
  0
LINE
  5
5A
  8
0
 10
134.99999999999949
 20
172.5
 30
0.0
 11
134.99999999999949
 21
193.83974926578031
 31
0.0
  0
LINE
  5
5B
  8
0
 10
125.0000000000002
 20
172.5
 30
0.0
 11
125.0000000000002
 21
193.83974926578031
 31
0.0
  0
ARC
  5
5C
  8
0
 10
129.99999999999989
 20
172.5
 30
0.0
 40
5.0
 50
179.99996909009249
 51
0.0
  0
ARC
  5
5D
  8
2
 10
129.9999999999998
 20
172.5
 30
0.0
 40
5.0
 50
360.0
 51
180.0
  0
LINE
  5
5E
  8
1
 10
40.0
 20
113.6602540378444
 30
0.0
 11
30.000000000000011
 21
96.339745962155618
 31
0.0
  0
POLYLINE
  5
5F
  8
0
 66
     1
 10
0.0
 20
0.0
 30
0.0
  0
VERTEX
  5
60
  8
0
 10
134.9999999999996
 20
193.8397459621556
 30
0.0
 42
-0.1294439520866158
  0
VERTEX
  5
61
  8
0
 10
135.3521604208419
 20
195.17723492151501
 30
0.0
 42
-0.1063910563871802
  0
VERTEX
  5
62
  8
0
 10
136.46446609406681
 20
196.4279364131809
 30
0.0
 42
-0.0845760729411225
 70
     2
 50
36.206023113004221
  0
VERTEX
  5
63
  8
0
 10
138.02468319347449
 20
197.2071015653149
 30
0.0
 42
-0.0737365074026138
  0
VERTEX
  5
64
  8
0
 10
139.99999999999949
 20
197.50000000000011
 30
0.0
 42
-0.0737365074026093
  0
SEQEND
  5
65
  8
0
  0
POLYLINE
  5
66
  8
0
 66
     1
 10
0.0
 20
0.0
 30
0.0
  0
VERTEX
  5
67
  8
0
 10
125.0000000000003
 20
193.8397459621556
 30
0.0
 42
-0.1071244677127908
  0
VERTEX
  5
68
  8
0
 10
126.119172692471
 20
199.00350303937731
 30
0.0
 42
-0.1016580276423644
  0
VERTEX
  5
69
  8
0
 10
129.39339828220179
 20
203.49900422504629
 30
0.0
 42
-0.094775507392093
 70
     2
 50
42.323612349259101
  0
VERTEX
  5
6A
  8
0
 10
134.19643790657361
 20
206.44178984024541
 30
0.0
 42
-0.0904235852988168
  0
VERTEX
  5
6B
  8
0
 10
139.99999999999949
 20
207.5
 30
0.0
 42
-0.0904235852988207
  0
SEQEND
  5
6C
  8
0
  0
POLYLINE
  5
6D
  8
0
 66
     1
 10
0.0
 20
0.0
 30
0.0
  0
VERTEX
  5
6E
  8
0
 10
139.9999999999998
 20
110.00000023841849
 30
0.0
 42
0.0674590414704316
  0
VERTEX
  5
6F
  8
0
 10
134.0317150210299
 20
109.1910895426887
 30
0.0
 42
0.0798124874044381
  0
VERTEX
  5
70
  8
0
 10
129.3933982822017
 20
107.0710679804528
 30
0.0
 42
0.1071181111283516
  0
VERTEX
  5
71
  8
0
 10
126.0254085856011
 20
103.59335370891689
 30
0.0
 42
0.1398891499164691
  0
VERTEX
  5
72
  8
0
 10
124.9999999999999
 20
100.0
 30
0.0
 42
0.1398891499164691
  0
SEQEND
  5
73
  8
0
  0
POLYLINE
  5
74
  8
0
 66
     1
 10
0.0
 20
0.0
 30
0.0
  0
VERTEX
  5
75
  8
0
 10
139.99999999999989
 20
100.0
 30
0.0
 42
0.0472592013466328
  0
VERTEX
  5
76
  8
0
 10
137.97114494293709
 20
99.807806609820915
 30
0.0
 42
0.0609532102433074
  0
VERTEX
  5
77
  8
0
 10
136.46446609406721
 20
99.324092480809327
 30
0.0
 42
0.1020968038410181
  0
VERTEX
  5
78
  8
0
 10
135.22998524374751
 20
98.412817571016149
 30
0.0
 42
0.2144163138745564
  0
VERTEX
  5
79
  8
0
 10
134.99999999999989
 20
97.692307381069355
 30
0.0
  0
SEQEND
  5
7A
  8
0
  0
POLYLINE
  5
7B
  8
0
 66
     1
 10
0.0
 20
0.0
 30
0.0
  0
VERTEX
  5
7C
  8
0
 10
239.9999999999998
 20
100.0
 30
0.0
 42
-0.0472592013466328
  0
VERTEX
  5
7D
  8
0
 10
242.02885505706271
 20
99.807806609820915
 30
0.0
 42
-0.0609532102433074
  0
VERTEX
  5
7E
  8
0
 10
243.5355339059326
 20
99.324092480809327
 30
0.0
 42
-0.1020968038410181
  0
VERTEX
  5
7F
  8
0
 10
244.77001475625229
 20
98.412817571016149
 30
0.0
 42
-0.2144163138745564
  0
VERTEX
  5
80
  8
0
 10
244.9999999999998
 20
97.692307381069355
 30
0.0
  0
SEQEND
  5
81
  8
0
  0
POLYLINE
  5
82
  8
0
 66
     1
 10
0.0
 20
0.0
 30
0.0
  0
VERTEX
  5
83
  8
0
 10
239.99999999999989
 20
110.00000023841849
 30
0.0
 42
-0.0674590414704316
  0
VERTEX
  5
84
  8
0
 10
245.9682849789699
 20
109.1910895426887
 30
0.0
 42
-0.0798124874044381
  0
VERTEX
  5
85
  8
0
 10
250.6066017177981
 20
107.0710679804528
 30
0.0
 42
-0.1071181111283516
  0
VERTEX
  5
86
  8
0
 10
253.97459141439859
 20
103.59335370891689
 30
0.0
 42
-0.1398891499164691
  0
VERTEX
  5
87
  8
0
 10
254.9999999999998
 20
100.0
 30
0.0
 42
-0.1398891499164691
  0
SEQEND
  5
88
  8
0
  0
POLYLINE
  5
89
  8
0
 66
     1
 10
0.0
 20
0.0
 30
0.0
  0
VERTEX
  5
8A
  8
0
 10
254.99999999999949
 20
193.8397459621556
 30
0.0
 42
0.1071244677127908
  0
VERTEX
  5
8B
  8
0
 10
253.8808273075287
 20
199.00350303937731
 30
0.0
 42
0.1016580276423644
  0
VERTEX
  5
8C
  8
0
 10
250.6066017177979
 20
203.49900422504629
 30
0.0
 42
0.094775507392093
 70
     2
 50
137.67638765074091
  0
VERTEX
  5
8D
  8
0
 10
245.80356209342619
 20
206.44178984024541
 30
0.0
 42
0.0904235852988168
  0
VERTEX
  5
8E
  8
0
 10
240.0000000000002
 20
207.5
 30
0.0
 42
0.0904235852988207
  0
SEQEND
  5
8F
  8
0
  0
POLYLINE
  5
90
  8
0
 66
     1
 10
0.0
 20
0.0
 30
0.0
  0
VERTEX
  5
91
  8
0
 10
245.0000000000002
 20
193.8397459621556
 30
0.0
 42
0.1294439520866158
  0
VERTEX
  5
92
  8
0
 10
244.64783957915779
 20
195.17723492151501
 30
0.0
 42
0.1063910563871802
  0
VERTEX
  5
93
  8
0
 10
243.53553390593291
 20
196.4279364131809
 30
0.0
 42
0.0845760729411225
 70
     2
 50
143.79397688699581
  0
VERTEX
  5
94
  8
0
 10
241.9753168065252
 20
197.2071015653149
 30
0.0
 42
0.0737365074026138
  0
VERTEX
  5
95
  8
0
 10
240.0000000000002
 20
197.50000000000011
 30
0.0
 42
0.0737365074026093
  0
SEQEND
  5
96
  8
0
  0
ARC
  5
97
  8
2
 10
250.0
 20
172.5
 30
0.0
 40
5.0
 50
0.0
 51
180.0
  0
ARC
  5
98
  8
0
 10
249.99999999999989
 20
172.5
 30
0.0
 40
5.0
 50
180.0
 51
0.0000309099075157
  0
LINE
  5
99
  8
0
 10
254.99999999999949
 20
172.5
 30
0.0
 11
254.99999999999949
 21
193.83974926578031
 31
0.0
  0
LINE
  5
9A
  8
0
 10
245.0000000000002
 20
172.5
 30
0.0
 11
245.0000000000002
 21
193.83974926578031
 31
0.0
  0
LINE
  5
9B
  8
1
 10
249.99999999999989
 20
162.5
 30
0.0
 11
249.99999999999989
 21
182.5
 31
0.0
  0
LINE
  5
9C
  8
0
 10
254.9999999999998
 20
65.0
 30
0.0
 11
254.9999999999998
 21
99.999998651300857
 31
0.0
  0
LINE
  5
9D
  8
0
 10
244.9999999999998
 20
65.0
 30
0.0
 11
244.9999999999998
 21
97.692307381069412
 31
0.0
  0
LINE
  5
9E
  8
2
 10
252.06700000000021
 20
65.900000000000034
 30
0.0
 11
252.9670000000001
 21
65.000000000000028
 31
0.0
  0
LINE
  5
9F
  8
2
 10
247.93299999999971
 20
65.900000000000034
 30
0.0
 11
247.0329999999997
 21
65.000000000000028
 31
0.0
  0
LINE
  5
A0
  8
2
 10
247.93299999999971
 20
65.90000000000002
 30
0.0
 11
252.06700000000009
 21
65.90000000000002
 31
0.0
  0
LINE
  5
A1
  8
2
 10
247.93299999999971
 20
77.500000000000014
 30
0.0
 11
249.99999999999989
 21
78.693383006415075
 31
0.0
  0
LINE
  5
A2
  8
2
 10
252.06700000000009
 20
77.500000000000014
 30
0.0
 11
249.99999999999989
 21
78.693383006415075
 31
0.0
  0
LINE
  5
A3
  8
2
 10
247.93299999999971
 20
77.500000000000014
 30
0.0
 11
252.06700000000009
 21
77.500000000000014
 31
0.0
  0
LINE
  5
A4
  8
2
 10
252.49999999999989
 20
75.000000000000014
 30
0.0
 11
247.49999999999989
 21
75.000000000000014
 31
0.0
  0
LINE
  5
A5
  8
2
 10
252.49999999999989
 20
65.46700000000024
 30
0.0
 11
252.49999999999989
 21
75.000000000000014
 31
0.0
  0
LINE
  5
A6
  8
2
 10
252.06700000000009
 20
65.900000000000034
 30
0.0
 11
252.06700000000009
 21
77.500000000000014
 31
0.0
  0
LINE
  5
A7
  8
2
 10
247.93299999999971
 20
65.900000000000034
 30
0.0
 11
247.93299999999971
 21
77.500000000000014
 31
0.0
  0
LINE
  5
A8
  8
2
 10
247.49999999999989
 20
65.46700000000024
 30
0.0
 11
247.49999999999989
 21
75.000000000000014
 31
0.0
  0
LINE
  5
A9
  8
1
 10
339.99999999999989
 20
113.6602540378444
 30
0.0
 11
349.99999999999977
 21
96.339745962155618
 31
0.0
  0
ARC
  5
AA
  8
2
 10
344.99999999999977
 20
105.0
 30
0.0
 40
5.0
 50
119.9999999999999
 51
300.0
  0
ARC
  5
AB
  8
0
 10
344.99999999999977
 20
105.0
 30
0.0
 40
5.0
 50
300.0
 51
120.0
  0
ARC
  5
AC
  8
1
 10
329.99999999999977
 20
79.019237886466868
 30
0.0
 40
15.0
 50
120.0
 51
180.0
  0
ARC
  5
AD
  8
0
 10
329.99999999999977
 20
79.019237886466826
 30
0.0
 40
10.0
 50
120.0
 51
180.0
  0
ARC
  5
AE
  8
0
 10
329.99999999999989
 20
79.019237886466868
 30
0.0
 40
20.0
 50
120.0
 51
180.0
  0
LINE
  5
AF
  8
0
 10
347.49999999999977
 20
100.6698729810778
 30
0.0
 11
324.99999999999977
 21
87.679491924311236
 31
0.0
  0
LINE
  5
B0
  8
0
 10
342.49999999999977
 20
109.3301270189222
 30
0.0
 11
319.99999999999989
 21
96.339745962155661
 31
0.0
  0
LINE
  5
B1
  8
1
 10
353.66025403784442
 20
110.0000000000001
 30
0.0
 11
322.49999999999977
 21
92.009618943233448
 31
0.0
  0
LINE
  5
B2
  8
0
 10
309.99999999999977
 20
65.0
 30
0.0
 11
309.99999999999989
 21
79.019237886466868
 31
0.0
  0
LINE
  5
B3
  8
0
 10
319.99999999999977
 20
65.0
 30
0.0
 11
319.99999999999977
 21
79.019237886466826
 31
0.0
  0
LINE
  5
B4
  8
0
 10
319.99999999999977
 20
65.0
 30
0.0
 11
309.99999999999977
 21
65.0
 31
0.0
  0
LINE
  5
B5
  8
1
 10
314.99999999999989
 20
55.0
 30
0.0
 11
314.99999999999989
 21
79.019237886466868
 31
0.0
  0
TEXT
  5
1DB
  8
0
 62
     3
 10
0.0
 20
0.0
 30
0.0
 40
10.0
  1
RD3-120G
  7
STANDARD1
  0
ENDSEC
  0
EOF
