  0
SECTION
  2
HEADER
  9
$ACADVER
  1
AC1009
  9
$INSBASE
 10
0.0
 20
0.0
 30
0.0
  9
$EXTMIN
 10
0.0
 20
-2.960436562073669
 30
0.0
  9
$EXTMAX
 10
340.51059361188902
 20
204.9948530378872
 30
0.0
  9
$LIMMIN
 10
0.0
 20
0.0
  9
$LIMMAX
 10
375.0
 20
270.0
  9
$ORTHOMODE
 70
     1
  9
$REGENMODE
 70
     1
  9
$FILLMODE
 70
     1
  9
$QTEXTMODE
 70
     0
  9
$MIRRTEXT
 70
     0
  9
$DRAGMODE
 70
     2
  9
$LTSCALE
 40
10.0
  9
$OSMODE
 70
    55
  9
$ATTMODE
 70
     1
  9
$TEXTSIZE
 40
0.2
  9
$TRACEWID
 40
0.05
  9
$TEXTSTYLE
  7
STANDARD
  9
$CLAYER
  8
0
  9
$CELTYPE
  6
BYLAYER
  9
$CECOLOR
 62
   256
  9
$DIMSCALE
 40
1.0
  9
$DIMASZ
 40
3.0
  9
$DIMEXO
 40
2.0
  9
$DIMDLI
 40
0.38
  9
$DIMRND
 40
0.0
  9
$DIMDLE
 40
0.0
  9
$DIMEXE
 40
2.0
  9
$DIMTP
 40
0.0
  9
$DIMTM
 40
0.0
  9
$DIMTXT
 40
3.2000000000000002
  9
$DIMCEN
 40
0.0
  9
$DIMTSZ
 40
0.0
  9
$DIMTOL
 70
     0
  9
$DIMLIM
 70
     0
  9
$DIMTIH
 70
     0
  9
$DIMTOH
 70
     0
  9
$DIMSE1
 70
     0
  9
$DIMSE2
 70
     0
  9
$DIMTAD
 70
     1
  9
$DIMZIN
 70
     0
  9
$DIMBLK
  1

  9
$DIMASO
 70
     1
  9
$DIMSHO
 70
     0
  9
$DIMPOST
  1

  9
$DIMAPOST
  1

  9
$DIMALT
 70
     0
  9
$DIMALTD
 70
     2
  9
$DIMALTF
 40
25.399999999999999
  9
$DIMLFAC
 40
1.0
  9
$DIMTOFL
 70
     1
  9
$DIMTVP
 40
1.6000000000000001
  9
$DIMTIX
 70
     1
  9
$DIMSOXD
 70
     0
  9
$DIMSAH
 70
     0
  9
$DIMBLK1
  1

  9
$DIMBLK2
  1

  9
$DIMSTYLE
  2
STANDARD
  9
$DIMCLRD
 70
     0
  9
$DIMCLRE
 70
     0
  9
$DIMCLRT
 70
     0
  9
$DIMTFAC
 40
1.0
  9
$DIMGAP
 40
0.09
  9
$LUNITS
 70
     2
  9
$LUPREC
 70
     4
  9
$SKETCHINC
 40
0.1
  9
$FILLETRAD
 40
0.0
  9
$AUNITS
 70
     0
  9
$AUPREC
 70
     4
  9
$MENU
  1
E:\r13\win\SUPPORT\ACAD
  9
$ELEVATION
 40
0.0
  9
$PELEVATION
 40
0.0
  9
$THICKNESS
 40
0.0
  9
$LIMCHECK
 70
     0
  9
$BLIPMODE
 70
     0
  9
$CHAMFERA
 40
0.0
  9
$CHAMFERB
 40
0.0
  9
$SKPOLY
 70
     0
  9
$TDCREATE
 40
2449840.6307407408
  9
$TDUPDATE
 40
2456598.587047813
  9
$TDINDWG
 40
0.0715244907
  9
$TDUSRTIMER
 40
0.0715244907
  9
$USRTIMER
 70
     1
  9
$ANGBASE
 50
0.0
  9
$ANGDIR
 70
     0
  9
$PDMODE
 70
     0
  9
$PDSIZE
 40
0.0
  9
$PLINEWID
 40
0.0
  9
$COORDS
 70
     1
  9
$SPLFRAME
 70
     0
  9
$SPLINETYPE
 70
     6
  9
$SPLINESEGS
 70
     8
  9
$ATTDIA
 70
     0
  9
$ATTREQ
 70
     1
  9
$HANDLING
 70
     1
  9
$HANDSEED
  5
52A
  9
$SURFTAB1
 70
     6
  9
$SURFTAB2
 70
     6
  9
$SURFTYPE
 70
     6
  9
$SURFU
 70
     6
  9
$SURFV
 70
     6
  9
$UCSNAME
  2

  9
$UCSORG
 10
0.0
 20
0.0
 30
0.0
  9
$UCSXDIR
 10
1.0
 20
0.0
 30
0.0
  9
$UCSYDIR
 10
0.0
 20
1.0
 30
0.0
  9
$PUCSNAME
  2

  9
$PUCSORG
 10
0.0
 20
0.0
 30
0.0
  9
$PUCSXDIR
 10
1.0
 20
0.0
 30
0.0
  9
$PUCSYDIR
 10
0.0
 20
1.0
 30
0.0
  9
$USERI1
 70
     0
  9
$USERI2
 70
     1
  9
$USERI3
 70
     1
  9
$USERI4
 70
     0
  9
$USERI5
 70
     0
  9
$USERR1
 40
0.0
  9
$USERR2
 40
0.0
  9
$USERR3
 40
0.0
  9
$USERR4
 40
0.0
  9
$USERR5
 40
0.0
  9
$WORLDVIEW
 70
     1
  9
$SHADEDGE
 70
     3
  9
$SHADEDIF
 70
    70
  9
$TILEMODE
 70
     1
  9
$MAXACTVP
 70
    16
  9
$PLIMCHECK
 70
     0
  9
$PEXTMIN
 10
1.0000000000000000E+020
 20
1.0000000000000000E+020
 30
1.0000000000000000E+020
  9
$PEXTMAX
 10
-1.0000000000000000E+020
 20
-1.0000000000000000E+020
 30
-1.0000000000000000E+020
  9
$PLIMMIN
 10
0.0
 20
0.0
  9
$PLIMMAX
 10
12.0
 20
9.0
  9
$UNITMODE
 70
     0
  9
$VISRETAIN
 70
     0
  9
$PLINEGEN
 70
     0
  9
$PSLTSCALE
 70
     0
  0
ENDSEC
  0
SECTION
  2
TABLES
  0
TABLE
  2
VPORT
 70
     1
  0
VPORT
  2
*ACTIVE
 70
     0
 10
0.0
 20
0.0
 11
1.0
 21
1.0
 12
187.49427839065231
 22
194.785247995265
 13
0.0
 23
0.0
 14
10.0
 24
10.0
 15
10.0
 25
10.0
 16
0.0
 26
0.0
 36
1.0
 17
0.0
 27
0.0
 37
0.0
 40
399.3463374158577
 41
1.7807262569832401
 42
50.0
 43
0.0
 44
0.0
 50
0.0
 51
0.0
 71
     0
 72
   500
 73
     1
 74
     0
 75
     0
 76
     0
 77
     0
 78
     2
  0
ENDTAB
  0
TABLE
  2
LTYPE
 70
     4
  0
LTYPE
  2
CONTINUOUS
 70
     0
  3
Solid Line
 72
    65
 73
     0
 40
0.0
  0
LTYPE
  2
CENTER
 70
     0
  3
____ _ ____ _ ____ _ ____ _ ____ _ ____ _ ____
 72
    65
 73
     4
 40
2.0
 49
1.25
 49
-0.25
 49
0.25
 49
-0.25
  0
LTYPE
  2
HIDDEN
 70
     0
  3
_ _ _ _ _ _ _ _ _ _ _ _ _ _ _ _ _ _ _ _ _ _ _
 72
    65
 73
     2
 40
0.375
 49
0.25
 49
-0.125
  0
LTYPE
  2
PHANTOM2
 70
     0
  3
___ _ _ ___ _ _ ___ _ _ ___ _ _
 72
    65
 73
     6
 40
1.25
 49
0.625
 49
-0.125
 49
0.125
 49
-0.125
 49
0.125
 49
-0.125
  0
ENDTAB
  0
TABLE
  2
LAYER
 70
     3
  0
LAYER
  2
0
 70
     0
 62
     7
  6
CONTINUOUS
  0
LAYER
  2
1
 70
     0
 62
     1
  6
CENTER
  0
LAYER
  2
2
 70
     0
 62
     2
  6
HIDDEN
  0
ENDTAB
  0
TABLE
  2
STYLE
 70
     2
  0
STYLE
  2
STANDARD
 70
     0
 40
0.0
 41
1.0
 50
0.0
 71
     0
 42
0.2
  3
TXT
  4
BIGFONT
  0
STYLE
  2
STANDARD1
 70
     0
 40
0.0
 41
1.0
 50
0.0
 71
     0
 42
3.0
  3
txt
  4

  0
ENDTAB
  0
TABLE
  2
VIEW
 70
     1
  0
VIEW
  2
ALL
 70
     0
 40
270.0
 10
220.99159663865549
 20
135.0
 41
0.0
 11
0.0
 21
0.0
 31
1.0
 12
0.0
 22
0.0
 32
0.0
 42
0.0
 43
0.0
 44
0.0
 50
0.0
 71
     0
  0
ENDTAB
  0
TABLE
  2
UCS
 70
     0
  0
ENDTAB
  0
TABLE
  2
APPID
 70
     4
  0
APPID
  2
ACAD
 70
     0
  0
APPID
  2
ACAD_EXEMPT_FROM_CAD_STANDARDS
 70
     0
  0
APPID
  2
ACAD_NAV_VCDISPLAY
 70
     0
  0
APPID
  2
ACAD_MLEADERVER
 70
     0
  0
ENDTAB
  0
TABLE
  2
DIMSTYLE
 70
     1
  0
DIMSTYLE
  2
STANDARD
 70
     0
  3

  4

  5

  6

  7

 40
1.0
 41
0.18
 42
0.0625
 43
0.38
 44
0.18
 45
0.0
 46
0.0
 47
0.0
 48
0.0
140
0.18
141
0.09
142
0.0
143
25.399999999999999
144
1.0
145
0.0
146
1.0
147
0.09
 71
     0
 72
     0
 73
     1
 74
     1
 75
     0
 76
     0
 77
     0
 78
     0
170
     0
171
     2
172
     0
173
     0
174
     0
175
     0
176
     0
177
     0
178
     0
  0
ENDTAB
  0
ENDSEC
  0
SECTION
  2
BLOCKS
  0
BLOCK
  8
0
  2
$MODEL_SPACE
 70
     0
 10
0.0
 20
0.0
 30
0.0
  3
$MODEL_SPACE
  1

  0
ENDBLK
  5
DA
  8
0
  0
BLOCK
 67
     1
  8
0
  2
$PAPER_SPACE
 70
     0
 10
0.0
 20
0.0
 30
0.0
  3
$PAPER_SPACE
  1

  0
ENDBLK
  5
D8
 67
     1
  8
0
  0
ENDSEC
  0
SECTION
  2
ENTITIES
  0
LINE
  5
35
  8
1
 10
150.51059361188891
 20
75.0
 30
0.0
 11
150.51059361188891
 21
102.5
 31
0.0
  0
LINE
  5
36
  8
2
 10
153.01059361188891
 20
80.46700000000024
 30
0.0
 11
153.01059361188891
 21
90.000000000000014
 31
0.0
  0
LINE
  5
37
  8
2
 10
152.5775936118892
 20
80.900000000000034
 30
0.0
 11
152.5775936118892
 21
92.500000000000014
 31
0.0
  0
LINE
  5
38
  8
2
 10
148.4435936118887
 20
80.900000000000034
 30
0.0
 11
148.4435936118887
 21
92.500000000000014
 31
0.0
  0
LINE
  5
39
  8
2
 10
148.01059361188891
 20
80.46700000000024
 30
0.0
 11
148.01059361188891
 21
90.000000000000014
 31
0.0
  0
LINE
  5
3A
  8
2
 10
148.01059361188891
 20
90.000000000000014
 30
0.0
 11
153.01059361188891
 21
90.000000000000014
 31
0.0
  0
LINE
  5
3B
  8
2
 10
152.5775936118892
 20
92.500000000000014
 30
0.0
 11
148.4435936118887
 21
92.500000000000014
 31
0.0
  0
LINE
  5
3C
  8
2
 10
148.4435936118887
 20
92.500000000000014
 30
0.0
 11
150.51059361188891
 21
93.693383006415075
 31
0.0
  0
LINE
  5
3D
  8
2
 10
152.57759361188911
 20
92.500000000000014
 30
0.0
 11
150.51059361188891
 21
93.693383006415075
 31
0.0
  0
LINE
  5
3E
  8
2
 10
152.5775936118892
 20
80.900000000000006
 30
0.0
 11
148.4435936118887
 21
80.900000000000006
 31
0.0
  0
LINE
  5
3F
  8
2
 10
152.5775936118892
 20
80.900000000000034
 30
0.0
 11
153.47759361188909
 21
80.000000000000028
 31
0.0
  0
LINE
  5
40
  8
2
 10
148.4435936118887
 20
80.900000000000034
 30
0.0
 11
147.5435936118887
 21
80.000000000000028
 31
0.0
  0
LINE
  5
41
  8
0
 10
155.51059361188891
 20
80.0
 30
0.0
 11
155.51059361188891
 21
102.5
 31
0.0
  0
LINE
  5
42
  8
0
 10
145.51059361188891
 20
80.000000000000014
 30
0.0
 11
145.51059361188891
 21
102.5
 31
0.0
  0
LINE
  5
43
  8
0
 10
163.01059361188891
 20
120.0
 30
0.0
 11
318.01059361188902
 21
119.9999999999999
 31
0.0
  0
LINE
  5
44
  8
0
 10
163.01059361188891
 20
110.0
 30
0.0
 11
318.01059361188902
 21
110.0
 31
0.0
  0
ARC
  5
45
  8
0
 10
163.01059361188891
 20
102.5
 30
0.0
 40
17.5
 50
90.0
 51
179.99999999999989
  0
ARC
  5
46
  8
0
 10
163.01059361188891
 20
102.5
 30
0.0
 40
7.5
 50
90.0
 51
179.99999999999989
  0
LINE
  5
49
  8
0
 10
335.51059361188891
 20
79.999999999999972
 30
0.0
 11
335.51059361188902
 21
102.4999999999999
 31
0.0
  0
LINE
  5
4A
  8
0
 10
325.51059361188902
 20
80.0
 30
0.0
 11
325.51059361188902
 21
102.5
 31
0.0
  0
ARC
  5
4B
  8
0
 10
318.01059361188902
 20
102.4999999999999
 30
0.0
 40
17.5
 50
0.0
 51
90.0
  0
ARC
  5
4C
  8
0
 10
318.01059361188902
 20
102.5
 30
0.0
 40
7.5
 50
0.0
 51
90.0
  0
LINE
  5
4D
  8
1
 10
330.51059361188902
 20
75.0
 30
0.0
 11
330.51059361188902
 21
102.5
 31
0.0
  0
LINE
  5
5F
  8
0
 10
79.510593611888993
 20
79.999999999999986
 30
0.0
 11
89.510593611888936
 21
79.999999999999986
 31
0.0
  0
LINE
  5
66
  8
1
 10
84.510593611888993
 20
75.0
 30
0.0
 11
84.510593611888993
 21
125.0
 31
0.0
  0
LINE
  5
67
  8
0
 10
79.510593611888993
 20
80.0
 30
0.0
 11
79.510593611888993
 21
115.0
 31
0.0
  0
LINE
  5
68
  8
0
 10
89.510593611888964
 20
79.999999999999986
 30
0.0
 11
89.510593611888964
 21
115.0
 31
0.0
  0
ARC
  5
69
  8
0
 10
84.510593611888993
 20
115.0
 30
0.0
 40
4.9999999999999849
 50
0.0000000000003308
 51
180.0000000000004
  0
ARC
  5
6A
  8
2
 10
84.510593611888993
 20
115.0
 30
0.0
 40
4.9999999999999849
 50
179.9999999999996
 51
359.99999999999972
  0
LINE
  5
70
  8
0
 10
145.51059361188891
 20
80.000000000000014
 30
0.0
 11
155.51059361188891
 21
79.999999999999986
 31
0.0
  0
LINE
  5
7D
  8
2
 10
328.44359361188879
 20
92.500000000000014
 30
0.0
 11
330.51059361188902
 21
93.693383006415075
 31
0.0
  0
LINE
  5
7E
  8
2
 10
332.57759361188931
 20
92.500000000000014
 30
0.0
 11
330.51059361188902
 21
93.693383006415075
 31
0.0
  0
LINE
  5
7F
  8
2
 10
328.44359361188879
 20
92.500000000000014
 30
0.0
 11
332.57759361188931
 21
92.500000000000014
 31
0.0
  0
LINE
  5
80
  8
2
 10
333.01059361188902
 20
90.000000000000014
 30
0.0
 11
328.01059361188902
 21
90.000000000000014
 31
0.0
  0
LINE
  5
81
  8
2
 10
333.01059361188902
 20
80.46700000000024
 30
0.0
 11
333.01059361188902
 21
90.000000000000014
 31
0.0
  0
LINE
  5
82
  8
2
 10
332.57759361188931
 20
80.900000000000034
 30
0.0
 11
332.57759361188931
 21
92.500000000000014
 31
0.0
  0
LINE
  5
83
  8
2
 10
328.44359361188879
 20
80.900000000000034
 30
0.0
 11
328.44359361188879
 21
92.500000000000014
 31
0.0
  0
LINE
  5
84
  8
2
 10
328.01059361188902
 20
80.46700000000024
 30
0.0
 11
328.01059361188902
 21
90.000000000000014
 31
0.0
  0
LINE
  5
85
  8
0
 10
150.51059361188891
 20
189.9948530378872
 30
0.0
 11
330.51059361188902
 21
189.9948530378872
 31
0.0
  0
LINE
  5
86
  8
0
 10
150.51059361188891
 20
199.9948530378872
 30
0.0
 11
330.51059361188902
 21
199.9948530378872
 31
0.0
  0
ARC
  5
87
  8
0
 10
150.51059361188891
 20
194.9948530378872
 30
0.0
 40
5.0
 50
90.0
 51
270.0
  0
ARC
  5
88
  8
2
 10
150.51059361188891
 20
194.9948530378872
 30
0.0
 40
5.0
 50
270.0
 51
90.0
  0
ARC
  5
99
  8
2
 10
330.51059361188902
 20
194.9948530378872
 30
0.0
 40
5.0
 50
90.000000000000028
 51
270.00000000000011
  0
ARC
  5
9A
  8
0
 10
330.51059361188902
 20
194.9948530378872
 30
0.0
 40
5.0
 50
270.00000000000011
 51
90.000000000000028
  0
LINE
  5
9B
  8
1
 10
340.51059361188902
 20
194.9948530378872
 30
0.0
 11
140.51059361188891
 21
194.9948530378872
 31
0.0
  0
LINE
  5
9C
  8
1
 10
150.51059361188891
 20
204.9948530378872
 30
0.0
 11
150.51059361188891
 21
184.9948530378872
 31
0.0
  0
LINE
  5
9E
  8
1
 10
330.51059361188902
 20
204.9948530378872
 30
0.0
 11
330.51059361188902
 21
184.9948530378872
 31
0.0
  0
LINE
  5
182
  8
2
 10
332.57759361188931
 20
80.900000000000006
 30
0.0
 11
328.44359361188879
 21
80.900000000000006
 31
0.0
  0
LINE
  5
183
  8
2
 10
332.57759361188931
 20
80.900000000000034
 30
0.0
 11
333.47759361188918
 21
80.000000000000028
 31
0.0
  0
LINE
  5
184
  8
2
 10
328.44359361188879
 20
80.900000000000034
 30
0.0
 11
327.54359361188881
 21
80.000000000000028
 31
0.0
  0
LINE
  5
185
  8
0
 10
325.51059361188902
 20
80.000000000000014
 30
0.0
 11
335.51059361188891
 21
79.999999999999986
 31
0.0
  0
LINE
  5
36C
  8
1
 10
94.510593611888993
 20
115.0
 30
0.0
 11
74.510593611888993
 21
115.0
 31
0.0
  0
LINE
  5
373
  8
1
 10
163.01059361188891
 20
115.0
 30
0.0
 11
318.01059361188902
 21
115.0
 31
0.0
  0
ARC
  5
374
  8
1
 10
163.01059361188891
 20
102.5
 30
0.0
 40
12.5
 50
90.0
 51
179.99999999999989
  0
ARC
  5
375
  8
1
 10
318.01059361188902
 20
102.5
 30
0.0
 40
12.5
 50
0.0
 51
90.0
  0
TEXT
  5
4CD
  8
0
 62
     3
 10
0.0
 20
0.0
 30
0.0
 40
10.0
  1
RD1-180G
  7
STANDARD1
  0
ENDSEC
  0
EOF
