  0
SECTION
  2
HEADER
  9
$ACADVER
  1
AC1009
  9
$INSBASE
 10
0.0
 20
0.0
 30
0.0
  9
$EXTMIN
 10
0.0
 20
-2.960436562073669
 30
0.0
  9
$EXTMAX
 10
227.69827184850001
 20
175.5009077485
 30
0.0
  9
$LIMMIN
 10
0.0
 20
0.0
  9
$LIMMAX
 10
187.5
 20
135.0
  9
$ORTHOMODE
 70
     1
  9
$REGENMODE
 70
     1
  9
$FILLMODE
 70
     1
  9
$QTEXTMODE
 70
     0
  9
$MIRRTEXT
 70
     0
  9
$DRAGMODE
 70
     2
  9
$LTSCALE
 40
5.0
  9
$OSMODE
 70
  3071
  9
$ATTMODE
 70
     1
  9
$TEXTSIZE
 40
0.2
  9
$TRACEWID
 40
0.05
  9
$TEXTSTYLE
  7
STANDARD
  9
$CLAYER
  8
0
  9
$CELTYPE
  6
BYLAYER
  9
$CECOLOR
 62
   256
  9
$DIMSCALE
 40
0.5
  9
$DIMASZ
 40
3.0
  9
$DIMEXO
 40
2.0
  9
$DIMDLI
 40
0.3799999999999999
  9
$DIMRND
 40
0.0
  9
$DIMDLE
 40
0.0
  9
$DIMEXE
 40
2.0
  9
$DIMTP
 40
0.0
  9
$DIMTM
 40
0.0
  9
$DIMTXT
 40
3.2000000000000002
  9
$DIMCEN
 40
0.09
  9
$DIMTSZ
 40
0.0
  9
$DIMTOL
 70
     0
  9
$DIMLIM
 70
     0
  9
$DIMTIH
 70
     0
  9
$DIMTOH
 70
     0
  9
$DIMSE1
 70
     0
  9
$DIMSE2
 70
     0
  9
$DIMTAD
 70
     1
  9
$DIMZIN
 70
     0
  9
$DIMBLK
  1

  9
$DIMASO
 70
     0
  9
$DIMSHO
 70
     0
  9
$DIMPOST
  1

  9
$DIMAPOST
  1

  9
$DIMALT
 70
     0
  9
$DIMALTD
 70
     2
  9
$DIMALTF
 40
25.399999999999999
  9
$DIMLFAC
 40
1.0
  9
$DIMTOFL
 70
     0
  9
$DIMTVP
 40
1.6000000000000001
  9
$DIMTIX
 70
     1
  9
$DIMSOXD
 70
     0
  9
$DIMSAH
 70
     0
  9
$DIMBLK1
  1

  9
$DIMBLK2
  1

  9
$DIMSTYLE
  2
STANDARD
  9
$DIMCLRD
 70
     0
  9
$DIMCLRE
 70
     0
  9
$DIMCLRT
 70
     0
  9
$DIMTFAC
 40
1.0
  9
$DIMGAP
 40
0.09
  9
$LUNITS
 70
     2
  9
$LUPREC
 70
     4
  9
$SKETCHINC
 40
0.1
  9
$FILLETRAD
 40
0.4
  9
$AUNITS
 70
     0
  9
$AUPREC
 70
     0
  9
$MENU
  1
E:\r13\win\SUPPORT\ACAD
  9
$ELEVATION
 40
0.0
  9
$PELEVATION
 40
0.0
  9
$THICKNESS
 40
0.0
  9
$LIMCHECK
 70
     0
  9
$BLIPMODE
 70
     0
  9
$CHAMFERA
 40
0.0
  9
$CHAMFERB
 40
0.0
  9
$SKPOLY
 70
     0
  9
$TDCREATE
 40
2451824.6906229062
  9
$TDUPDATE
 40
2456598.4343626969
  9
$TDINDWG
 40
0.1500631481
  9
$TDUSRTIMER
 40
0.1500631481
  9
$USRTIMER
 70
     1
  9
$ANGBASE
 50
0.0
  9
$ANGDIR
 70
     0
  9
$PDMODE
 70
     0
  9
$PDSIZE
 40
0.0
  9
$PLINEWID
 40
0.0
  9
$COORDS
 70
     1
  9
$SPLFRAME
 70
     0
  9
$SPLINETYPE
 70
     6
  9
$SPLINESEGS
 70
     8
  9
$ATTDIA
 70
     0
  9
$ATTREQ
 70
     1
  9
$HANDLING
 70
     1
  9
$HANDSEED
  5
FE5
  9
$SURFTAB1
 70
     6
  9
$SURFTAB2
 70
     6
  9
$SURFTYPE
 70
     6
  9
$SURFU
 70
     6
  9
$SURFV
 70
     6
  9
$UCSNAME
  2

  9
$UCSORG
 10
0.0
 20
0.0
 30
0.0
  9
$UCSXDIR
 10
1.0
 20
0.0
 30
0.0
  9
$UCSYDIR
 10
0.0
 20
1.0
 30
0.0
  9
$PUCSNAME
  2

  9
$PUCSORG
 10
0.0
 20
0.0
 30
0.0
  9
$PUCSXDIR
 10
1.0
 20
0.0
 30
0.0
  9
$PUCSYDIR
 10
0.0
 20
1.0
 30
0.0
  9
$USERI1
 70
     0
  9
$USERI2
 70
     1
  9
$USERI3
 70
     0
  9
$USERI4
 70
     0
  9
$USERI5
 70
     0
  9
$USERR1
 40
0.0
  9
$USERR2
 40
0.0
  9
$USERR3
 40
0.0
  9
$USERR4
 40
0.0
  9
$USERR5
 40
0.0
  9
$WORLDVIEW
 70
     1
  9
$SHADEDGE
 70
     3
  9
$SHADEDIF
 70
    70
  9
$TILEMODE
 70
     1
  9
$MAXACTVP
 70
    16
  9
$PLIMCHECK
 70
     0
  9
$PEXTMIN
 10
1.0000000000000000E+020
 20
1.0000000000000000E+020
 30
1.0000000000000000E+020
  9
$PEXTMAX
 10
-1.0000000000000000E+020
 20
-1.0000000000000000E+020
 30
-1.0000000000000000E+020
  9
$PLIMMIN
 10
0.0
 20
0.0
  9
$PLIMMAX
 10
12.0
 20
9.0
  9
$UNITMODE
 70
     0
  9
$VISRETAIN
 70
     0
  9
$PLINEGEN
 70
     0
  9
$PSLTSCALE
 70
     0
  0
ENDSEC
  0
SECTION
  2
TABLES
  0
TABLE
  2
VPORT
 70
     1
  0
VPORT
  2
*ACTIVE
 70
     0
 10
0.0
 20
0.0
 11
1.0
 21
1.0
 12
113.8491364544013
 22
96.641819855597504
 13
0.0
 23
0.0
 14
5.0
 24
5.0
 15
5.0
 25
5.0
 16
0.0
 26
0.0
 36
1.0
 17
0.0
 27
0.0
 37
0.0
 40
201.7145050409901
 41
2.304913294797688
 42
50.0
 43
0.0
 44
0.0
 50
0.0
 51
0.0
 71
     0
 72
   500
 73
     1
 74
     0
 75
     0
 76
     0
 77
     0
 78
     2
  0
ENDTAB
  0
TABLE
  2
LTYPE
 70
     4
  0
LTYPE
  2
CONTINUOUS
 70
     0
  3
Solid Line
 72
    65
 73
     0
 40
0.0
  0
LTYPE
  2
CENTER
 70
     0
  3
____ _ ____ _ ____ _ ____ _ ____ _ ____ _ ____
 72
    65
 73
     4
 40
2.0
 49
1.25
 49
-0.25
 49
0.25
 49
-0.25
  0
LTYPE
  2
HIDDEN
 70
     0
  3
__ __ __ __ __ __ __ __ __ __ __ __ __ __ __ __
 72
    65
 73
     2
 40
0.375
 49
0.25
 49
-0.125
  0
LTYPE
  2
PHANTOM2
 70
     0
  3
Phantom (.5x) ___ _ _ ___ _ _ ___ _ _ ___ _ _
 72
    65
 73
     6
 40
1.25
 49
0.625
 49
-0.125
 49
0.125
 49
-0.125
 49
0.125
 49
-0.125
  0
ENDTAB
  0
TABLE
  2
LAYER
 70
     5
  0
LAYER
  2
0
 70
     0
 62
     7
  6
CONTINUOUS
  0
LAYER
  2
1
 70
     0
 62
     1
  6
CENTER
  0
LAYER
  2
2
 70
     0
 62
     2
  6
HIDDEN
  0
LAYER
  2
3
 70
     0
 62
     3
  6
CONTINUOUS
  0
LAYER
  2
5
 70
     0
 62
     3
  6
PHANTOM2
  0
ENDTAB
  0
TABLE
  2
STYLE
 70
     2
  0
STYLE
  2
STANDARD
 70
     0
 40
0.0
 41
1.0
 50
0.0
 71
     0
 42
0.2
  3
TXT
  4
BIGFONT
  0
STYLE
  2
STANDARD1
 70
     0
 40
0.0
 41
1.0
 50
0.0
 71
     0
 42
3.0
  3
txt
  4

  0
ENDTAB
  0
TABLE
  2
VIEW
 70
     0
  0
ENDTAB
  0
TABLE
  2
UCS
 70
     0
  0
ENDTAB
  0
TABLE
  2
APPID
 70
     3
  0
APPID
  2
ACAD
 70
     0
  0
APPID
  2
ACAD_MLEADERVER
 70
     0
  0
APPID
  2
ACAD_NAV_VCDISPLAY
 70
     0
  0
ENDTAB
  0
TABLE
  2
DIMSTYLE
 70
     1
  0
DIMSTYLE
  2
STANDARD
 70
     0
  3

  4

  5

  6

  7

 40
1.0
 41
0.18
 42
0.0625
 43
0.38
 44
0.18
 45
0.0
 46
0.0
 47
0.0
 48
0.0
140
0.18
141
0.09
142
0.0
143
25.399999999999999
144
1.0
145
0.0
146
1.0
147
0.09
 71
     0
 72
     0
 73
     1
 74
     1
 75
     0
 76
     0
 77
     0
 78
     0
170
     0
171
     2
172
     0
173
     0
174
     0
175
     0
176
     0
177
     0
178
     0
  0
ENDTAB
  0
ENDSEC
  0
SECTION
  2
BLOCKS
  0
BLOCK
  8
0
  2
$MODEL_SPACE
 70
     0
 10
0.0
 20
0.0
 30
0.0
  3
$MODEL_SPACE
  1

  0
ENDBLK
  5
9
  8
0
  0
BLOCK
 67
     1
  8
0
  2
$PAPER_SPACE
 70
     0
 10
0.0
 20
0.0
 30
0.0
  3
$PAPER_SPACE
  1

  0
ENDBLK
  5
E
 67
     1
  8
0
  0
ENDSEC
  0
SECTION
  2
ENTITIES
  0
LINE
  5
107
  8
2
 10
54.869484719799992
 20
107.5
 30
0.0
 11
54.869484719799992
 21
92.5
 31
0.0
  0
LINE
  5
10D
  8
2
 10
54.869484719799992
 20
107.5
 30
0.0
 11
55.369484719799992
 21
108.0
 31
0.0
  0
LINE
  5
10F
  8
2
 10
54.869484719799992
 20
107.5
 30
0.0
 11
29.869484719799981
 21
107.5
 31
0.0
  0
ARC
  5
AD8
  8
0
 10
30.369484719799988
 20
76.0
 30
0.0
 40
1.0
 50
180.0
 51
270.0
  0
ARC
  5
ADA
  8
0
 10
54.369484719799992
 20
124.0
 30
0.0
 40
1.0
 50
0.0
 51
90.0
  0
LINE
  5
ADB
  8
0
 10
55.369484719799992
 20
124.0
 30
0.0
 11
55.369484719799992
 21
76.0
 31
0.0
  0
LINE
  5
ADD
  8
0
 10
54.369484719799992
 20
75.0
 30
0.0
 11
30.369484719799988
 21
75.0
 31
0.0
  0
ARC
  5
ADF
  8
0
 10
54.369484719799992
 20
76.0
 30
0.0
 40
1.0
 50
270.0
 51
0.0
  0
ARC
  5
AE1
  8
0
 10
30.369484719799988
 20
124.0
 30
0.0
 40
1.0
 50
90.0
 51
180.0
  0
LINE
  5
AE2
  8
0
 10
29.369484719799988
 20
76.0
 30
0.0
 11
29.369484719799988
 21
124.0
 31
0.0
  0
CIRCLE
  5
AE9
  8
0
 10
42.369484719799992
 20
110.0
 30
0.0
 40
2.8999999999999999
  0
CIRCLE
  5
AEA
  8
0
 10
42.369484719799992
 20
90.0
 30
0.0
 40
2.8999999999999999
  0
LINE
  5
AEC
  8
0
 10
30.369484719799988
 20
80.0
 30
0.0
 11
54.369484719799992
 21
80.0
 31
0.0
  0
LINE
  5
AEE
  8
0
 10
30.369484719799988
 20
125.0
 30
0.0
 11
54.369484719799992
 21
125.0
 31
0.0
  0
LINE
  5
AF0
  8
0
 10
54.369484719799992
 20
120.0
 30
0.0
 11
30.369484719799988
 21
120.0
 31
0.0
  0
LINE
  5
AF2
  8
0
 10
41.066961032499989
 20
89.378095363200003
 30
0.0
 11
42.256808090399993
 21
88.561029079300013
 31
0.0
  0
LINE
  5
AF3
  8
0
 10
42.482161349299979
 20
91.438970920700001
 30
0.0
 11
43.67200840709998
 21
90.621904636800025
 31
0.0
  0
LINE
  5
AF4
  8
0
 10
41.179637661899989
 20
90.817066283799988
 30
0.0
 11
42.482161349299979
 21
91.438970920700001
 31
0.0
  0
CIRCLE
  5
AF5
  8
3
 10
42.369484719799992
 20
90.0
 30
0.0
 40
2.0
  0
LINE
  5
AF6
  8
0
 10
43.559331777699981
 20
89.18293371610001
 30
0.0
 11
43.67200840709998
 21
90.621904636800025
 31
0.0
  0
LINE
  5
AF7
  8
0
 10
43.559331777699981
 20
89.18293371610001
 30
0.0
 11
42.256808090399993
 21
88.561029079300013
 31
0.0
  0
LINE
  5
AF8
  8
0
 10
41.179637661899989
 20
90.817066283799988
 30
0.0
 11
41.066961032499989
 21
89.378095363200003
 31
0.0
  0
LINE
  5
AF9
  8
0
 10
41.208904679299977
 20
109.14186988
 30
0.0
 11
42.532357183199991
 21
108.5658431418
 31
0.0
  0
LINE
  5
AFA
  8
0
 10
42.206612256399978
 20
111.4341568582
 30
0.0
 11
43.530064760399988
 21
110.85813012
 31
0.0
  0
LINE
  5
AFB
  8
0
 10
41.046032215899992
 20
110.5760267382
 30
0.0
 11
42.206612256399978
 21
111.4341568582
 31
0.0
  0
CIRCLE
  5
AFC
  8
3
 10
42.369484719799992
 20
110.0
 30
0.0
 40
2.0
  0
LINE
  5
AFD
  8
0
 10
43.692937223699978
 20
109.4239732617
 30
0.0
 11
43.530064760399988
 21
110.85813012
 31
0.0
  0
LINE
  5
AFE
  8
0
 10
43.692937223699978
 20
109.4239732617
 30
0.0
 11
42.532357183199991
 21
108.5658431418
 31
0.0
  0
LINE
  5
AFF
  8
0
 10
41.046032215899992
 20
110.5760267382
 30
0.0
 11
41.208904679299977
 21
109.14186988
 31
0.0
  0
ARC
  5
B04
  8
0
 10
80.999999999999986
 20
53.411905273200013
 30
0.0
 40
1.0
 50
90.0
 51
180.0
  0
CIRCLE
  5
B09
  8
0
 10
89.999999999999986
 20
41.411905273199999
 30
0.0
 40
2.8999999999999999
  0
CIRCLE
  5
B0A
  8
0
 10
110.0
 20
41.411905273199999
 30
0.0
 40
2.8999999999999999
  0
ARC
  5
B0D
  8
0
 10
134.0
 20
29.411905273200009
 30
0.0
 40
1.0
 50
270.0
 51
0.0
  0
LINE
  5
B0F
  8
0
 10
134.0
 20
28.411905273200009
 30
0.0
 11
80.999999999999986
 21
28.411905273200009
 31
0.0
  0
ARC
  5
B11
  8
0
 10
80.999999999999986
 20
29.411905273200009
 30
0.0
 40
1.0
 50
180.0
 51
270.0
  0
LINE
  5
B13
  8
0
 10
79.999999999999986
 20
29.411905273200009
 30
0.0
 11
79.999999999999986
 21
53.411905273200013
 31
0.0
  0
LINE
  5
B15
  8
3
 10
84.999999999999986
 20
53.411905273200013
 30
0.0
 11
84.999999999999986
 21
29.411905273200009
 31
0.0
  0
LINE
  5
B17
  8
3
 10
130.0
 20
29.411905273200009
 30
0.0
 11
130.0
 21
53.411905273200013
 31
0.0
  0
LINE
  5
B19
  8
0
 10
135.0
 20
53.411905273200013
 30
0.0
 11
135.0
 21
29.411905273200009
 31
0.0
  0
ARC
  5
B1C
  8
0
 10
134.0
 20
53.411905273200013
 30
0.0
 40
1.0
 50
0.0
 51
90.0
  0
LINE
  5
B1D
  8
0
 10
80.999999999999986
 20
54.411905273199999
 30
0.0
 11
134.0
 21
54.411905273199999
 31
0.0
  0
LINE
  5
B22
  8
0
 10
165.4449309821
 20
46.911905273199999
 30
0.0
 11
165.4449309821
 21
35.911905273200013
 31
0.0
  0
LINE
  5
B23
  8
0
 10
135.0
 20
47.911905273199999
 30
0.0
 11
172.92876141409999
 21
47.911905273199999
 31
0.0
  0
POLYLINE
  5
B24
  8
0
 66
     1
 10
0.0
 20
0.0
 30
0.0
 70
   128
  0
VERTEX
  5
F5D
  8
0
 10
165.4449309821
 20
46.911905273199999
 30
0.0
  0
VERTEX
  5
F5E
  8
0
 10
165.45831914699991
 20
47.106995595199997
 30
0.0
  0
VERTEX
  5
F5F
  8
0
 10
165.49796914229989
 20
47.294588705599992
 30
0.0
  0
VERTEX
  5
F60
  8
0
 10
165.56235724070001
 20
47.467475506200003
 30
0.0
  0
VERTEX
  5
F61
  8
0
 10
165.64900904390001
 20
47.619012054400002
 30
0.0
  0
VERTEX
  5
F62
  8
0
 10
165.75459457150001
 20
47.743374885500003
 30
0.0
  0
VERTEX
  5
F63
  8
0
 10
165.875056231
 20
47.835784805700001
 30
0.0
  0
VERTEX
  5
F64
  8
0
 10
166.0057647482999
 20
47.892690553600012
 30
0.0
  0
VERTEX
  5
F65
  8
0
 10
166.14169706850001
 20
47.911905273199999
 30
0.0
  0
SEQEND
  5
F66
  8
0
  0
LINE
  5
B25
  8
0
 10
172.92876141409999
 20
34.911905273200013
 30
0.0
 11
135.0
 21
34.911905273200013
 31
0.0
  0
POLYLINE
  5
B26
  8
0
 66
     1
 10
0.0
 20
0.0
 30
0.0
 70
   128
  0
VERTEX
  5
F67
  8
0
 10
166.14169706850001
 20
34.911905273200013
 30
0.0
  0
VERTEX
  5
F68
  8
0
 10
166.0057647482999
 20
34.931119992800006
 30
0.0
  0
VERTEX
  5
F69
  8
0
 10
165.875056231
 20
34.988025740700003
 30
0.0
  0
VERTEX
  5
F6A
  8
0
 10
165.75459457150001
 20
35.080435660900008
 30
0.0
  0
VERTEX
  5
F6B
  8
0
 10
165.64900904390001
 20
35.204798492000002
 30
0.0
  0
VERTEX
  5
F6C
  8
0
 10
165.56235724070001
 20
35.356335040200001
 30
0.0
  0
VERTEX
  5
F6D
  8
0
 10
165.49796914229989
 20
35.529221840900007
 30
0.0
  0
VERTEX
  5
F6E
  8
0
 10
165.45831914699991
 20
35.716814951200007
 30
0.0
  0
VERTEX
  5
F6F
  8
0
 10
165.4449309821
 20
35.911905273200013
 30
0.0
  0
SEQEND
  5
F70
  8
0
  0
LINE
  5
B27
  8
0
 10
161.84116215450001
 20
35.911905273200013
 30
0.0
 11
161.84116215450001
 21
46.911905273199999
 31
0.0
  0
POLYLINE
  5
B29
  8
0
 66
     1
 10
0.0
 20
0.0
 30
0.0
 70
   128
  0
VERTEX
  5
F71
  8
0
 10
161.81717447540001
 20
34.911905273200013
 30
0.0
  0
VERTEX
  5
F72
  8
0
 10
161.82185423940001
 20
34.931119992800006
 30
0.0
  0
VERTEX
  5
F73
  8
0
 10
161.82635416269989
 20
34.988025740700003
 30
0.0
  0
VERTEX
  5
F74
  8
0
 10
161.83050131580001
 20
35.080435660900008
 30
0.0
  0
VERTEX
  5
F75
  8
0
 10
161.8341363259
 20
35.204798492000002
 30
0.0
  0
VERTEX
  5
F76
  8
0
 10
161.8371195016
 20
35.356335040200001
 30
0.0
  0
VERTEX
  5
F77
  8
0
 10
161.8393362011
 20
35.529221840900007
 30
0.0
  0
VERTEX
  5
F78
  8
0
 10
161.84070123789999
 20
35.716814951200007
 30
0.0
  0
VERTEX
  5
F79
  8
0
 10
161.84116215450001
 20
35.911905273200013
 30
0.0
  0
SEQEND
  5
F7A
  8
0
  0
POLYLINE
  5
B2B
  8
0
 66
     1
 10
0.0
 20
0.0
 30
0.0
 70
   128
  0
VERTEX
  5
F7B
  8
0
 10
161.84116215450001
 20
46.911905273199999
 30
0.0
  0
VERTEX
  5
F7C
  8
0
 10
161.84070123789999
 20
47.106995595199997
 30
0.0
  0
VERTEX
  5
F7D
  8
0
 10
161.8393362011
 20
47.294588705599992
 30
0.0
  0
VERTEX
  5
F7E
  8
0
 10
161.8371195016
 20
47.467475506200003
 30
0.0
  0
VERTEX
  5
F7F
  8
0
 10
161.8341363259
 20
47.619012054400002
 30
0.0
  0
VERTEX
  5
F80
  8
0
 10
161.83050131580001
 20
47.743374885500003
 30
0.0
  0
VERTEX
  5
F81
  8
0
 10
161.82635416269989
 20
47.835784805700001
 30
0.0
  0
VERTEX
  5
F82
  8
0
 10
161.82185423940001
 20
47.892690553600012
 30
0.0
  0
VERTEX
  5
F83
  8
0
 10
161.81717447540001
 20
47.911905273199999
 30
0.0
  0
SEQEND
  5
F84
  8
0
  0
LINE
  5
B2C
  8
0
 10
91.397362221099996
 20
41.773446634799988
 30
0.0
 11
90.385577106899973
 21
42.802827135800001
 31
0.0
  0
CIRCLE
  5
B2D
  8
3
 10
89.999999999999986
 20
41.411905273199999
 30
0.0
 40
2.0
  0
LINE
  5
B2E
  8
0
 10
91.011785114199981
 20
40.3825247722
 30
0.0
 11
89.614422892999983
 21
40.020983410599989
 31
0.0
  0
LINE
  5
B2F
  8
0
 10
89.614422892999983
 20
40.020983410599989
 30
0.0
 11
88.602637778799973
 21
41.050363911600002
 31
0.0
  0
LINE
  5
B30
  8
0
 10
88.988214885699975
 20
42.44128577419999
 30
0.0
 11
88.602637778799973
 21
41.050363911600002
 31
0.0
  0
LINE
  5
B31
  8
0
 10
88.988214885699975
 20
42.44128577419999
 30
0.0
 11
90.385577106899973
 21
42.802827135800001
 31
0.0
  0
LINE
  5
B32
  8
0
 10
91.011785114199981
 20
40.3825247722
 30
0.0
 11
91.397362221099996
 21
41.773446634799988
 31
0.0
  0
LINE
  5
B33
  8
0
 10
111.4411843124
 20
41.491410686799988
 30
0.0
 11
110.65173844829999
 21
42.69976020619999
 31
0.0
  0
CIRCLE
  5
B34
  8
3
 10
110.0
 20
41.411905273199999
 30
0.0
 40
2.0
  0
LINE
  5
B35
  8
0
 10
110.7894458641
 20
40.203555753899991
 30
0.0
 11
109.3482615516
 21
40.124050340300002
 31
0.0
  0
LINE
  5
B36
  8
0
 10
109.3482615516
 20
40.124050340300002
 30
0.0
 11
108.5588156875
 21
41.332399859600002
 31
0.0
  0
LINE
  5
B37
  8
0
 10
109.2105541358
 20
42.620254792600001
 30
0.0
 11
108.5588156875
 21
41.332399859600002
 31
0.0
  0
LINE
  5
B38
  8
0
 10
109.2105541358
 20
42.620254792600001
 30
0.0
 11
110.65173844829999
 21
42.69976020619999
 31
0.0
  0
LINE
  5
B39
  8
0
 10
110.7894458641
 20
40.203555753899991
 30
0.0
 11
111.4411843124
 21
41.491410686799988
 31
0.0
  0
LINE
  5
B3A
  8
0
 10
173.92876141409999
 20
35.911905273200013
 30
0.0
 11
173.92876141409999
 21
46.911905273199999
 31
0.0
  0
ARC
  5
B3B
  8
0
 10
172.92876141409999
 20
46.911905273199999
 30
0.0
 40
1.0
 50
0.0
 51
90.0
  0
ARC
  5
B3C
  8
0
 10
172.92876141409999
 20
35.911905273200013
 30
0.0
 40
1.0
 50
270.0
 51
0.0
  0
LINE
  5
B45
  8
0
 10
204.44827184850001
 20
107.5
 30
0.0
 11
204.44827184850001
 21
106.4621267663
 31
0.0
  0
LINE
  5
B46
  8
0
 10
214.94827184850001
 20
107.5
 30
0.0
 11
214.94827184850001
 21
106.4621267663
 31
0.0
  0
LINE
  5
B4B
  8
0
 10
204.44827184850001
 20
107.5
 30
0.0
 11
202.94827184850001
 21
107.5
 31
0.0
  0
LINE
  5
B4C
  8
0
 10
204.44827184850001
 20
109.0
 30
0.0
 11
204.44827184850001
 21
107.5
 31
0.0
  0
LINE
  5
B4D
  8
0
 10
202.94827184850001
 20
109.0
 30
0.0
 11
204.44827184850001
 21
109.0
 31
0.0
  0
LINE
  5
B4F
  8
0
 10
204.44827184850001
 20
91.077991576299993
 30
0.0
 11
204.44827184850001
 21
91.0
 31
0.0
  0
LINE
  5
B53
  8
0
 10
214.94827184850001
 20
107.5
 30
0.0
 11
214.94827184850001
 21
109.0
 31
0.0
  0
LINE
  5
B54
  8
0
 10
216.44827184850001
 20
107.5
 30
0.0
 11
214.94827184850001
 21
107.5
 31
0.0
  0
LINE
  5
B56
  8
0
 10
214.94827184850001
 20
109.0
 30
0.0
 11
216.44827184850001
 21
109.0
 31
0.0
  0
LINE
  5
B59
  8
0
 10
214.94827184850001
 20
91.0
 30
0.0
 11
214.94827184850001
 21
91.077991576299993
 31
0.0
  0
ARC
  5
B5B
  8
0
 10
197.69827184850001
 20
124.0
 30
0.0
 40
1.0
 50
90.0
 51
180.0
  0
ARC
  5
B5F
  8
0
 10
197.69827184850001
 20
76.0
 30
0.0
 40
1.0
 50
180.0
 51
270.0
  0
LINE
  5
B61
  8
0
 10
196.69827184850001
 20
76.0
 30
0.0
 11
196.69827184850001
 21
124.0
 31
0.0
  0
LINE
  5
B62
  8
0
 10
197.69827184850001
 20
125.0
 30
0.0
 11
221.69827184850001
 21
125.0
 31
0.0
  0
LINE
  5
B64
  8
0
 10
216.44827184850001
 20
118.0
 30
0.0
 11
202.94827184850001
 21
118.0
 31
0.0
  0
LINE
  5
B65
  8
0
 10
216.44827184850001
 20
82.0
 30
0.0
 11
216.44827184850001
 21
118.0
 31
0.0
  0
LINE
  5
B66
  8
0
 10
216.44827184850001
 20
82.0
 30
0.0
 11
202.94827184850001
 21
82.0
 31
0.0
  0
LINE
  5
B67
  8
0
 10
202.94827184850001
 20
82.0
 30
0.0
 11
202.94827184850001
 21
118.0
 31
0.0
  0
LINE
  5
B68
  8
3
 10
221.69827184850001
 20
120.0
 30
0.0
 11
197.69827184850001
 21
120.0
 31
0.0
  0
LINE
  5
B6A
  8
0
 10
221.69827184850001
 20
75.0
 30
0.0
 11
197.69827184850001
 21
75.0
 31
0.0
  0
LINE
  5
B6B
  8
3
 10
197.69827184850001
 20
80.0
 30
0.0
 11
221.69827184850001
 21
80.0
 31
0.0
  0
ARC
  5
B6E
  8
0
 10
221.69827184850001
 20
76.0
 30
0.0
 40
1.0
 50
270.0
 51
0.0
  0
LINE
  5
B6F
  8
0
 10
222.69827184850001
 20
124.0
 30
0.0
 11
222.69827184850001
 21
76.0
 31
0.0
  0
ARC
  5
B71
  8
0
 10
221.69827184850001
 20
124.0
 30
0.0
 40
1.0
 50
0.0
 51
90.0
  0
LINE
  5
B77
  8
0
 10
205.69827184850001
 20
106.4621267663
 30
0.0
 11
205.69827184850001
 21
106.5
 31
0.0
  0
LINE
  5
B78
  8
0
 10
213.69827184850001
 20
106.5
 30
0.0
 11
213.69827184850001
 21
106.4621267663
 31
0.0
  0
LINE
  5
B79
  8
0
 10
206.09966111680001
 20
106.4621267663
 30
0.0
 11
206.19827184850001
 21
106.4523062473
 31
0.0
  0
LINE
  5
B7B
  8
0
 10
204.19827184850001
 20
106.4523062473
 30
0.0
 11
204.19827184850001
 21
106.4621267663
 31
0.0
  0
LINE
  5
B7C
  8
0
 10
215.19827184850001
 20
106.4621267663
 30
0.0
 11
215.19827184850001
 21
106.4523062473
 31
0.0
  0
LINE
  5
B80
  8
0
 10
215.1982718481988
 20
106.4523062473
 30
0.0
 11
204.19827184850001
 21
106.4523062473
 31
0.0
  0
LINE
  5
B84
  8
0
 10
216.19827184850001
 20
105.6058242119
 30
0.0
 11
216.19827184850001
 21
92.077991576299993
 31
0.0
  0
ARC
  5
B85
  8
0
 10
215.2691388895
 20
105.52210472589999
 30
0.0
 40
0.9328971046999999
 50
5.1487298208998311
 51
94.35664088729996
  0
ARC
  5
B87
  8
0
 10
204.12740480759999
 20
105.52210472589999
 30
0.0
 40
0.9328971046999999
 50
85.643359112099873
 51
174.85127017969981
  0
LINE
  5
B8C
  8
0
 10
203.19827184850001
 20
92.077991576299993
 30
0.0
 11
203.19827184850001
 21
105.6058242115154
 31
0.0
  0
LINE
  5
B8E
  8
0
 10
214.69827184850001
 20
91.077991576299993
 30
0.0
 11
214.69827184850001
 21
87.023822281100024
 31
0.0
  0
LINE
  5
B8F
  8
0
 10
204.69827184850001
 20
91.077991576299993
 30
0.0
 11
204.69827184850001
 21
87.023822281100024
 31
0.0
  0
LINE
  5
B90
  8
0
 10
214.69827184850001
 20
112.9761777188
 30
0.0
 11
214.69827184850001
 21
106.4621267663
 31
0.0
  0
LINE
  5
B91
  8
0
 10
204.69827184850001
 20
112.9761777188
 30
0.0
 11
204.69827184850001
 21
106.4621267663
 31
0.0
  0
LINE
  5
B9D
  8
0
 10
204.69827184850001
 20
112.9761777188
 30
0.0
 11
214.69827184850001
 21
112.9761777188
 31
0.0
  0
LINE
  5
BA9
  8
0
 10
204.69827184850001
 20
87.023822281100024
 30
0.0
 11
214.69827184850001
 21
87.023822281100024
 31
0.0
  0
LINE
  5
BAC
  8
0
 10
213.19827184850001
 20
107.0
 30
0.0
 11
206.19827184850001
 21
107.0
 31
0.0
  0
ARC
  5
BAD
  8
0
 10
206.19827184850001
 20
106.5
 30
0.0
 40
0.5
 50
90.0
 51
180.0
  0
ARC
  5
BAE
  8
0
 10
213.19827184850001
 20
106.5
 30
0.0
 40
0.5
 50
0.0
 51
90.0
  0
ARC
  5
BB1
  8
0
 10
204.19827184850001
 20
100.07799157629999
 30
0.0
 40
1.0
 50
90.0
 51
180.0
  0
ARC
  5
BB2
  8
0
 10
204.19827184850001
 20
92.077991576299993
 30
0.0
 40
1.0
 50
180.0
 51
270.0
  0
LINE
  5
BB3
  8
0
 10
204.19827184850001
 20
91.077991576299993
 30
0.0
 11
215.19827184850001
 21
91.077991576299993
 31
0.0
  0
LINE
  5
BB4
  8
0
 10
215.19827184850001
 20
101.07799157629999
 30
0.0
 11
204.19827184850001
 21
101.07799157629999
 31
0.0
  0
ARC
  5
BB5
  8
0
 10
215.19827184850001
 20
92.077991576299993
 30
0.0
 40
1.0
 50
270.0
 51
0.0
  0
ARC
  5
BB6
  8
0
 10
215.19827184850001
 20
100.07799157629999
 30
0.0
 40
1.0
 50
0.0
 51
90.0
  0
ARC
  5
BBF
  8
0
 10
80.999999999999986
 20
145.5009077485
 30
0.0
 40
1.0
 50
180.0
 51
270.0
  0
LINE
  5
BC1
  8
0
 10
134.0
 20
144.5009077485
 30
0.0
 11
80.999999999999986
 21
144.5009077485
 31
0.0
  0
ARC
  5
BC2
  8
0
 10
134.0
 20
145.5009077485
 30
0.0
 40
1.0
 50
270.0
 51
0.0
  0
LINE
  5
BC6
  8
0
 10
135.0
 20
169.5009077485
 30
0.0
 11
135.0
 21
145.5009077485
 31
0.0
  0
ARC
  5
BC8
  8
0
 10
134.0
 20
169.5009077485
 30
0.0
 40
1.0
 50
0.0
 51
90.0
  0
LINE
  5
BC9
  8
0
 10
80.999999999999986
 20
170.5009077485
 30
0.0
 11
134.0
 21
170.5009077485
 31
0.0
  0
LINE
  5
BCB
  8
3
 10
130.0
 20
145.5009077485
 30
0.0
 11
130.0
 21
169.5009077485
 31
0.0
  0
LINE
  5
BD0
  8
3
 10
84.999999999999986
 20
169.5009077485
 30
0.0
 11
84.999999999999986
 21
145.5009077485
 31
0.0
  0
LINE
  5
BD1
  8
0
 10
79.999999999999986
 20
145.5009077485
 30
0.0
 11
79.999999999999986
 21
169.5009077485
 31
0.0
  0
ARC
  5
BD5
  8
0
 10
80.999999999999986
 20
169.5009077485
 30
0.0
 40
1.0
 50
90.0
 51
180.0
  0
LINE
  5
BDB
  8
0
 10
172.92876141409999
 20
151.0009077485
 30
0.0
 11
134.99999999999989
 21
151.0009077485
 31
0.0
  0
POLYLINE
  5
BDC
  8
0
 66
     1
 10
0.0
 20
0.0
 30
0.0
 70
   128
  0
VERTEX
  5
F85
  8
0
 10
166.12064601029999
 20
152.0009077485
 30
0.0
  0
VERTEX
  5
F86
  8
0
 10
166.1314374403
 20
151.80581742640001
 30
0.0
  0
VERTEX
  5
F87
  8
0
 10
166.16339702179999
 20
151.6182243161
 30
0.0
  0
VERTEX
  5
F88
  8
0
 10
166.21529656589999
 20
151.44533751540001
 30
0.0
  0
VERTEX
  5
F89
  8
0
 10
166.2851416021999
 20
151.2938009673
 30
0.0
  0
VERTEX
  5
F8A
  8
0
 10
166.37024802519991
 20
151.1694381362
 30
0.0
  0
VERTEX
  5
F8B
  8
0
 10
166.46734524280001
 20
151.077028216
 30
0.0
  0
VERTEX
  5
F8C
  8
0
 10
166.5727018634
 20
151.0201224681
 30
0.0
  0
VERTEX
  5
F8D
  8
0
 10
166.68226909110001
 20
151.0009077485
 30
0.0
  0
SEQEND
  5
F8E
  8
0
  0
LINE
  5
BDD
  8
0
 10
166.12064601029999
 20
163.0009077485
 30
0.0
 11
166.12064601029999
 21
152.0009077485
 31
0.0
  0
LINE
  5
BDE
  8
0
 10
134.99999999999989
 20
164.00090774849991
 30
0.0
 11
172.92876141409999
 21
164.0009077485
 31
0.0
  0
POLYLINE
  5
BDF
  8
0
 66
     1
 10
0.0
 20
0.0
 30
0.0
 70
   128
  0
VERTEX
  5
F8F
  8
0
 10
166.68226909110001
 20
164.0009077485
 30
0.0
  0
VERTEX
  5
F90
  8
0
 10
166.5727018634
 20
163.9816930289
 30
0.0
  0
VERTEX
  5
F91
  8
0
 10
166.46734524280001
 20
163.92478728099999
 30
0.0
  0
VERTEX
  5
F92
  8
0
 10
166.37024802519991
 20
163.8323773608
 30
0.0
  0
VERTEX
  5
F93
  8
0
 10
166.2851416021999
 20
163.70801452969999
 30
0.0
  0
VERTEX
  5
F94
  8
0
 10
166.21529656589999
 20
163.5564779815
 30
0.0
  0
VERTEX
  5
F95
  8
0
 10
166.16339702179999
 20
163.38359118080001
 30
0.0
  0
VERTEX
  5
F96
  8
0
 10
166.1314374403
 20
163.1959980705
 30
0.0
  0
VERTEX
  5
F97
  8
0
 10
166.12064601029999
 20
163.0009077485
 30
0.0
  0
SEQEND
  5
F98
  8
0
  0
POLYLINE
  5
BE1
  8
0
 66
     1
 10
0.0
 20
0.0
 30
0.0
 70
   128
  0
VERTEX
  5
F99
  8
0
 10
162.32642328899999
 20
152.0009077485
 30
0.0
  0
VERTEX
  5
F9A
  8
0
 10
162.32263373390001
 20
151.80581742640001
 30
0.0
  0
VERTEX
  5
F9B
  8
0
 10
162.31141069899999
 20
151.6182243161
 30
0.0
  0
VERTEX
  5
F9C
  8
0
 10
162.29318547930001
 20
151.44533751540001
 30
0.0
  0
VERTEX
  5
F9D
  8
0
 10
162.26865845980001
 20
151.2938009673
 30
0.0
  0
VERTEX
  5
F9E
  8
0
 10
162.2387722
 20
151.1694381362
 30
0.0
  0
VERTEX
  5
F9F
  8
0
 10
162.2046752121
 20
151.077028216
 30
0.0
  0
VERTEX
  5
FA0
  8
0
 10
162.1676778243
 20
151.0201224681
 30
0.0
  0
VERTEX
  5
FA1
  8
0
 10
162.12920182549999
 20
151.0009077485
 30
0.0
  0
SEQEND
  5
FA2
  8
0
  0
POLYLINE
  5
BE3
  8
0
 66
     1
 10
0.0
 20
0.0
 30
0.0
 70
   128
  0
VERTEX
  5
FA3
  8
0
 10
162.12920182549999
 20
164.0009077485
 30
0.0
  0
VERTEX
  5
FA4
  8
0
 10
162.1676778243
 20
163.9816930289
 30
0.0
  0
VERTEX
  5
FA5
  8
0
 10
162.2046752121
 20
163.92478728099999
 30
0.0
  0
VERTEX
  5
FA6
  8
0
 10
162.2387722
 20
163.8323773608
 30
0.0
  0
VERTEX
  5
FA7
  8
0
 10
162.26865845980001
 20
163.70801452969999
 30
0.0
  0
VERTEX
  5
FA8
  8
0
 10
162.29318547930001
 20
163.5564779815
 30
0.0
  0
VERTEX
  5
FA9
  8
0
 10
162.31141069899999
 20
163.38359118080001
 30
0.0
  0
VERTEX
  5
FAA
  8
0
 10
162.32263373390001
 20
163.1959980705
 30
0.0
  0
VERTEX
  5
FAB
  8
0
 10
162.32642328899999
 20
163.0009077485
 30
0.0
  0
SEQEND
  5
FAC
  8
0
  0
LINE
  5
BE4
  8
0
 10
162.32642328899999
 20
152.0009077485
 30
0.0
 11
162.32642328899999
 21
163.0009077485
 31
0.0
  0
ARC
  5
BE5
  8
0
 10
172.92876141409999
 20
152.0009077485
 30
0.0
 40
1.0
 50
270.0
 51
0.0
  0
LINE
  5
BE6
  8
0
 10
173.92876141409999
 20
152.0009077485
 30
0.0
 11
173.92876141409999
 21
163.0009077485
 31
0.0
  0
ARC
  5
BE7
  8
0
 10
172.92876141409999
 20
163.0009077485
 30
0.0
 40
1.0
 50
0.0
 51
90.0
  0
LINE
  5
BEA
  8
2
 10
89.999999999999986
 20
92.099999999999994
 30
0.0
 11
80.799999999999983
 21
92.099999999999994
 31
0.0
  0
LINE
  5
BEB
  8
2
 10
80.799999999999983
 20
87.900000000000006
 30
0.0
 11
89.999999999999986
 21
87.900000000000006
 31
0.0
  0
LINE
  5
BEC
  8
2
 10
107.90000000000001
 20
85.0
 30
0.0
 11
107.90000000000001
 21
75.799999999999997
 31
0.0
  0
LINE
  5
BED
  8
2
 10
112.09999999999999
 20
75.799999999999997
 30
0.0
 11
112.09999999999999
 21
85.0
 31
0.0
  0
LINE
  5
BEE
  8
2
 10
87.899999999999991
 20
85.0
 30
0.0
 11
87.899999999999991
 21
75.799999999999997
 31
0.0
  0
LINE
  5
BEF
  8
2
 10
92.099999999999994
 20
75.799999999999997
 30
0.0
 11
92.099999999999994
 21
85.0
 31
0.0
  0
LINE
  5
BF0
  8
2
 10
89.999999999999986
 20
112.09999999999999
 30
0.0
 11
80.799999999999983
 21
112.09999999999999
 31
0.0
  0
LINE
  5
BF1
  8
2
 10
80.799999999999983
 20
107.90000000000001
 30
0.0
 11
89.999999999999986
 21
107.90000000000001
 31
0.0
  0
LINE
  5
BF2
  8
2
 10
80.799999999999983
 20
112.09999999999999
 30
0.0
 11
79.999999999999986
 21
112.90000000000001
 31
0.0
  0
LINE
  5
BF3
  8
2
 10
79.999999999999986
 20
107.09999999999999
 30
0.0
 11
80.799999999999983
 21
107.90000000000001
 31
0.0
  0
LINE
  5
BF4
  8
2
 10
80.799999999999983
 20
92.099999999999994
 30
0.0
 11
79.999999999999986
 21
92.900000000000006
 31
0.0
  0
LINE
  5
BF5
  8
2
 10
79.999999999999986
 20
87.099999999999994
 30
0.0
 11
80.799999999999983
 21
87.900000000000006
 31
0.0
  0
LINE
  5
BF6
  8
2
 10
87.899999999999991
 20
75.799999999999997
 30
0.0
 11
87.099999999999994
 21
75.0
 31
0.0
  0
LINE
  5
BF7
  8
2
 10
92.899999999999991
 20
75.0
 30
0.0
 11
92.099999999999994
 21
75.799999999999997
 31
0.0
  0
LINE
  5
BF8
  8
2
 10
107.90000000000001
 20
75.799999999999997
 30
0.0
 11
107.09999999999999
 21
75.0
 31
0.0
  0
LINE
  5
BF9
  8
2
 10
112.90000000000001
 20
75.0
 30
0.0
 11
112.09999999999999
 21
75.799999999999997
 31
0.0
  0
LINE
  5
BFE
  8
2
 10
87.999999999999986
 20
92.0
 30
0.0
 11
87.499999999999986
 21
92.5
 31
0.0
  0
LINE
  5
BFF
  8
2
 10
87.499999999999986
 20
87.5
 30
0.0
 11
87.999999999999986
 21
88.0
 31
0.0
  0
LINE
  5
C00
  8
2
 10
79.999999999999986
 20
88.0
 30
0.0
 11
80.499999999999986
 21
87.5
 31
0.0
  0
LINE
  5
C01
  8
2
 10
80.499999999999986
 20
92.5
 30
0.0
 11
79.999999999999986
 21
92.0
 31
0.0
  0
LINE
  5
C02
  8
2
 10
87.499999999999986
 20
92.5
 30
0.0
 11
80.499999999999986
 21
92.5
 31
0.0
  0
LINE
  5
C03
  8
2
 10
80.499999999999986
 20
87.5
 30
0.0
 11
87.499999999999986
 21
87.5
 31
0.0
  0
LINE
  5
C04
  8
2
 10
91.999999999999986
 20
75.0
 30
0.0
 11
92.499999999999986
 21
75.5
 31
0.0
  0
LINE
  5
C05
  8
2
 10
87.499999999999986
 20
75.5
 30
0.0
 11
87.999999999999986
 21
75.0
 31
0.0
  0
LINE
  5
C06
  8
2
 10
87.999999999999986
 20
83.0
 30
0.0
 11
87.499999999999986
 21
82.5
 31
0.0
  0
LINE
  5
C07
  8
2
 10
92.499999999999986
 20
82.5
 30
0.0
 11
91.999999999999986
 21
83.0
 31
0.0
  0
LINE
  5
C08
  8
2
 10
87.499999999999986
 20
82.5
 30
0.0
 11
87.499999999999986
 21
75.5
 31
0.0
  0
LINE
  5
C09
  8
2
 10
92.499999999999986
 20
75.5
 30
0.0
 11
92.499999999999986
 21
82.5
 31
0.0
  0
LINE
  5
C0A
  8
2
 10
112.0
 20
75.0
 30
0.0
 11
112.5
 21
75.5
 31
0.0
  0
LINE
  5
C0B
  8
2
 10
107.5
 20
75.5
 30
0.0
 11
108.0
 21
75.0
 31
0.0
  0
LINE
  5
C0C
  8
2
 10
108.0
 20
83.0
 30
0.0
 11
107.5
 21
82.5
 31
0.0
  0
LINE
  5
C0D
  8
2
 10
112.5
 20
82.5
 30
0.0
 11
112.0
 21
83.0
 31
0.0
  0
LINE
  5
C0E
  8
2
 10
107.5
 20
82.5
 30
0.0
 11
107.5
 21
75.5
 31
0.0
  0
LINE
  5
C0F
  8
2
 10
112.5
 20
75.5
 30
0.0
 11
112.5
 21
82.5
 31
0.0
  0
LINE
  5
C10
  8
2
 10
87.999999999999986
 20
112.0
 30
0.0
 11
87.499999999999986
 21
112.5
 31
0.0
  0
LINE
  5
C11
  8
2
 10
87.499999999999986
 20
107.5
 30
0.0
 11
87.999999999999986
 21
108.0
 31
0.0
  0
LINE
  5
C12
  8
2
 10
79.999999999999986
 20
108.0
 30
0.0
 11
80.499999999999986
 21
107.5
 31
0.0
  0
LINE
  5
C13
  8
2
 10
80.499999999999986
 20
112.5
 30
0.0
 11
79.999999999999986
 21
112.0
 31
0.0
  0
LINE
  5
C14
  8
2
 10
87.499999999999986
 20
112.5
 30
0.0
 11
80.499999999999986
 21
112.5
 31
0.0
  0
LINE
  5
C15
  8
2
 10
80.499999999999986
 20
107.5
 30
0.0
 11
87.499999999999986
 21
107.5
 31
0.0
  0
LINE
  5
C16
  8
0
 10
134.0
 20
120.0
 30
0.0
 11
134.0
 21
80.0
 31
0.0
  0
LINE
  5
C19
  8
0
 10
84.999999999999986
 20
124.0
 30
0.0
 11
130.0
 21
124.0
 31
0.0
  0
LINE
  5
C1A
  8
0
 10
80.999999999999986
 20
80.0
 30
0.0
 11
80.999999999999986
 21
120.0
 31
0.0
  0
LINE
  5
C22
  8
0
 10
130.0
 20
76.0
 30
0.0
 11
84.999999999999986
 21
76.0
 31
0.0
  0
LINE
  5
C26
  8
2
 10
89.999999999999986
 20
87.900000000000006
 30
0.0
 11
89.999999999999986
 21
90.0
 31
0.0
  0
LINE
  5
C27
  8
2
 10
89.999999999999986
 20
90.0
 30
0.0
 11
89.999999999999986
 21
92.099999999999994
 31
0.0
  0
LINE
  5
C28
  8
2
 10
112.09999999999999
 20
85.0
 30
0.0
 11
110.0
 21
85.0
 31
0.0
  0
LINE
  5
C29
  8
2
 10
110.0
 20
85.0
 30
0.0
 11
107.90000000000001
 21
85.0
 31
0.0
  0
LINE
  5
C2A
  8
2
 10
92.099999999999994
 20
85.0
 30
0.0
 11
87.899999999999991
 21
85.0
 31
0.0
  0
LINE
  5
C2B
  8
2
 10
89.999999999999986
 20
107.90000000000001
 30
0.0
 11
89.999999999999986
 21
112.09999999999999
 31
0.0
  0
LINE
  5
C2C
  8
2
 10
80.799999999999983
 20
107.90000000000001
 30
0.0
 11
80.799999999999983
 21
112.09999999999999
 31
0.0
  0
LINE
  5
C2D
  8
2
 10
80.799999999999983
 20
87.900000000000006
 30
0.0
 11
80.799999999999983
 21
92.099999999999994
 31
0.0
  0
LINE
  5
C2E
  8
2
 10
92.099999999999994
 20
75.799999999999997
 30
0.0
 11
89.999999999999986
 21
75.799999999999997
 31
0.0
  0
LINE
  5
C2F
  8
2
 10
89.999999999999986
 20
75.799999999999997
 30
0.0
 11
87.899999999999991
 21
75.799999999999997
 31
0.0
  0
LINE
  5
C31
  8
2
 10
110.0
 20
75.799999999999997
 30
0.0
 11
107.90000000000001
 21
75.799999999999997
 31
0.0
  0
LINE
  5
CCD
  8
2
 10
87.999999999999986
 20
88.0
 30
0.0
 11
87.999999999999986
 21
91.648700446000007
 31
0.0
  0
LINE
  5
CCE
  8
2
 10
87.999999999999986
 20
91.648700446000007
 30
0.0
 11
87.999999999999986
 21
92.0
 31
0.0
  0
LINE
  5
CCF
  8
2
 10
80.499999999999986
 20
92.5
 30
0.0
 11
80.499999999999986
 21
87.5
 31
0.0
  0
LINE
  5
CD0
  8
2
 10
87.499999999999986
 20
87.5
 30
0.0
 11
87.499999999999986
 21
92.060875557499998
 31
0.0
  0
LINE
  5
CD1
  8
2
 10
87.499999999999986
 20
92.060875557499998
 30
0.0
 11
87.499999999999986
 21
92.5
 31
0.0
  0
LINE
  5
CDB
  8
2
 10
91.999999999999986
 20
83.0
 30
0.0
 11
87.999999999999986
 21
83.0
 31
0.0
  0
LINE
  5
CDC
  8
2
 10
87.499999999999986
 20
75.5
 30
0.0
 11
91.782939328099985
 21
75.5
 31
0.0
  0
LINE
  5
CDD
  8
2
 10
91.782939328099985
 20
75.5
 30
0.0
 11
92.499999999999986
 21
75.5
 31
0.0
  0
LINE
  5
CDE
  8
2
 10
92.499999999999986
 20
82.5
 30
0.0
 11
87.499999999999986
 21
82.5
 31
0.0
  0
LINE
  5
CE8
  8
2
 10
112.0
 20
83.0
 30
0.0
 11
108.0
 21
83.0
 31
0.0
  0
LINE
  5
CE9
  8
2
 10
107.5
 20
75.5
 30
0.0
 11
112.09292276079999
 21
75.5
 31
0.0
  0
LINE
  5
CEA
  8
2
 10
112.09292276079999
 20
75.5
 30
0.0
 11
112.5
 21
75.5
 31
0.0
  0
LINE
  5
CEB
  8
2
 10
112.5
 20
82.5
 30
0.0
 11
107.5
 21
82.5
 31
0.0
  0
LINE
  5
CF5
  8
2
 10
87.999999999999986
 20
108.0
 30
0.0
 11
87.999999999999986
 21
111.8338295826
 31
0.0
  0
LINE
  5
CF6
  8
2
 10
87.999999999999986
 20
111.8338295826
 30
0.0
 11
87.999999999999986
 21
112.0
 31
0.0
  0
LINE
  5
CF7
  8
2
 10
80.499999999999986
 20
112.5
 30
0.0
 11
80.499999999999986
 21
107.5
 31
0.0
  0
LINE
  5
CF8
  8
2
 10
87.499999999999986
 20
107.5
 30
0.0
 11
87.499999999999986
 21
112.2922869782
 31
0.0
  0
LINE
  5
CF9
  8
2
 10
87.499999999999986
 20
112.2922869782
 30
0.0
 11
87.499999999999986
 21
112.5
 31
0.0
  0
LINE
  5
D10
  8
3
 10
162.12920182549999
 20
98.469769851400017
 30
0.0
 11
135.0
 21
103.92742474649999
 31
0.0
  0
LINE
  5
D11
  8
3
 10
135.0
 20
94.259813988100007
 30
0.0
 11
161.81717447540001
 21
94.903280919100013
 31
0.0
  0
CIRCLE
  5
D12
  8
0
 10
100.0
 20
117.5
 30
0.0
 40
2.75
  0
CIRCLE
  5
D13
  8
0
 10
100.0
 20
82.5
 30
0.0
 40
2.75
  0
LINE
  5
D14
  8
0
 10
135.0
 20
120.0
 30
0.0
 11
135.0
 21
80.0
 31
0.0
  0
ARC
  5
D16
  8
0
 10
130.0
 20
120.0
 30
0.0
 40
5.0
 50
0.0
 51
90.0
  0
CIRCLE
  5
D17
  8
0
 10
124.09999999999999
 20
100.0
 30
0.0
 40
2.5
  0
ARC
  5
D18
  8
0
 10
130.0
 20
80.0
 30
0.0
 40
5.0
 50
270.0
 51
0.0
  0
CIRCLE
  5
D1A
  8
0
 10
100.0
 20
100.0
 30
0.0
 40
7.5
  0
CIRCLE
  5
D1B
  8
0
 10
100.0
 20
82.5
 30
0.0
 40
4.75
  0
CIRCLE
  5
D2A
  8
0
 10
100.0
 20
117.5
 30
0.0
 40
4.75
  0
LINE
  5
D2B
  8
0
 10
130.0
 20
75.0
 30
0.0
 11
84.999999999999986
 21
75.0
 31
0.0
  0
LINE
  5
D2E
  8
0
 10
84.999999999999986
 20
125.0
 30
0.0
 11
130.0
 21
125.0
 31
0.0
  0
LINE
  5
D2F
  8
0
 10
79.999999999999986
 20
80.0
 30
0.0
 11
79.999999999999986
 21
120.0
 31
0.0
  0
ARC
  5
D31
  8
0
 10
84.999999999999986
 20
120.0
 30
0.0
 40
5.0
 50
90.0
 51
180.0
  0
CIRCLE
  5
D33
  8
0
 10
100.0
 20
82.5
 30
0.0
 40
5.25
  0
CIRCLE
  5
D34
  8
0
 10
100.0
 20
117.5
 30
0.0
 40
5.25
  0
CIRCLE
  5
D3D
  8
0
 10
100.0
 20
100.0
 30
0.0
 40
8.0
  0
CIRCLE
  5
D3E
  8
0
 10
124.09999999999999
 20
100.0
 30
0.0
 40
3.0
  0
LINE
  5
D3F
  8
3
 10
84.999999999999986
 20
76.0
 30
0.0
 11
130.0
 21
76.0
 31
0.0
  0
ARC
  5
D40
  8
3
 10
130.0
 20
80.0
 30
0.0
 40
4.0
 50
270.0
 51
0.0
  0
LINE
  5
D41
  8
3
 10
134.0
 20
80.0
 30
0.0
 11
134.0
 21
120.0
 31
0.0
  0
ARC
  5
D42
  8
3
 10
130.0
 20
120.0
 30
0.0
 40
4.0
 50
0.0
 51
90.0
  0
LINE
  5
D43
  8
3
 10
130.0
 20
124.0
 30
0.0
 11
84.999999999999986
 21
124.0
 31
0.0
  0
ARC
  5
D44
  8
3
 10
84.999999999999986
 20
120.0
 30
0.0
 40
4.0
 50
90.0
 51
180.0
  0
LINE
  5
D45
  8
3
 10
80.999999999999986
 20
120.0
 30
0.0
 11
80.999999999999986
 21
80.0
 31
0.0
  0
ARC
  5
D47
  8
0
 10
84.999999999999986
 20
80.0
 30
0.0
 40
5.0
 50
180.0
 51
270.0
  0
ARC
  5
D49
  8
3
 10
84.999999999999986
 20
80.0
 30
0.0
 40
4.0
 50
180.0
 51
270.0
  0
LINE
  5
D4A
  8
0
 10
135.0
 20
104.9474592837
 30
0.0
 11
162.32642328899999
 21
99.450128813399999
 31
0.0
  0
ARC
  5
D4B
  8
3
 10
168.92876141409999
 20
96.077991576300008
 30
0.0
 40
4.0
 50
225.83188092900019
 51
124.16811907100001
  0
ARC
  5
D4C
  8
0
 10
168.92876141409999
 20
96.077991576300008
 30
0.0
 40
5.0
 50
225.83188092900019
 51
124.16811907100001
  0
ARC
  5
D4E
  8
3
 10
163.31253060660001
 20
104.3519236233
 30
0.0
 40
6.0
 50
258.62547538590007
 51
304.16811907099998
  0
ARC
  5
D50
  8
0
 10
163.31253060660001
 20
104.3519236233
 30
0.0
 40
5.0
 50
258.62547538590007
 51
304.16811907099998
  0
ARC
  5
D52
  8
3
 10
161.96110055010001
 20
88.905007393699989
 30
0.0
 40
6.0
 50
45.831880929000221
 51
91.374524614100011
  0
ARC
  5
D53
  8
0
 10
161.96110055010001
 20
88.905007393699989
 30
0.0
 40
5.0
 50
45.831880929000221
 51
91.374524614100011
  0
LINE
  5
D54
  8
0
 10
161.84116215450001
 20
93.903568664900007
 30
0.0
 11
135.0
 21
93.259526159499984
 31
0.0
  0
LINE
  5
D58
  8
1
  6
CENTER
 62
     1
 10
124.09999999999999
 20
100.0
 30
0.0
 11
177.3496125481
 21
95.341262564900006
 31
0.0
  0
LINE
  5
D5B
  8
1
 10
178.92876141409999
 20
157.5009077485
 30
0.0
 11
74.999999999999986
 21
157.5009077485
 31
0.0
  0
LINE
  5
D5F
  8
1
 10
209.69827184850001
 20
70.0
 30
0.0
 11
209.69827184850001
 21
130.0
 31
0.0
  0
LINE
  5
D60
  8
1
 10
191.69827184850001
 20
99.999999999999957
 30
0.0
 11
227.69827184850001
 21
99.999999999999986
 31
0.0
  0
LINE
  5
D76
  8
2
 10
102.75
 20
33.911905329417102
 30
0.0
 11
102.75
 21
48.911905329417102
 31
0.0
  0
LINE
  5
D77
  8
2
 10
97.249999999999986
 20
48.911905329417102
 30
0.0
 11
97.249999999999986
 21
33.911905329417102
 31
0.0
  0
LINE
  5
D78
  8
2
 10
104.75
 20
48.911905329417102
 30
0.0
 11
104.75
 21
53.911905329417102
 31
0.0
  0
LINE
  5
D79
  8
2
 10
95.249999999999957
 20
53.911905329417102
 30
0.0
 11
95.249999999999957
 21
48.911905329417102
 31
0.0
  0
LINE
  5
D7A
  8
2
 10
95.249999999999957
 20
33.911905329417102
 30
0.0
 11
95.249999999999957
 21
28.911905329417088
 31
0.0
  0
LINE
  5
D7B
  8
2
 10
104.75
 20
28.911905329417088
 30
0.0
 11
104.75
 21
33.911905329417102
 31
0.0
  0
LINE
  5
D7C
  8
2
 10
104.75
 20
53.911905329417102
 30
0.0
 11
105.2499999999999
 21
54.411905329417102
 31
0.0
  0
LINE
  5
D7D
  8
2
 10
94.749999999999972
 20
54.411905329417102
 30
0.0
 11
95.249999999999957
 21
53.911905329417102
 31
0.0
  0
LINE
  5
D7E
  8
2
 10
95.249999999999957
 20
28.911905329417088
 30
0.0
 11
94.749999999999972
 21
28.411905329417088
 31
0.0
  0
LINE
  5
D7F
  8
2
 10
105.2499999999999
 20
28.411905329417088
 30
0.0
 11
104.75
 21
28.911905329417088
 31
0.0
  0
LINE
  5
D80
  8
2
 10
95.249999999999957
 20
48.911905329417102
 30
0.0
 11
104.75
 21
48.911905329417102
 31
0.0
  0
LINE
  5
D81
  8
2
 10
104.75
 20
33.911905329417102
 30
0.0
 11
95.249999999999957
 21
33.911905329417102
 31
0.0
  0
LINE
  5
D82
  8
2
 10
95.249999999999957
 20
53.911905329417102
 30
0.0
 11
104.75
 21
53.911905329417102
 31
0.0
  0
LINE
  5
D83
  8
2
 10
104.75
 20
28.911905329417088
 30
0.0
 11
95.249999999999957
 21
28.911905329417088
 31
0.0
  0
LINE
  5
D84
  8
1
 10
74.999999999999986
 20
41.411905273199999
 30
0.0
 11
178.92876141409999
 21
41.411905273200013
 31
0.0
  0
LINE
  5
D88
  8
1
 62
     1
 10
89.999999999999986
 20
46.811905273200018
 30
0.0
 11
89.999999999999986
 21
36.011905273199993
 31
0.0
  0
LINE
  5
D89
  8
1
 62
     1
 10
110.0
 20
46.811905273200018
 30
0.0
 11
110.0
 21
36.011905273199993
 31
0.0
  0
LINE
  5
D8A
  8
1
 10
100.0
 20
59.411905273199991
 30
0.0
 11
100.0
 21
23.411905273200009
 31
0.0
  0
LINE
  5
D8D
  8
1
 10
42.369484719799992
 20
70.0
 30
0.0
 11
42.369484719799992
 21
130.0
 31
0.0
  0
LINE
  5
D91
  8
1
 10
24.369484719799988
 20
100.0
 30
0.0
 11
60.369484719799992
 21
100.0
 31
0.0
  0
LINE
  5
D93
  8
2
 10
54.869484719799992
 20
92.5
 30
0.0
 11
55.369484719799992
 21
92.0
 31
0.0
  0
LINE
  5
D94
  8
2
 10
29.869484719799981
 20
92.5
 30
0.0
 11
29.369484719799981
 21
92.0
 31
0.0
  0
LINE
  5
D95
  8
2
 10
29.869484719799981
 20
107.5
 30
0.0
 11
29.369484719799981
 21
108.0
 31
0.0
  0
LINE
  5
D96
  8
2
 10
29.869484719799981
 20
107.5
 30
0.0
 11
29.869484719799971
 21
92.5
 31
0.0
  0
LINE
  5
D97
  8
2
 10
54.869484719799992
 20
92.5
 30
0.0
 11
29.869484719799981
 21
92.5
 31
0.0
  0
ARC
  5
DB8
  8
0
 10
115.0
 20
99.500000000000014
 30
0.0
 40
0.2
 50
270.0
 51
0.0
  0
ARC
  5
DB9
  8
0
 10
116.0
 20
96.235898384899997
 30
0.0
 40
0.2
 50
209.99999999999969
 51
330.00000000000028
  0
LINE
  5
DBA
  8
0
 10
116.1732050806999
 20
96.135898384900003
 30
0.0
 11
117.8267949192
 21
99.0
 31
0.0
  0
ARC
  5
DBB
  8
0
 10
117.65358983839999
 20
99.099999999999994
 30
0.0
 40
0.2
 50
330.00000000000028
 51
90.0
  0
LINE
  5
DBC
  8
0
 10
117.65358983839999
 20
99.300000000000011
 30
0.0
 11
117.0
 21
99.300000000000011
 31
0.0
  0
ARC
  5
DBD
  8
0
 10
117.0
 20
99.500000000000014
 30
0.0
 40
0.2
 50
180.0
 51
270.0
  0
LINE
  5
DBE
  8
0
 10
116.8
 20
99.500000000000014
 30
0.0
 11
116.8
 21
103.8
 31
0.0
  0
ARC
  5
DBF
  8
0
 10
116.59999999999999
 20
103.8
 30
0.0
 40
0.2
 50
0.0
 51
90.0
  0
LINE
  5
DC0
  8
0
 10
116.59999999999999
 20
104.0
 30
0.0
 11
115.39999999999991
 21
104.0
 31
0.0
  0
ARC
  5
DC1
  8
0
 10
115.39999999999991
 20
103.8
 30
0.0
 40
0.2
 50
90.0
 51
180.0
  0
LINE
  5
DC2
  8
0
 10
115.2
 20
103.8
 30
0.0
 11
115.2
 21
99.500000000000014
 31
0.0
  0
LINE
  5
DC3
  8
0
 10
115.0
 20
99.300000000000011
 30
0.0
 11
114.3464101615
 21
99.300000000000011
 31
0.0
  0
ARC
  5
DC4
  8
0
 10
114.3464101615
 20
99.099999999999994
 30
0.0
 40
0.2
 50
90.0
 51
209.99999999999969
  0
LINE
  5
DC5
  8
0
 10
114.1732050806999
 20
99.0
 30
0.0
 11
115.8267949192
 21
96.135898384900003
 31
0.0
  0
LINE
  5
DC6
  8
0
 10
117.5
 20
105.0
 30
0.0
 11
114.5
 21
105.0
 31
0.0
  0
ARC
  5
DC7
  8
0
 10
117.5
 20
104.0
 30
0.0
 40
1.0
 50
0.0
 51
90.0
  0
LINE
  5
DC8
  8
0
 10
118.5
 20
96.0
 30
0.0
 11
118.5
 21
104.0
 31
0.0
  0
ARC
  5
DC9
  8
0
 10
117.5
 20
96.0
 30
0.0
 40
1.0
 50
270.0
 51
0.0
  0
LINE
  5
DCA
  8
0
 10
114.5
 20
95.0
 30
0.0
 11
117.5
 21
95.0
 31
0.0
  0
ARC
  5
DCB
  8
0
 10
114.5
 20
96.0
 30
0.0
 40
1.0
 50
180.0
 51
270.0
  0
LINE
  5
DCC
  8
0
 10
113.5
 20
104.0
 30
0.0
 11
113.5
 21
96.0
 31
0.0
  0
ARC
  5
DCD
  8
0
 10
114.5
 20
104.0
 30
0.0
 40
1.0
 50
90.0
 51
180.0
  0
LINE
  5
DD7
  8
5
 10
134.99999999999989
 20
117.6693737285154
 30
0.0
 11
149.09269701972829
 21
128.92968875518221
 31
0.0
  0
ARC
  5
DD8
  8
5
 10
145.97156190986951
 20
132.83590375517809
 30
0.0
 40
5.0
 50
308.62547538590002
 51
354.16811907099998
  0
ARC
  5
DD9
  8
5
 10
155.91980515341871
 20
131.81980515333709
 30
0.0
 40
5.0
 50
275.83188092900031
 51
174.16811907100001
  0
ARC
  5
DDA
  8
5
 10
156.93590375520279
 20
121.8715619098795
 30
0.0
 40
5.0
 50
95.831880929000206
 51
141.37452461410001
  0
LINE
  5
DDB
  8
5
 10
153.02968875519289
 20
124.99269701979991
 30
0.0
 11
136.2698874750871
 21
104.01719136190719
 31
0.0
  0
LINE
  5
DDC
  8
1
  6
CENTER
 62
     1
 10
124.09999999999999
 20
100.0
 30
0.0
 11
161.89699109063631
 21
137.79699109064541
 31
0.0
  0
LINE
  5
DDE
  8
1
  6
CENTER
 62
     1
 10
124.09999999999999
 20
100.0
 30
0.0
 11
161.8969910906454
 21
62.20300890936371
 31
0.0
  0
LINE
  5
DDF
  8
5
 10
149.09269701979991
 20
71.070311244807101
 30
0.0
 11
135.0
 21
82.330626271525404
 31
0.0
  0
ARC
  5
DE0
  8
5
 10
145.97156190987951
 20
67.164096244797221
 30
0.0
 40
5.0
 50
5.8318809290002109
 51
51.374524614100011
  0
ARC
  5
DE1
  8
5
 10
155.91980515333711
 20
68.180194846581301
 30
0.0
 40
5.0
 50
185.83188092900019
 51
84.168119071000007
  0
ARC
  5
DE2
  8
5
 10
156.93590375517809
 20
78.128438090130473
 30
0.0
 40
5.0
 50
218.62547538589999
 51
264.16811907099998
  0
LINE
  5
DE3
  8
5
 10
135.63004995698779
 20
96.783588746252491
 30
0.0
 11
153.02968875518221
 21
75.007302980271646
 31
0.0
  0
LINE
  5
DE4
  8
1
 10
75.0
 20
100.0
 30
0.0
 11
140.0
 21
100.0
 31
0.0
  0
LINE
  5
DEE
  8
1
 10
110.0
 20
87.5
 30
0.0
 11
110.0
 21
72.5
 31
0.0
  0
LINE
  5
DEF
  8
1
 10
89.999999999999986
 20
87.5
 30
0.0
 11
89.999999999999986
 21
72.5
 31
0.0
  0
LINE
  5
DF0
  8
1
 10
92.499999999999986
 20
90.0
 30
0.0
 11
77.499999999999986
 21
90.0
 31
0.0
  0
LINE
  5
DF1
  8
1
 10
92.499999999999986
 20
110.0
 30
0.0
 11
77.499999999999986
 21
110.0
 31
0.0
  0
LINE
  5
DF2
  8
1
 10
100.0
 20
125.25
 30
0.0
 11
100.0
 21
74.75
 31
0.0
  0
LINE
  5
DF5
  8
1
 10
124.09999999999999
 20
105.5
 30
0.0
 11
124.09999999999999
 21
94.500000000000014
 31
0.0
  0
LINE
  5
DF8
  8
1
 10
36.969484719799993
 20
90.0
 30
0.0
 11
47.769484719799991
 21
90.0
 31
0.0
  0
LINE
  5
DF9
  8
1
 10
47.769484719799991
 20
110.0
 30
0.0
 11
36.969484719799993
 21
110.0
 31
0.0
  0
LINE
  5
DFA
  8
1
 10
100.0
 20
175.5009077485
 30
0.0
 11
100.0
 21
139.5009077485
 31
0.0
  0
LINE
  5
DFB
  8
2
 10
104.75
 20
145.00090780471709
 30
0.0
 11
95.249999999999957
 21
145.00090780471709
 31
0.0
  0
LINE
  5
DFC
  8
2
 10
95.249999999999957
 20
170.00090780471709
 30
0.0
 11
104.75
 21
170.00090780471709
 31
0.0
  0
LINE
  5
DFD
  8
2
 10
104.75
 20
150.00090780471709
 30
0.0
 11
95.249999999999957
 21
150.00090780471709
 31
0.0
  0
LINE
  5
DFE
  8
2
 10
95.249999999999957
 20
165.00090780471709
 30
0.0
 11
104.75
 21
165.00090780471709
 31
0.0
  0
LINE
  5
DFF
  8
2
 10
105.2499999999999
 20
144.50090780471709
 30
0.0
 11
104.75
 21
145.00090780471709
 31
0.0
  0
LINE
  5
E00
  8
2
 10
95.249999999999957
 20
145.00090780471709
 30
0.0
 11
94.749999999999972
 21
144.50090780471709
 31
0.0
  0
LINE
  5
E01
  8
2
 10
94.749999999999972
 20
170.50090780471709
 30
0.0
 11
95.249999999999957
 21
170.00090780471709
 31
0.0
  0
LINE
  5
E02
  8
2
 10
104.75
 20
170.00090780471709
 30
0.0
 11
105.2499999999999
 21
170.50090780471709
 31
0.0
  0
LINE
  5
E03
  8
2
 10
104.75
 20
145.00090780471709
 30
0.0
 11
104.75
 21
150.00090780471709
 31
0.0
  0
LINE
  5
E04
  8
2
 10
95.249999999999957
 20
150.00090780471709
 30
0.0
 11
95.249999999999957
 21
145.00090780471709
 31
0.0
  0
LINE
  5
E05
  8
2
 10
95.249999999999957
 20
170.00090780471709
 30
0.0
 11
95.249999999999957
 21
165.00090780471709
 31
0.0
  0
LINE
  5
E06
  8
2
 10
104.75
 20
165.00090780471709
 30
0.0
 11
104.75
 21
170.00090780471709
 31
0.0
  0
LINE
  5
E07
  8
2
 10
97.249999999999986
 20
165.00090780471709
 30
0.0
 11
97.249999999999986
 21
150.00090780471709
 31
0.0
  0
LINE
  5
E08
  8
2
 10
102.75
 20
150.00090780471709
 30
0.0
 11
102.75
 21
165.00090780471709
 31
0.0
  0
LINE
  5
E2B
  8
1
 10
92.249999999999986
 20
82.5
 30
0.0
 11
107.75
 21
82.5
 31
0.0
  0
LINE
  5
E2C
  8
1
 10
92.249999999999986
 20
117.5
 30
0.0
 11
107.75
 21
117.5
 31
0.0
  0
TEXT
  5
F30
  8
0
 62
     3
 10
0.0
 20
0.0
 30
0.0
 40
10.0
  1
QSC15L
  7
STANDARD1
  0
ENDSEC
  0
EOF
