  0
SECTION
  2
HEADER
  9
$ACADVER
  1
AC1009
  9
$INSBASE
 10
0.0
 20
0.0
 30
0.0
  9
$EXTMIN
 10
0.0
 20
-2.960436562073669
 30
0.0
  9
$EXTMAX
 10
244.7940086830381
 20
198.9788646739708
 30
0.0
  9
$LIMMIN
 10
0.0
 20
0.0
  9
$LIMMAX
 10
187.5
 20
135.0
  9
$ORTHOMODE
 70
     0
  9
$REGENMODE
 70
     1
  9
$FILLMODE
 70
     1
  9
$QTEXTMODE
 70
     0
  9
$MIRRTEXT
 70
     0
  9
$DRAGMODE
 70
     2
  9
$LTSCALE
 40
5.0
  9
$OSMODE
 70
  3071
  9
$ATTMODE
 70
     1
  9
$TEXTSIZE
 40
0.2
  9
$TRACEWID
 40
0.05
  9
$TEXTSTYLE
  7
STANDARD
  9
$CLAYER
  8
0
  9
$CELTYPE
  6
BYLAYER
  9
$CECOLOR
 62
   256
  9
$DIMSCALE
 40
0.5
  9
$DIMASZ
 40
3.0
  9
$DIMEXO
 40
2.0
  9
$DIMDLI
 40
0.3799999999999999
  9
$DIMRND
 40
0.0
  9
$DIMDLE
 40
0.0
  9
$DIMEXE
 40
2.0
  9
$DIMTP
 40
0.0
  9
$DIMTM
 40
0.0
  9
$DIMTXT
 40
3.2000000000000002
  9
$DIMCEN
 40
0.09
  9
$DIMTSZ
 40
0.0
  9
$DIMTOL
 70
     0
  9
$DIMLIM
 70
     0
  9
$DIMTIH
 70
     0
  9
$DIMTOH
 70
     0
  9
$DIMSE1
 70
     0
  9
$DIMSE2
 70
     0
  9
$DIMTAD
 70
     1
  9
$DIMZIN
 70
     0
  9
$DIMBLK
  1

  9
$DIMASO
 70
     0
  9
$DIMSHO
 70
     0
  9
$DIMPOST
  1

  9
$DIMAPOST
  1

  9
$DIMALT
 70
     0
  9
$DIMALTD
 70
     2
  9
$DIMALTF
 40
25.399999999999999
  9
$DIMLFAC
 40
1.0
  9
$DIMTOFL
 70
     0
  9
$DIMTVP
 40
1.6000000000000001
  9
$DIMTIX
 70
     1
  9
$DIMSOXD
 70
     0
  9
$DIMSAH
 70
     0
  9
$DIMBLK1
  1

  9
$DIMBLK2
  1

  9
$DIMSTYLE
  2
STANDARD
  9
$DIMCLRD
 70
     0
  9
$DIMCLRE
 70
     0
  9
$DIMCLRT
 70
     0
  9
$DIMTFAC
 40
1.0
  9
$DIMGAP
 40
0.09
  9
$LUNITS
 70
     2
  9
$LUPREC
 70
     4
  9
$SKETCHINC
 40
0.1
  9
$FILLETRAD
 40
0.4
  9
$AUNITS
 70
     0
  9
$AUPREC
 70
     0
  9
$MENU
  1
E:\r13\win\SUPPORT\ACAD
  9
$ELEVATION
 40
0.0
  9
$PELEVATION
 40
0.0
  9
$THICKNESS
 40
0.0
  9
$LIMCHECK
 70
     0
  9
$BLIPMODE
 70
     0
  9
$CHAMFERA
 40
0.0
  9
$CHAMFERB
 40
0.0
  9
$SKPOLY
 70
     0
  9
$TDCREATE
 40
2451824.6906229062
  9
$TDUPDATE
 40
2456598.4343549651
  9
$TDINDWG
 40
0.0230286806
  9
$TDUSRTIMER
 40
0.0230286806
  9
$USRTIMER
 70
     1
  9
$ANGBASE
 50
0.0
  9
$ANGDIR
 70
     0
  9
$PDMODE
 70
     0
  9
$PDSIZE
 40
0.0
  9
$PLINEWID
 40
0.0
  9
$COORDS
 70
     1
  9
$SPLFRAME
 70
     0
  9
$SPLINETYPE
 70
     6
  9
$SPLINESEGS
 70
     8
  9
$ATTDIA
 70
     0
  9
$ATTREQ
 70
     1
  9
$HANDLING
 70
     1
  9
$HANDSEED
  5
663
  9
$SURFTAB1
 70
     6
  9
$SURFTAB2
 70
     6
  9
$SURFTYPE
 70
     6
  9
$SURFU
 70
     6
  9
$SURFV
 70
     6
  9
$UCSNAME
  2

  9
$UCSORG
 10
0.0
 20
0.0
 30
0.0
  9
$UCSXDIR
 10
1.0
 20
0.0
 30
0.0
  9
$UCSYDIR
 10
0.0
 20
1.0
 30
0.0
  9
$PUCSNAME
  2

  9
$PUCSORG
 10
0.0
 20
0.0
 30
0.0
  9
$PUCSXDIR
 10
1.0
 20
0.0
 30
0.0
  9
$PUCSYDIR
 10
0.0
 20
1.0
 30
0.0
  9
$USERI1
 70
     0
  9
$USERI2
 70
     1
  9
$USERI3
 70
     0
  9
$USERI4
 70
     0
  9
$USERI5
 70
     0
  9
$USERR1
 40
0.0
  9
$USERR2
 40
0.0
  9
$USERR3
 40
0.0
  9
$USERR4
 40
0.0
  9
$USERR5
 40
0.0
  9
$WORLDVIEW
 70
     1
  9
$SHADEDGE
 70
     3
  9
$SHADEDIF
 70
    70
  9
$TILEMODE
 70
     1
  9
$MAXACTVP
 70
    16
  9
$PLIMCHECK
 70
     0
  9
$PEXTMIN
 10
1.0000000000000000E+020
 20
1.0000000000000000E+020
 30
1.0000000000000000E+020
  9
$PEXTMAX
 10
-1.0000000000000000E+020
 20
-1.0000000000000000E+020
 30
-1.0000000000000000E+020
  9
$PLIMMIN
 10
0.0
 20
0.0
  9
$PLIMMAX
 10
12.0
 20
9.0
  9
$UNITMODE
 70
     0
  9
$VISRETAIN
 70
     0
  9
$PLINEGEN
 70
     0
  9
$PSLTSCALE
 70
     0
  0
ENDSEC
  0
SECTION
  2
TABLES
  0
TABLE
  2
VPORT
 70
     1
  0
VPORT
  2
*ACTIVE
 70
     0
 10
0.0
 20
0.0
 11
1.0
 21
1.0
 12
122.3970049114745
 22
109.7446724779425
 13
0.0
 23
0.0
 14
5.0
 24
5.0
 15
5.0
 25
5.0
 16
0.0
 26
0.0
 36
1.0
 17
0.0
 27
0.0
 37
0.0
 40
228.25312569526349
 41
2.304913294797688
 42
50.0
 43
0.0
 44
0.0
 50
0.0
 51
0.0
 71
     0
 72
   500
 73
     1
 74
     0
 75
     0
 76
     0
 77
     0
 78
     2
  0
ENDTAB
  0
TABLE
  2
LTYPE
 70
     4
  0
LTYPE
  2
CONTINUOUS
 70
     0
  3
Solid Line
 72
    65
 73
     0
 40
0.0
  0
LTYPE
  2
CENTER
 70
     0
  3
____ _ ____ _ ____ _ ____ _ ____ _ ____ _ ____
 72
    65
 73
     4
 40
2.0
 49
1.25
 49
-0.25
 49
0.25
 49
-0.25
  0
LTYPE
  2
HIDDEN
 70
     0
  3
__ __ __ __ __ __ __ __ __ __ __ __ __ __ __ __
 72
    65
 73
     2
 40
0.375
 49
0.25
 49
-0.125
  0
LTYPE
  2
PHANTOM2
 70
     0
  3
Phantom (.5x) ___ _ _ ___ _ _ ___ _ _ ___ _ _
 72
    65
 73
     6
 40
1.25
 49
0.625
 49
-0.125
 49
0.125
 49
-0.125
 49
0.125
 49
-0.125
  0
ENDTAB
  0
TABLE
  2
LAYER
 70
     5
  0
LAYER
  2
0
 70
     0
 62
     7
  6
CONTINUOUS
  0
LAYER
  2
1
 70
     0
 62
     1
  6
CENTER
  0
LAYER
  2
2
 70
     0
 62
     2
  6
HIDDEN
  0
LAYER
  2
3
 70
     0
 62
     3
  6
CONTINUOUS
  0
LAYER
  2
5
 70
     0
 62
     3
  6
PHANTOM2
  0
ENDTAB
  0
TABLE
  2
STYLE
 70
     2
  0
STYLE
  2
STANDARD
 70
     0
 40
0.0
 41
1.0
 50
0.0
 71
     0
 42
0.2
  3
TXT
  4
BIGFONT
  0
STYLE
  2
STANDARD1
 70
     0
 40
0.0
 41
1.0
 50
0.0
 71
     0
 42
3.0
  3
txt
  4

  0
ENDTAB
  0
TABLE
  2
VIEW
 70
     0
  0
ENDTAB
  0
TABLE
  2
UCS
 70
     0
  0
ENDTAB
  0
TABLE
  2
APPID
 70
     3
  0
APPID
  2
ACAD
 70
     0
  0
APPID
  2
ACAD_MLEADERVER
 70
     0
  0
APPID
  2
ACAD_NAV_VCDISPLAY
 70
     0
  0
ENDTAB
  0
TABLE
  2
DIMSTYLE
 70
     1
  0
DIMSTYLE
  2
STANDARD
 70
     0
  3

  4

  5

  6

  7

 40
1.0
 41
0.18
 42
0.0625
 43
0.38
 44
0.18
 45
0.0
 46
0.0
 47
0.0
 48
0.0
140
0.18
141
0.09
142
0.0
143
25.399999999999999
144
1.0
145
0.0
146
1.0
147
0.09
 71
     0
 72
     0
 73
     1
 74
     1
 75
     0
 76
     0
 77
     0
 78
     0
170
     0
171
     2
172
     0
173
     0
174
     0
175
     0
176
     0
177
     0
178
     0
  0
ENDTAB
  0
ENDSEC
  0
SECTION
  2
BLOCKS
  0
BLOCK
  8
0
  2
$MODEL_SPACE
 70
     0
 10
0.0
 20
0.0
 30
0.0
  3
$MODEL_SPACE
  1

  0
ENDBLK
  5
9
  8
0
  0
BLOCK
 67
     1
  8
0
  2
$PAPER_SPACE
 70
     0
 10
0.0
 20
0.0
 30
0.0
  3
$PAPER_SPACE
  1

  0
ENDBLK
  5
E
 67
     1
  8
0
  0
ENDSEC
  0
SECTION
  2
ENTITIES
  0
CIRCLE
  5
3BA
  8
0
 10
126.8866047629204
 20
120.2301273324418
 30
0.0
 40
7.5
  0
CIRCLE
  5
3BB
  8
0
 10
126.8866047629204
 20
120.2301273324418
 30
0.0
 40
7.0
  0
LINE
  5
3BC
  8
0
 10
175.00436026966449
 20
56.481389990912248
 30
0.0
 11
174.87066521867419
 21
55.481389990912469
 31
0.0
  0
LINE
  5
3BD
  8
0
 10
174.87066521867419
 20
47.481389990912241
 30
0.0
 11
175.00436026966449
 21
46.481389990912362
 31
0.0
  0
LINE
  5
3BE
  8
0
 10
174.87066521867419
 20
55.481389990912469
 30
0.0
 11
174.87066521867419
 21
47.481389990912241
 31
0.0
  0
LINE
  5
3BF
  8
2
 10
71.886604762920456
 20
127.2301273324419
 30
0.0
 11
71.886604762920456
 21
113.2301273324417
 31
0.0
  0
LINE
  5
3C0
  8
2
 10
52.886604762920513
 20
127.2301273324419
 30
0.0
 11
52.886604762920399
 21
113.2301273324417
 31
0.0
  0
LINE
  5
3C1
  8
1
 10
74.886604762920456
 20
120.2301273324418
 30
0.0
 11
49.886604762920513
 21
120.2301273324418
 31
0.0
  0
LINE
  5
3C2
  8
2
 10
52.886604762920513
 20
127.2301273324419
 30
0.0
 11
52.386604762920513
 21
127.7301273324418
 31
0.0
  0
LINE
  5
3C3
  8
2
 10
71.886604762920456
 20
127.2301273324419
 30
0.0
 11
72.386604762920456
 21
127.7301273324418
 31
0.0
  0
LINE
  5
3C4
  8
2
 10
71.886604762920456
 20
127.2301273324419
 30
0.0
 11
52.886604762920513
 21
127.2301273324419
 31
0.0
  0
LINE
  5
3C5
  8
2
 10
130.88660476292031
 20
41.981389990912362
 30
0.0
 11
130.8866047629204
 21
45.981389990912362
 31
0.0
  0
LINE
  5
3C6
  8
2
 10
122.8866047629202
 20
41.981389990912362
 30
0.0
 11
122.8866047629204
 21
45.981389990912362
 31
0.0
  0
LINE
  5
3C7
  8
2
 10
122.8866047629203
 20
45.981389990912362
 30
0.0
 11
130.8866047629204
 21
45.981389990912362
 31
0.0
  0
LINE
  5
3C8
  8
2
 10
131.38660476292031
 20
41.481389990912362
 30
0.0
 11
130.88660476292031
 21
41.981389990912362
 31
0.0
  0
LINE
  5
3C9
  8
2
 10
122.3866047629202
 20
41.481389990912362
 30
0.0
 11
122.8866047629202
 21
41.981389990912362
 31
0.0
  0
LINE
  5
3CA
  8
2
 10
122.8866047629202
 20
41.981389990912362
 30
0.0
 11
130.88660476292031
 21
41.981389990912362
 31
0.0
  0
LINE
  5
3CB
  8
2
 10
122.8866047629202
 20
60.981389990912362
 30
0.0
 11
130.88660476292031
 21
60.981389990912362
 31
0.0
  0
LINE
  5
3CC
  8
2
 10
122.3866047629202
 20
61.481389990912362
 30
0.0
 11
122.8866047629202
 21
60.981389990912362
 31
0.0
  0
LINE
  5
3CD
  8
2
 10
131.38660476292031
 20
61.481389990912362
 30
0.0
 11
130.88660476292031
 21
60.981389990912362
 31
0.0
  0
LINE
  5
3CE
  8
2
 10
122.8866047629203
 20
56.981389990912362
 30
0.0
 11
130.8866047629204
 21
56.981389990912362
 31
0.0
  0
LINE
  5
3CF
  8
2
 10
122.8866047629202
 20
60.981389990912362
 30
0.0
 11
122.8866047629204
 21
56.981389990912362
 31
0.0
  0
LINE
  5
3D0
  8
2
 10
130.88660476292031
 20
60.981389990912362
 30
0.0
 11
130.8866047629204
 21
56.981389990912362
 31
0.0
  0
LINE
  5
3D1
  8
1
 10
126.8866047629204
 20
63.981389990912362
 30
0.0
 11
126.8866047629203
 21
38.981389990912362
 31
0.0
  0
LINE
  5
3D2
  8
2
 10
124.6366047629204
 20
56.981389990912362
 30
0.0
 11
124.6366047629204
 21
45.981389990912362
 31
0.0
  0
LINE
  5
3D3
  8
2
 10
129.1366047629204
 20
56.981389990912362
 30
0.0
 11
129.1366047629204
 21
45.981389990912362
 31
0.0
  0
LINE
  5
3D4
  8
0
 10
113.8866047629204
 20
141.23012733244181
 30
0.0
 11
150.8866047629204
 21
141.23012733244181
 31
0.0
  0
LINE
  5
3D5
  8
0
 10
154.8866047629204
 20
137.23012733244181
 30
0.0
 11
154.8866047629204
 21
103.2301273324418
 31
0.0
  0
LINE
  5
3D6
  8
0
 10
150.8866047629204
 20
99.23012733244181
 30
0.0
 11
113.8866047629203
 21
99.23012733244181
 31
0.0
  0
LINE
  5
3D7
  8
0
 10
109.8866047629203
 20
103.2301273324418
 30
0.0
 11
109.8866047629204
 21
137.23012733244181
 31
0.0
  0
ARC
  5
3D8
  8
0
 10
113.8866047629204
 20
137.23012733244181
 30
0.0
 40
4.0
 50
90.0
 51
180.0
  0
ARC
  5
3D9
  8
0
 10
150.8866047629204
 20
137.23012733244181
 30
0.0
 40
4.0
 50
0.0
 51
90.0
  0
ARC
  5
3DA
  8
0
 10
150.8866047629204
 20
103.2301273324418
 30
0.0
 40
4.0
 50
270.0
 51
0.0
  0
ARC
  5
3DB
  8
0
 10
113.8866047629203
 20
103.2301273324418
 30
0.0
 40
4.0
 50
180.0
 51
270.0
  0
LINE
  5
3DC
  8
1
 10
126.8866047629204
 20
142.23012733244181
 30
0.0
 11
126.8866047629204
 21
98.230127332441825
 31
0.0
  0
LINE
  5
3DD
  8
3
 10
113.8866047629204
 20
140.23012733244181
 30
0.0
 11
150.8866047629204
 21
140.23012733244181
 31
0.0
  0
ARC
  5
3DE
  8
3
 10
150.8866047629204
 20
137.23012733244181
 30
0.0
 40
3.0
 50
0.0
 51
90.0
  0
LINE
  5
3DF
  8
3
 10
153.8866047629204
 20
137.23012733244181
 30
0.0
 11
153.8866047629204
 21
103.2301273324418
 31
0.0
  0
ARC
  5
3E0
  8
3
 10
150.8866047629204
 20
103.2301273324418
 30
0.0
 40
3.0
 50
270.0
 51
0.0
  0
LINE
  5
3E1
  8
3
 10
150.8866047629204
 20
100.2301273324418
 30
0.0
 11
113.8866047629203
 21
100.2301273324418
 31
0.0
  0
ARC
  5
3E2
  8
3
 10
113.8866047629203
 20
103.2301273324418
 30
0.0
 40
3.0
 50
180.0
 51
270.0
  0
LINE
  5
3E3
  8
3
 10
110.8866047629203
 20
103.2301273324418
 30
0.0
 11
110.8866047629204
 21
137.23012733244181
 31
0.0
  0
ARC
  5
3E4
  8
3
 10
113.8866047629204
 20
137.23012733244181
 30
0.0
 40
3.0
 50
90.0
 51
180.0
  0
LINE
  5
3E5
  8
1
 10
159.8866047629204
 20
120.2301273324418
 30
0.0
 11
104.8866047629204
 21
120.2301273324418
 31
0.0
  0
LINE
  5
3E6
  8
1
 10
133.8866047629204
 20
135.23012733244181
 30
0.0
 11
119.8866047629204
 21
135.23012733244181
 31
0.0
  0
CIRCLE
  5
3E7
  8
0
 10
126.8866047629204
 20
135.23012733244181
 30
0.0
 40
2.25
  0
CIRCLE
  5
3E8
  8
0
 10
126.8866047629204
 20
135.23012733244181
 30
0.0
 40
4.0
  0
LINE
  5
3E9
  8
0
 10
110.8866047629204
 20
61.481389990912248
 30
0.0
 11
153.8866047629204
 21
61.481389990912483
 31
0.0
  0
LINE
  5
3EA
  8
0
 10
154.8866047629204
 20
60.481389990912362
 30
0.0
 11
154.8866047629204
 21
42.481389990912362
 31
0.0
  0
LINE
  5
3EB
  8
0
 10
153.8866047629204
 20
41.481389990912362
 30
0.0
 11
110.8866047629204
 21
41.481389990912362
 31
0.0
  0
LINE
  5
3EC
  8
0
 10
109.8866047629204
 20
42.481389990912362
 30
0.0
 11
109.8866047629204
 21
60.481389990912362
 31
0.0
  0
ARC
  5
3ED
  8
0
 10
110.8866047629204
 20
60.481389990912362
 30
0.0
 40
1.0
 50
90.0
 51
180.0
  0
ARC
  5
3EE
  8
0
 10
110.8866047629204
 20
42.481389990912362
 30
0.0
 40
1.0
 50
180.0
 51
270.0
  0
ARC
  5
3EF
  8
0
 10
153.8866047629204
 20
60.481389990912362
 30
0.0
 40
1.0
 50
0.0
 51
90.0
  0
ARC
  5
3F0
  8
0
 10
153.8866047629204
 20
42.481389990912362
 30
0.0
 40
1.0
 50
270.0
 51
0.0
  0
LINE
  5
3F1
  8
1
 10
104.8866047629204
 20
51.481389990912362
 30
0.0
 11
187.2940086830381
 21
51.481389990912362
 31
0.0
  0
LINE
  5
3F2
  8
1
 10
135.8866047629206
 20
110.7301273324418
 30
0.0
 11
135.8866047629206
 21
96.73012733244181
 31
0.0
  0
LINE
  5
3F3
  8
1
 10
117.8866047629205
 20
110.7301273324418
 30
0.0
 11
117.8866047629204
 21
96.73012733244181
 31
0.0
  0
LINE
  5
3F4
  8
1
 10
117.8866047629204
 20
56.331389990912378
 30
0.0
 11
117.8866047629204
 21
46.631389990912332
 31
0.0
  0
LINE
  5
3F5
  8
1
 10
135.8866047629204
 20
56.331389990912378
 30
0.0
 11
135.8866047629204
 21
46.631389990912453
 31
0.0
  0
CIRCLE
  5
3F6
  8
3
 10
117.8866047629204
 20
51.481389990912362
 30
0.0
 40
1.6209999999999991
  0
CIRCLE
  5
3F7
  8
0
 10
117.8866047629204
 20
51.481389990912362
 30
0.0
 40
2.0
  0
LINE
  5
3F8
  8
0
 10
118.8866047621062
 20
52.058740259632373
 30
0.0
 11
118.8866047621062
 21
50.904039721253191
 31
0.0
  0
LINE
  5
3F9
  8
0
 10
118.88660476210531
 20
50.904039722192458
 30
0.0
 11
117.8866047621062
 21
50.3266894530027
 31
0.0
  0
LINE
  5
3FA
  8
0
 10
117.8866047629202
 20
50.326689453473357
 30
0.0
 11
116.8866047629202
 21
50.904039722662787
 31
0.0
  0
LINE
  5
3FB
  8
0
 10
116.8866047637342
 20
50.904039722193033
 30
0.0
 11
116.8866047637342
 21
52.058740260572222
 31
0.0
  0
LINE
  5
3FC
  8
0
 10
116.8866047637342
 20
52.058740259632252
 30
0.0
 11
117.8866047637342
 21
52.636090528822017
 31
0.0
  0
LINE
  5
3FD
  8
0
 10
117.8866047629202
 20
52.63609052835136
 30
0.0
 11
118.8866047629202
 21
52.058740259161937
 31
0.0
  0
CIRCLE
  5
3FE
  8
3
 10
135.8866047629204
 20
51.481389990912362
 30
0.0
 40
1.6209999999999991
  0
CIRCLE
  5
3FF
  8
0
 10
135.8866047629204
 20
51.481389990912362
 30
0.0
 40
2.0
  0
LINE
  5
400
  8
0
 10
136.8866047621062
 20
52.058740259632373
 30
0.0
 11
136.8866047621062
 21
50.904039721253191
 31
0.0
  0
LINE
  5
401
  8
0
 10
136.88660476210529
 20
50.904039722192458
 30
0.0
 11
135.8866047621062
 21
50.3266894530027
 31
0.0
  0
LINE
  5
402
  8
0
 10
135.8866047629202
 20
50.326689453473357
 30
0.0
 11
134.8866047629202
 21
50.904039722662787
 31
0.0
  0
LINE
  5
403
  8
0
 10
134.8866047637342
 20
50.904039722193033
 30
0.0
 11
134.8866047637342
 21
52.058740260572222
 31
0.0
  0
LINE
  5
404
  8
0
 10
134.8866047637342
 20
52.058740259632252
 30
0.0
 11
135.8866047637342
 21
52.636090528822017
 31
0.0
  0
LINE
  5
405
  8
0
 10
135.8866047629202
 20
52.63609052835136
 30
0.0
 11
136.8866047629202
 21
52.058740259161937
 31
0.0
  0
CIRCLE
  5
406
  8
0
 10
117.8866047629204
 20
51.481389990912362
 30
0.0
 40
2.3500000000000001
  0
CIRCLE
  5
407
  8
0
 10
135.8866047629204
 20
51.481389990912362
 30
0.0
 40
2.3500000000000001
  0
LINE
  5
408
  8
3
 10
150.8866047629204
 20
61.481389990912362
 30
0.0
 11
150.8866047629204
 21
41.481389990912362
 31
0.0
  0
LINE
  5
409
  8
3
 10
113.8866047629204
 20
61.481389990912362
 30
0.0
 11
113.8866047629204
 21
41.481389990912362
 31
0.0
  0
LINE
  5
40A
  8
2
 10
116.40622000518491
 20
99.23012733244181
 30
0.0
 11
119.36698952065601
 21
99.23012733244181
 31
0.0
  0
LINE
  5
40B
  8
2
 10
119.88660476292679
 20
99.530127332442007
 30
0.0
 11
119.88660476292679
 21
104.4301273324418
 31
0.0
  0
LINE
  5
40C
  8
2
 10
115.8866047629141
 20
99.530127332441879
 30
0.0
 11
115.8866047629141
 21
104.4301273324418
 31
0.0
  0
LINE
  5
40D
  8
2
 10
116.686604762914
 20
105.2301273324419
 30
0.0
 11
119.0866047629268
 21
105.2301273324419
 31
0.0
  0
LINE
  5
40E
  8
2
 10
115.8866047629141
 20
104.4301273324418
 30
0.0
 11
119.88660476292689
 21
104.4301273324418
 31
0.0
  0
LINE
  5
40F
  8
2
 10
119.0866047629268
 20
105.2301273324419
 30
0.0
 11
119.88660476292679
 21
104.4301273324418
 31
0.0
  0
LINE
  5
410
  8
2
 10
115.8866047629141
 20
104.4301273324418
 30
0.0
 11
116.686604762914
 21
105.2301273324419
 31
0.0
  0
LINE
  5
411
  8
2
 10
115.8866047629141
 20
99.530127332441879
 30
0.0
 11
119.88660476292679
 21
99.530127332442007
 31
0.0
  0
LINE
  5
412
  8
2
 10
119.88660476292689
 20
99.530127332441879
 30
0.0
 11
119.3669895206562
 21
99.230127332441924
 31
0.0
  0
LINE
  5
413
  8
2
 10
115.8866047629141
 20
99.530127332441879
 30
0.0
 11
116.40622000518469
 21
99.230127332441924
 31
0.0
  0
LINE
  5
414
  8
2
 10
119.507604762928
 20
99.311311580419755
 30
0.0
 11
119.507604762928
 21
104.8091273324408
 31
0.0
  0
LINE
  5
415
  8
2
 10
116.2656047629128
 20
99.311311580419755
 30
0.0
 11
116.2656047629128
 21
104.8091273324406
 31
0.0
  0
LINE
  5
416
  8
2
 10
116.7319042254815
 20
101.2301273324418
 30
0.0
 11
119.0413053003595
 21
101.2301273324417
 31
0.0
  0
LINE
  5
417
  8
2
 10
119.0413053003595
 20
99.23012733244181
 30
0.0
 11
119.0413053003595
 21
101.2301273324417
 31
0.0
  0
LINE
  5
418
  8
2
 10
118.4639550316398
 20
99.23012733244181
 30
0.0
 11
118.4639550316398
 21
101.2301273324418
 31
0.0
  0
LINE
  5
419
  8
2
 10
117.3092544942009
 20
99.230127332441924
 30
0.0
 11
117.3092544942009
 21
101.2301273324418
 31
0.0
  0
LINE
  5
41A
  8
2
 10
116.7319042254815
 20
99.230127332441924
 30
0.0
 11
116.7319042254815
 21
101.2301273324418
 31
0.0
  0
LINE
  5
41B
  8
2
 10
119.0413053003594
 20
101.2301273324417
 30
0.0
 11
117.8866047629204
 21
101.8967939985656
 31
0.0
  0
LINE
  5
41C
  8
2
 10
116.7319042254815
 20
101.2301273324418
 30
0.0
 11
117.8866047629204
 21
101.8967939985656
 31
0.0
  0
LINE
  5
41D
  8
2
 10
119.507604762928
 20
104.8091273324407
 30
0.0
 11
119.507604762928
 21
108.2301273324418
 31
0.0
  0
LINE
  5
41E
  8
2
 10
119.5076047629281
 20
108.2301273324418
 30
0.0
 11
116.2656047629127
 21
108.2301273324418
 31
0.0
  0
LINE
  5
41F
  8
2
 10
120.23660476292029
 20
99.23012733244181
 30
0.0
 11
119.5366047629204
 21
99.930127332441856
 31
0.0
  0
LINE
  5
420
  8
2
 10
119.5366047629204
 20
99.930127332441856
 30
0.0
 11
116.23660476292029
 21
99.930127332441856
 31
0.0
  0
LINE
  5
421
  8
2
 10
116.23660476292029
 20
99.930127332441856
 30
0.0
 11
115.5366047629204
 21
99.23012733244181
 31
0.0
  0
LINE
  5
422
  8
2
 10
116.2656047629128
 20
104.8091273324407
 30
0.0
 11
116.2656047629127
 21
108.2301273324418
 31
0.0
  0
LINE
  5
423
  8
2
 10
134.2656047629128
 20
104.8091273324407
 30
0.0
 11
134.26560476291269
 21
108.2301273324418
 31
0.0
  0
LINE
  5
424
  8
2
 10
134.23660476292031
 20
99.930127332441856
 30
0.0
 11
133.5366047629204
 21
99.23012733244181
 31
0.0
  0
LINE
  5
425
  8
2
 10
137.5366047629204
 20
99.930127332441856
 30
0.0
 11
134.23660476292031
 21
99.930127332441856
 31
0.0
  0
LINE
  5
426
  8
2
 10
138.23660476292031
 20
99.23012733244181
 30
0.0
 11
137.5366047629204
 21
99.930127332441856
 31
0.0
  0
LINE
  5
427
  8
2
 10
137.50760476292811
 20
108.2301273324418
 30
0.0
 11
134.26560476291269
 21
108.2301273324418
 31
0.0
  0
LINE
  5
428
  8
2
 10
137.507604762928
 20
104.8091273324407
 30
0.0
 11
137.507604762928
 21
108.2301273324418
 31
0.0
  0
LINE
  5
429
  8
2
 10
134.7319042254816
 20
101.2301273324418
 30
0.0
 11
135.8866047629204
 21
101.8967939985656
 31
0.0
  0
LINE
  5
42A
  8
2
 10
137.0413053003594
 20
101.2301273324417
 30
0.0
 11
135.8866047629204
 21
101.8967939985656
 31
0.0
  0
LINE
  5
42B
  8
2
 10
134.7319042254816
 20
99.230127332441924
 30
0.0
 11
134.7319042254816
 21
101.2301273324418
 31
0.0
  0
LINE
  5
42C
  8
2
 10
135.3092544942009
 20
99.230127332441924
 30
0.0
 11
135.3092544942009
 21
101.2301273324418
 31
0.0
  0
LINE
  5
42D
  8
2
 10
136.46395503163981
 20
99.23012733244181
 30
0.0
 11
136.46395503163981
 21
101.2301273324418
 31
0.0
  0
LINE
  5
42E
  8
2
 10
137.04130530035951
 20
99.23012733244181
 30
0.0
 11
137.04130530035951
 21
101.2301273324417
 31
0.0
  0
LINE
  5
42F
  8
2
 10
134.7319042254816
 20
101.2301273324418
 30
0.0
 11
137.04130530035951
 21
101.2301273324417
 31
0.0
  0
LINE
  5
430
  8
2
 10
134.2656047629128
 20
99.311311580419755
 30
0.0
 11
134.2656047629128
 21
104.8091273324406
 31
0.0
  0
LINE
  5
431
  8
2
 10
137.507604762928
 20
99.311311580419755
 30
0.0
 11
137.507604762928
 21
104.8091273324408
 31
0.0
  0
LINE
  5
432
  8
2
 10
133.88660476291409
 20
99.530127332441879
 30
0.0
 11
134.40622000518471
 21
99.230127332441924
 31
0.0
  0
LINE
  5
433
  8
2
 10
137.88660476292691
 20
99.530127332441879
 30
0.0
 11
137.3669895206562
 21
99.230127332441924
 31
0.0
  0
LINE
  5
434
  8
2
 10
133.88660476291409
 20
99.530127332441879
 30
0.0
 11
137.88660476292679
 21
99.530127332442007
 31
0.0
  0
LINE
  5
435
  8
2
 10
133.88660476291409
 20
104.4301273324418
 30
0.0
 11
134.68660476291399
 21
105.2301273324419
 31
0.0
  0
LINE
  5
436
  8
2
 10
137.08660476292681
 20
105.2301273324419
 30
0.0
 11
137.88660476292679
 21
104.4301273324418
 31
0.0
  0
LINE
  5
437
  8
2
 10
133.88660476291409
 20
104.4301273324418
 30
0.0
 11
137.88660476292691
 21
104.4301273324418
 31
0.0
  0
LINE
  5
438
  8
2
 10
134.68660476291399
 20
105.2301273324419
 30
0.0
 11
137.08660476292681
 21
105.2301273324419
 31
0.0
  0
LINE
  5
439
  8
2
 10
133.88660476291409
 20
99.530127332441879
 30
0.0
 11
133.88660476291409
 21
104.4301273324418
 31
0.0
  0
LINE
  5
43A
  8
2
 10
137.88660476292679
 20
99.530127332442007
 30
0.0
 11
137.88660476292679
 21
104.4301273324418
 31
0.0
  0
LINE
  5
43B
  8
2
 10
134.40622000518479
 20
99.23012733244181
 30
0.0
 11
137.36698952065601
 21
99.23012733244181
 31
0.0
  0
LINE
  5
43C
  8
2
 10
115.4656047629194
 20
131.85112733244941
 30
0.0
 11
118.8866047629204
 21
131.85112733244949
 31
0.0
  0
LINE
  5
43D
  8
2
 10
110.5866047629205
 20
131.8801273324419
 30
0.0
 11
109.8866047629204
 21
132.5801273324418
 31
0.0
  0
LINE
  5
43E
  8
2
 10
110.5866047629205
 20
128.5801273324418
 30
0.0
 11
110.5866047629205
 21
131.8801273324419
 31
0.0
  0
LINE
  5
43F
  8
2
 10
109.8866047629204
 20
127.8801273324419
 30
0.0
 11
110.5866047629205
 21
128.5801273324418
 31
0.0
  0
LINE
  5
440
  8
2
 10
118.8866047629204
 20
128.6091273324341
 30
0.0
 11
118.8866047629204
 21
131.85112733244949
 31
0.0
  0
LINE
  5
441
  8
2
 10
115.4656047629194
 20
128.60912733243421
 30
0.0
 11
118.8866047629204
 21
128.60912733243421
 31
0.0
  0
LINE
  5
442
  8
2
 10
111.8866047629204
 20
131.3848278698807
 30
0.0
 11
112.5532714290442
 21
130.23012733244181
 31
0.0
  0
LINE
  5
443
  8
2
 10
111.8866047629203
 20
129.07542679500281
 30
0.0
 11
112.5532714290442
 21
130.23012733244181
 31
0.0
  0
LINE
  5
444
  8
2
 10
109.8866047629206
 20
131.3848278698807
 30
0.0
 11
111.8866047629204
 21
131.3848278698807
 31
0.0
  0
LINE
  5
445
  8
2
 10
109.8866047629206
 20
130.80747760116131
 30
0.0
 11
111.8866047629204
 21
130.80747760116131
 31
0.0
  0
LINE
  5
446
  8
2
 10
109.8866047629204
 20
129.65277706372251
 30
0.0
 11
111.8866047629204
 21
129.65277706372251
 31
0.0
  0
LINE
  5
447
  8
2
 10
109.8866047629204
 20
129.0754267950027
 30
0.0
 11
111.8866047629203
 21
129.0754267950027
 31
0.0
  0
LINE
  5
448
  8
2
 10
111.8866047629204
 20
131.3848278698807
 30
0.0
 11
111.8866047629203
 21
129.0754267950027
 31
0.0
  0
LINE
  5
449
  8
2
 10
109.9677890108984
 20
131.85112733244941
 30
0.0
 11
115.4656047629192
 21
131.85112733244941
 31
0.0
  0
LINE
  5
44A
  8
2
 10
109.9677890108984
 20
128.60912733243421
 30
0.0
 11
115.4656047629195
 21
128.60912733243421
 31
0.0
  0
LINE
  5
44B
  8
2
 10
110.1866047629205
 20
132.23012733244821
 30
0.0
 11
109.8866047629206
 21
131.7105120901775
 31
0.0
  0
LINE
  5
44C
  8
2
 10
110.1866047629205
 20
128.2301273324353
 30
0.0
 11
109.8866047629206
 21
128.749742574706
 31
0.0
  0
LINE
  5
44D
  8
2
 10
110.1866047629205
 20
132.23012733244821
 30
0.0
 11
110.1866047629206
 21
128.23012733243539
 31
0.0
  0
LINE
  5
44E
  8
2
 10
115.0866047629205
 20
132.23012733244821
 30
0.0
 11
115.8866047629205
 21
131.43012733244819
 31
0.0
  0
LINE
  5
44F
  8
2
 10
115.8866047629205
 20
129.0301273324354
 30
0.0
 11
115.0866047629205
 21
128.23012733243539
 31
0.0
  0
LINE
  5
450
  8
2
 10
115.0866047629205
 20
132.23012733244821
 30
0.0
 11
115.0866047629205
 21
128.2301273324353
 31
0.0
  0
LINE
  5
451
  8
2
 10
115.8866047629205
 20
131.43012733244819
 30
0.0
 11
115.8866047629205
 21
129.0301273324354
 31
0.0
  0
LINE
  5
452
  8
2
 10
110.1866047629205
 20
132.23012733244821
 30
0.0
 11
115.0866047629205
 21
132.23012733244821
 31
0.0
  0
LINE
  5
453
  8
2
 10
110.1866047629206
 20
128.23012733243539
 30
0.0
 11
115.0866047629205
 21
128.23012733243539
 31
0.0
  0
LINE
  5
454
  8
2
 10
109.8866047629204
 20
131.71051209017739
 30
0.0
 11
109.8866047629204
 21
128.7497425747062
 31
0.0
  0
LINE
  5
455
  8
1
 10
121.3866047629204
 20
130.2301273324417
 30
0.0
 11
107.3866047629204
 21
130.23012733244181
 31
0.0
  0
LINE
  5
456
  8
2
 10
109.8866047629204
 20
111.7105120901774
 30
0.0
 11
109.8866047629204
 21
108.7497425747062
 31
0.0
  0
LINE
  5
457
  8
2
 10
110.1866047629206
 20
108.2301273324354
 30
0.0
 11
115.0866047629205
 21
108.2301273324354
 31
0.0
  0
LINE
  5
458
  8
2
 10
110.1866047629205
 20
112.23012733244811
 30
0.0
 11
115.0866047629205
 21
112.23012733244811
 31
0.0
  0
LINE
  5
459
  8
2
 10
115.8866047629205
 20
111.43012733244819
 30
0.0
 11
115.8866047629205
 21
109.0301273324354
 31
0.0
  0
LINE
  5
45A
  8
2
 10
115.0866047629205
 20
112.23012733244811
 30
0.0
 11
115.0866047629205
 21
108.2301273324353
 31
0.0
  0
LINE
  5
45B
  8
2
 10
115.8866047629205
 20
109.0301273324354
 30
0.0
 11
115.0866047629205
 21
108.2301273324354
 31
0.0
  0
LINE
  5
45C
  8
2
 10
115.0866047629205
 20
112.23012733244811
 30
0.0
 11
115.8866047629205
 21
111.43012733244819
 31
0.0
  0
LINE
  5
45D
  8
2
 10
110.1866047629205
 20
112.23012733244811
 30
0.0
 11
110.1866047629206
 21
108.2301273324354
 31
0.0
  0
LINE
  5
45E
  8
2
 10
110.1866047629205
 20
108.2301273324353
 30
0.0
 11
109.8866047629206
 21
108.749742574706
 31
0.0
  0
LINE
  5
45F
  8
2
 10
110.1866047629205
 20
112.23012733244811
 30
0.0
 11
109.8866047629206
 21
111.7105120901775
 31
0.0
  0
LINE
  5
460
  8
2
 10
109.9677890108984
 20
108.6091273324342
 30
0.0
 11
115.4656047629195
 21
108.6091273324342
 31
0.0
  0
LINE
  5
461
  8
2
 10
109.9677890108984
 20
111.85112733244939
 30
0.0
 11
115.4656047629192
 21
111.85112733244939
 31
0.0
  0
LINE
  5
462
  8
2
 10
111.8866047629204
 20
111.3848278698807
 30
0.0
 11
111.8866047629203
 21
109.0754267950027
 31
0.0
  0
LINE
  5
463
  8
2
 10
109.8866047629204
 20
109.0754267950027
 30
0.0
 11
111.8866047629203
 21
109.0754267950027
 31
0.0
  0
LINE
  5
464
  8
2
 10
109.8866047629204
 20
109.6527770637225
 30
0.0
 11
111.8866047629204
 21
109.6527770637225
 31
0.0
  0
LINE
  5
465
  8
2
 10
109.8866047629206
 20
110.8074776011613
 30
0.0
 11
111.8866047629204
 21
110.8074776011613
 31
0.0
  0
LINE
  5
466
  8
2
 10
109.8866047629206
 20
111.3848278698807
 30
0.0
 11
111.8866047629204
 21
111.3848278698807
 31
0.0
  0
LINE
  5
467
  8
2
 10
111.8866047629203
 20
109.0754267950028
 30
0.0
 11
112.5532714290442
 21
110.2301273324418
 31
0.0
  0
LINE
  5
468
  8
2
 10
111.8866047629204
 20
111.3848278698807
 30
0.0
 11
112.5532714290442
 21
110.2301273324418
 31
0.0
  0
LINE
  5
469
  8
2
 10
115.4656047629194
 20
108.6091273324342
 30
0.0
 11
118.8866047629204
 21
108.6091273324342
 31
0.0
  0
LINE
  5
46A
  8
2
 10
118.8866047629204
 20
108.6091273324341
 30
0.0
 11
118.8866047629204
 21
111.85112733244949
 31
0.0
  0
LINE
  5
46B
  8
2
 10
109.8866047629204
 20
107.8801273324419
 30
0.0
 11
110.5866047629205
 21
108.5801273324418
 31
0.0
  0
LINE
  5
46C
  8
2
 10
110.5866047629205
 20
108.5801273324418
 30
0.0
 11
110.5866047629205
 21
111.8801273324419
 31
0.0
  0
LINE
  5
46D
  8
2
 10
110.5866047629205
 20
111.8801273324419
 30
0.0
 11
109.8866047629204
 21
112.5801273324418
 31
0.0
  0
LINE
  5
46E
  8
2
 10
115.4656047629194
 20
111.85112733244939
 30
0.0
 11
118.8866047629204
 21
111.85112733244949
 31
0.0
  0
LINE
  5
46F
  8
1
 10
121.3866047629204
 20
110.2301273324417
 30
0.0
 11
107.3866047629204
 21
110.2301273324418
 31
0.0
  0
CIRCLE
  5
470
  8
0
 10
62.38660476292057
 20
130.23012733244201
 30
0.0
 40
2.3500000000000001
  0
CIRCLE
  5
471
  8
0
 10
62.386604762920463
 20
110.230127332442
 30
0.0
 40
2.3500000000000001
  0
LINE
  5
472
  8
0
 10
61.231904225481571
 20
130.2301273324419
 30
0.0
 11
61.809254494671002
 21
131.23012733244181
 31
0.0
  0
LINE
  5
473
  8
0
 10
61.809254494200673
 20
129.23012733325581
 30
0.0
 11
61.231904225010908
 21
130.23012733325581
 31
0.0
  0
LINE
  5
474
  8
0
 10
62.963955031639891
 20
129.23012733325581
 30
0.0
 11
61.80925449326071
 21
129.23012733325581
 31
0.0
  0
LINE
  5
475
  8
0
 10
63.541305300359561
 20
130.2301273324419
 30
0.0
 11
62.963955031170151
 21
129.2301273324419
 31
0.0
  0
LINE
  5
476
  8
0
 10
62.963955031640459
 20
131.2301273316269
 30
0.0
 11
63.541305300830231
 21
130.23012733162781
 31
0.0
  0
LINE
  5
477
  8
0
 10
61.809254494200559
 20
131.23012733162781
 30
0.0
 11
62.963955032579747
 21
131.23012733162781
 31
0.0
  0
CIRCLE
  5
478
  8
0
 10
62.38660476292057
 20
130.23012733244201
 30
0.0
 40
2.0
  0
CIRCLE
  5
479
  8
3
 10
62.38660476292057
 20
130.23012733244201
 30
0.0
 40
1.6209999999999991
  0
LINE
  5
47A
  8
0
 10
61.231904225481451
 20
110.2301273324418
 30
0.0
 11
61.809254494670881
 21
111.2301273324418
 31
0.0
  0
LINE
  5
47B
  8
0
 10
61.809254494200559
 20
109.23012733325589
 30
0.0
 11
61.231904225010787
 21
110.23012733325589
 31
0.0
  0
LINE
  5
47C
  8
0
 10
62.963955031639777
 20
109.23012733325589
 30
0.0
 11
61.809254493260603
 21
109.23012733325589
 31
0.0
  0
LINE
  5
47D
  8
0
 10
63.541305300359447
 20
110.2301273324418
 30
0.0
 11
62.96395503117003
 21
109.2301273324418
 31
0.0
  0
LINE
  5
47E
  8
0
 10
62.963955031640353
 20
111.2301273316269
 30
0.0
 11
63.541305300830111
 21
110.2301273316278
 31
0.0
  0
LINE
  5
47F
  8
0
 10
61.809254494200438
 20
111.2301273316278
 30
0.0
 11
62.963955032579626
 21
111.2301273316278
 31
0.0
  0
CIRCLE
  5
480
  8
0
 10
62.386604762920463
 20
110.230127332442
 30
0.0
 40
2.0
  0
CIRCLE
  5
481
  8
3
 10
62.386604762920463
 20
110.230127332442
 30
0.0
 40
1.6209999999999991
  0
LINE
  5
482
  8
1
 10
57.53660476292054
 20
130.23012733244209
 30
0.0
 11
67.236604762920479
 21
130.23012733244209
 31
0.0
  0
LINE
  5
483
  8
1
 10
57.53660476292049
 20
110.23012733244209
 30
0.0
 11
67.236604762920479
 21
110.23012733244209
 31
0.0
  0
LINE
  5
484
  8
1
 10
62.386604762920463
 20
94.230127332441924
 30
0.0
 11
62.386604762920463
 21
146.23012733244181
 31
0.0
  0
ARC
  5
485
  8
0
 10
71.386604762920456
 20
140.23012733244181
 30
0.0
 40
1.0
 50
0.0
 51
90.0
  0
ARC
  5
486
  8
0
 10
53.386604762920513
 20
140.23012733244181
 30
0.0
 40
1.0
 50
90.0
 51
180.0
  0
ARC
  5
487
  8
0
 10
71.386604762920456
 20
100.2301273324418
 30
0.0
 40
1.0
 50
270.0
 51
0.0
  0
ARC
  5
488
  8
0
 10
53.386604762920513
 20
100.2301273324418
 30
0.0
 40
1.0
 50
180.0
 51
270.0
  0
LINE
  5
489
  8
0
 10
71.386604762920456
 20
99.230127332441924
 30
0.0
 11
53.386604762920449
 21
99.230127332441924
 31
0.0
  0
LINE
  5
48A
  8
0
 10
72.386604762920456
 20
140.23012733244181
 30
0.0
 11
72.386604762920456
 21
100.2301273324418
 31
0.0
  0
LINE
  5
48B
  8
0
 10
53.386604762920449
 20
141.23012733244181
 30
0.0
 11
71.386604762920456
 21
141.23012733244181
 31
0.0
  0
LINE
  5
48C
  8
0
 10
52.38660476292057
 20
100.2301273324418
 30
0.0
 11
52.386604762920058
 21
140.23012733244181
 31
0.0
  0
LINE
  5
48D
  8
3
 10
72.386604762920456
 20
137.23012733244181
 30
0.0
 11
52.386604762920513
 21
137.23012733244181
 31
0.0
  0
LINE
  5
48E
  8
3
 10
72.386604762920456
 20
103.2301273324419
 30
0.0
 11
52.386604762920513
 21
103.2301273324419
 31
0.0
  0
CIRCLE
  5
48F
  8
0
 10
126.8866047629204
 20
135.23012733244181
 30
0.0
 40
4.5
  0
CIRCLE
  5
490
  8
0
 10
126.8866047629204
 20
105.2301273324418
 30
0.0
 40
4.5
  0
CIRCLE
  5
491
  8
0
 10
126.8866047629204
 20
105.2301273324418
 30
0.0
 40
4.0
  0
CIRCLE
  5
492
  8
0
 10
126.8866047629204
 20
105.2301273324418
 30
0.0
 40
2.25
  0
LINE
  5
493
  8
1
 10
133.8866047629204
 20
105.2301273324418
 30
0.0
 11
119.8866047629204
 21
105.2301273324418
 31
0.0
  0
LINE
  5
494
  8
3
 10
113.8866047629204
 20
178.97886467397069
 30
0.0
 11
113.8866047629204
 21
198.9788646739708
 31
0.0
  0
LINE
  5
495
  8
3
 10
150.8866047629204
 20
178.97886467397069
 30
0.0
 11
150.8866047629204
 21
198.9788646739708
 31
0.0
  0
ARC
  5
496
  8
0
 10
153.8866047629204
 20
197.9788646739708
 30
0.0
 40
1.0
 50
0.0
 51
90.0
  0
ARC
  5
497
  8
0
 10
153.8866047629204
 20
179.97886467397069
 30
0.0
 40
1.0
 50
270.0
 51
0.0
  0
ARC
  5
498
  8
0
 10
110.8866047629204
 20
197.9788646739708
 30
0.0
 40
1.0
 50
90.0
 51
180.0
  0
ARC
  5
499
  8
0
 10
110.8866047629204
 20
179.97886467397069
 30
0.0
 40
1.0
 50
180.0
 51
270.0
  0
LINE
  5
49A
  8
0
 10
109.8866047629204
 20
197.9788646739708
 30
0.0
 11
109.8866047629204
 21
179.97886467397069
 31
0.0
  0
LINE
  5
49B
  8
0
 10
153.8866047629204
 20
198.9788646739708
 30
0.0
 11
110.8866047629204
 21
198.9788646739708
 31
0.0
  0
LINE
  5
49C
  8
0
 10
154.8866047629204
 20
179.97886467397069
 30
0.0
 11
154.8866047629204
 21
197.9788646739708
 31
0.0
  0
LINE
  5
49D
  8
0
 10
110.8866047629204
 20
178.97886467397069
 30
0.0
 11
153.8866047629204
 21
178.97886467397069
 31
0.0
  0
LINE
  5
49E
  8
1
 10
146.98660476292079
 20
125.2301273324418
 30
0.0
 11
146.98660476292079
 21
115.2301273324418
 31
0.0
  0
CIRCLE
  5
49F
  8
0
 10
146.98660476292079
 20
120.2301273324418
 30
0.0
 40
2.0
  0
CIRCLE
  5
4A0
  8
0
 10
146.98660476292079
 20
120.2301273324418
 30
0.0
 40
2.5
  0
LINE
  5
4A1
  8
3
 10
136.8866047629204
 20
116.2301273324418
 30
0.0
 11
139.8866047629204
 21
116.2301273324418
 31
0.0
  0
ARC
  5
4A2
  8
3
 10
136.8866047629204
 20
116.7301273324418
 30
0.0
 40
0.5
 50
180.0
 51
270.0
  0
LINE
  5
4A3
  8
3
 10
136.3866047629204
 20
123.7301273324418
 30
0.0
 11
136.3866047629204
 21
116.7301273324418
 31
0.0
  0
ARC
  5
4A4
  8
3
 10
136.8866047629204
 20
123.7301273324418
 30
0.0
 40
0.5
 50
90.0
 51
180.0
  0
LINE
  5
4A5
  8
3
 10
139.8866047629204
 20
124.2301273324418
 30
0.0
 11
136.8866047629204
 21
124.2301273324418
 31
0.0
  0
ARC
  5
4A6
  8
3
 10
139.8866047629204
 20
123.7301273324418
 30
0.0
 40
0.5
 50
0.0
 51
90.0
  0
LINE
  5
4A7
  8
3
 10
140.3866047629204
 20
116.7301273324418
 30
0.0
 11
140.3866047629204
 21
123.7301273324418
 31
0.0
  0
ARC
  5
4A8
  8
3
 10
139.8866047629204
 20
116.7301273324418
 30
0.0
 40
0.5
 50
270.0
 51
0.0
  0
ARC
  5
4A9
  8
3
 10
137.8866047629204
 20
123.03012733244169
 30
0.0
 40
0.200000000000017
 50
90.0
 51
180.0
  0
LINE
  5
4AA
  8
3
 10
137.68660476292041
 20
123.03012733244169
 30
0.0
 11
137.68660476292041
 21
119.6301273324418
 31
0.0
  0
ARC
  5
4AB
  8
3
 10
137.48660476292059
 20
119.6301273324418
 30
0.0
 40
0.200000000000017
 50
270.0
 51
0.0
  0
LINE
  5
4AC
  8
3
 10
137.48660476292059
 20
119.4301273324417
 30
0.0
 11
137.23301492443429
 21
119.4301273324417
 31
0.0
  0
ARC
  5
4AD
  8
3
 10
137.23301492443429
 20
119.2301273324418
 30
0.0
 40
0.1999999999999886
 50
90.0
 51
210.00000000000779
  0
LINE
  5
4AE
  8
3
 10
137.05980984367719
 20
119.1301273324418
 30
0.0
 11
138.21339968216361
 21
117.1320511210884
 31
0.0
  0
ARC
  5
4AF
  8
3
 10
138.3866047629204
 20
117.2320511210884
 30
0.0
 40
0.2000000000000229
 50
210.00000000000779
 51
329.99999999998209
  0
LINE
  5
4B0
  8
3
 10
138.5598098436773
 20
117.1320511210884
 30
0.0
 11
139.71339968216361
 21
119.1301273324418
 31
0.0
  0
ARC
  5
4B1
  8
3
 10
139.5401946014066
 20
119.2301273324418
 30
0.0
 40
0.1999999999999886
 50
329.99999999999221
 51
90.0
  0
LINE
  5
4B2
  8
3
 10
139.5401946014066
 20
119.4301273324417
 30
0.0
 11
139.28660476292049
 21
119.4301273324417
 31
0.0
  0
ARC
  5
4B3
  8
3
 10
139.28660476292049
 20
119.6301273324418
 30
0.0
 40
0.200000000000017
 50
180.0
 51
270.0
  0
LINE
  5
4B4
  8
3
 10
139.0866047629205
 20
119.6301273324418
 30
0.0
 11
139.0866047629205
 21
123.03012733244169
 31
0.0
  0
ARC
  5
4B5
  8
3
 10
138.8866047629204
 20
123.03012733244169
 30
0.0
 40
0.200000000000017
 50
0.0
 51
90.0
  0
LINE
  5
4B6
  8
3
 10
138.8866047629204
 20
123.2301273324418
 30
0.0
 11
137.8866047629204
 21
123.2301273324418
 31
0.0
  0
LINE
  5
4B7
  8
3
 10
219.7940086830381
 20
103.2301273324418
 30
0.0
 11
239.79400868303799
 21
103.2301273324418
 31
0.0
  0
LINE
  5
4B8
  8
3
 10
219.7940086830381
 20
137.2301273324417
 30
0.0
 11
239.79400868303799
 21
137.2301273324417
 31
0.0
  0
LINE
  5
4B9
  8
0
 10
239.79400868303799
 20
100.2301273324418
 30
0.0
 11
239.79400868303799
 21
140.2301273324417
 31
0.0
  0
LINE
  5
4BA
  8
0
 10
238.7940086830381
 20
141.23012733244181
 30
0.0
 11
220.79400868303799
 21
141.23012733244181
 31
0.0
  0
LINE
  5
4BB
  8
0
 10
219.7940086830381
 20
140.2301273324417
 30
0.0
 11
219.7940086830381
 21
100.2301273324418
 31
0.0
  0
LINE
  5
4BC
  8
0
 10
220.79400868303799
 20
99.230127332441853
 30
0.0
 11
238.7940086830381
 21
99.230127332441853
 31
0.0
  0
ARC
  5
4BD
  8
0
 10
238.7940086830381
 20
100.2301273324418
 30
0.0
 40
1.0
 50
270.0
 51
0.0
  0
ARC
  5
4BE
  8
0
 10
220.79400868303799
 20
100.2301273324418
 30
0.0
 40
1.0
 50
180.0
 51
270.0
  0
ARC
  5
4BF
  8
0
 10
238.7940086830381
 20
140.2301273324417
 30
0.0
 40
1.0
 50
0.0
 51
90.0
  0
ARC
  5
4C0
  8
0
 10
220.79400868303799
 20
140.2301273324417
 30
0.0
 40
1.0
 50
90.0
 51
180.0
  0
LINE
  5
4C1
  8
1
 10
229.79400868303799
 20
94.230127332441825
 30
0.0
 11
229.79400868303799
 21
146.23012733244181
 31
0.0
  0
LINE
  5
4C2
  8
0
 10
235.0440086830379
 20
104.2301273324418
 30
0.0
 11
235.0440086830379
 21
136.2301273324417
 31
0.0
  0
LINE
  5
4C3
  8
0
 10
224.54400868303799
 20
104.2301273324418
 30
0.0
 11
224.54400868303799
 21
136.2301273324417
 31
0.0
  0
LINE
  5
4C4
  8
1
 10
214.79400868303799
 20
120.2301273324418
 30
0.0
 11
244.7940086830381
 21
120.2301273324418
 31
0.0
  0
LINE
  5
4C5
  8
0
 10
224.54400868303799
 20
136.2301273324417
 30
0.0
 11
235.0440086830379
 21
136.2301273324417
 31
0.0
  0
LINE
  5
4C6
  8
0
 10
224.54400868303799
 20
104.2301273324418
 30
0.0
 11
235.0440086830379
 21
104.2301273324418
 31
0.0
  0
LINE
  5
4C7
  8
0
 10
226.0440086830381
 20
130.73012733244181
 30
0.0
 11
233.5440086830379
 21
130.73012733244181
 31
0.0
  0
LINE
  5
4C8
  8
0
 10
226.0440086830381
 20
128.23012733244181
 30
0.0
 11
233.5440086830379
 21
128.23012733244181
 31
0.0
  0
LINE
  5
4C9
  8
0
 10
224.5440086830379
 20
126.2301273324418
 30
0.0
 11
226.0440086830381
 21
126.2301273324418
 31
0.0
  0
LINE
  5
4CA
  8
0
 10
224.5440086830379
 20
127.2301273324418
 30
0.0
 11
226.0440086830381
 21
127.2301273324418
 31
0.0
  0
LINE
  5
4CB
  8
0
 10
224.5440086830379
 20
113.2301273324417
 30
0.0
 11
224.79400868303799
 21
113.2301273324417
 31
0.0
  0
LINE
  5
4CC
  8
0
 10
224.5440086830379
 20
114.2301273324417
 30
0.0
 11
224.79400868303799
 21
114.2301273324417
 31
0.0
  0
LINE
  5
4CD
  8
0
 10
235.0440086830381
 20
127.2301273324418
 30
0.0
 11
233.54400868303799
 21
127.2301273324418
 31
0.0
  0
LINE
  5
4CE
  8
0
 10
235.0440086830381
 20
126.2301273324418
 30
0.0
 11
233.54400868303799
 21
126.2301273324418
 31
0.0
  0
LINE
  5
4CF
  8
0
 10
235.0440086830381
 20
114.2301273324417
 30
0.0
 11
234.79400868303679
 21
114.2301273324417
 31
0.0
  0
LINE
  5
4D0
  8
0
 10
235.0440086830381
 20
113.2301273324417
 30
0.0
 11
234.79400868303671
 21
113.2301273324417
 31
0.0
  0
LINE
  5
4D1
  8
0
 10
233.5440086830379
 20
125.38977476250381
 30
0.0
 11
233.5440086830379
 21
130.73012733244181
 31
0.0
  0
LINE
  5
4D2
  8
0
 10
226.0440086830381
 20
125.3897737931546
 30
0.0
 11
226.0440086830381
 21
130.73012733244181
 31
0.0
  0
ARC
  5
4D3
  8
5
 10
171.73534210444981
 20
95.481389990912447
 30
0.0
 40
4.0000000000000124
 50
186.17038670990999
 51
83.829613290093164
  0
ARC
  5
4D4
  8
5
 10
163.78168889974441
 20
94.621505871230809
 30
0.0
 40
4.0000000000000071
 50
6.170386709910078
 51
52.316832215680058
  0
ARC
  5
4D5
  8
5
 10
172.5952262241313
 20
103.43504319561769
 30
0.0
 40
3.9999999999999978
 50
217.68316778432001
 51
263.82961329009322
  0
LINE
  5
4D6
  8
5
 10
154.8866047629204
 20
119.8177485690218
 30
0.0
 11
169.42961361709939
 21
100.9898649153689
 31
0.0
  0
LINE
  5
4D7
  8
5
 10
166.22686717999341
 20
97.787118478262784
 30
0.0
 11
154.8866047629204
 21
106.5465488940235
 31
0.0
  0
LINE
  5
4D8
  8
1
 10
146.98660476292071
 20
120.2301273324417
 30
0.0
 11
176.3315361821623
 21
90.885195913199937
 31
0.0
  0
LINE
  5
4D9
  8
1
 10
146.98660476292071
 20
120.2301273324417
 30
0.0
 11
187.0725265539171
 21
109.48913696068701
 31
0.0
  0
LINE
  5
4DA
  8
0
 10
174.87066521867411
 20
110.4140427359
 30
0.0
 11
154.8866047629204
 21
113.110015763924
 31
0.0
  0
LINE
  5
4DB
  8
3
 10
154.8866047629204
 20
114.11907457009499
 30
0.0
 11
175.00436026966449
 21
111.4050652549885
 31
0.0
  0
LINE
  5
4DC
  8
3
 10
175.6632238275086
 20
113.8639775281186
 30
0.0
 11
154.8866047629204
 21
122.3922212558216
 31
0.0
  0
LINE
  5
4DD
  8
0
 10
154.8866047629204
 20
123.47318757596931
 30
0.0
 11
176.04295177653501
 21
114.789075730867
 31
0.0
  0
ARC
  5
4DE
  8
0
 10
177.5618635726405
 20
118.4894685418604
 30
0.0
 40
3.9999999999999978
 50
247.68316778431981
 51
293.8296132900914
  0
ARC
  5
4DF
  8
3
 10
177.5618635726405
 20
118.4894685418604
 30
0.0
 40
5.0000000000000027
 50
247.68316778431981
 51
293.8296132900914
  0
ARC
  5
4E0
  8
3
 10
180.7940086830381
 20
111.1714607538534
 30
0.0
 40
3.0000000000000031
 50
216.1703867099111
 51
113.8296132900913
  0
ARC
  5
4E1
  8
3
 10
174.3358850147126
 20
106.4499526595454
 30
0.0
 40
5.0000000000000009
 50
36.170386709911071
 51
82.316832215679568
  0
ARC
  5
4E2
  8
0
 10
174.3358850147126
 20
106.4499526595454
 30
0.0
 40
4.0000000000000071
 50
36.170386709911071
 51
82.316832215679568
  0
ARC
  5
4E3
  8
0
 10
180.7940086830381
 20
111.1714607538534
 30
0.0
 40
4.0000000000000124
 50
216.1703867099111
 51
113.8296132900913
  0
ARC
  5
4E4
  8
5
 10
171.7353421044499
 20
144.9788646739708
 30
0.0
 40
4.0000000000000124
 50
276.17038670991008
 51
173.82961329009311
  0
ARC
  5
4E5
  8
5
 10
172.59522622413161
 20
137.0252114692654
 30
0.0
 40
4.0000000000000071
 50
96.170386709910076
 51
142.31683221567999
  0
ARC
  5
4E6
  8
5
 10
163.78168889974469
 20
145.8387487936524
 30
0.0
 40
3.9999999999999978
 50
307.68316778432001
 51
353.82961329009322
  0
LINE
  5
4E7
  8
5
 10
154.8866047629204
 20
133.91370577085991
 30
0.0
 11
166.22686717999349
 21
142.6731361866205
 31
0.0
  0
LINE
  5
4E8
  8
5
 10
169.42961361709959
 20
139.47038974951431
 30
0.0
 11
154.8866047629204
 21
120.64250609586161
 31
0.0
  0
LINE
  5
4E9
  8
1
 10
146.98660476292071
 20
120.2301273324417
 30
0.0
 11
176.33153618216249
 21
149.57505875168329
 31
0.0
  0
LINE
  5
4EA
  8
0
 10
179.17793612783939
 20
184.978864673971
 30
0.0
 11
179.581954266639
 21
183.9788646739708
 31
0.0
  0
LINE
  5
4EB
  8
0
 10
176.04295177653489
 20
184.9788646739708
 30
0.0
 11
175.66322382750889
 21
183.9788646739708
 31
0.0
  0
LINE
  5
4EC
  8
0
 10
176.04295177653489
 20
192.9788646739708
 30
0.0
 11
175.66322382750889
 21
193.97886467397069
 31
0.0
  0
LINE
  5
4ED
  8
0
 10
179.17793612783959
 20
192.97886467397049
 30
0.0
 11
179.581954266639
 21
193.97886467397069
 31
0.0
  0
LINE
  5
4EE
  8
0
 10
183.7940086830381
 20
183.9788646739708
 30
0.0
 11
154.8866047629204
 21
183.97886467397069
 31
0.0
  0
LINE
  5
4EF
  8
0
 10
183.7940086830381
 20
193.97886467397069
 30
0.0
 11
154.8866047629204
 21
193.9788646739708
 31
0.0
  0
ARC
  5
4F0
  8
0
 10
183.7940086830381
 20
192.97886467397069
 30
0.0
 40
1.0
 50
0.0
 51
90.0
  0
LINE
  5
4F1
  8
0
 10
179.17793612783959
 20
192.97886467397049
 30
0.0
 11
179.17793612783939
 21
184.978864673971
 31
0.0
  0
LINE
  5
4F2
  8
0
 10
184.7940086830381
 20
184.97886467397069
 30
0.0
 11
184.7940086830381
 21
192.97886467397069
 31
0.0
  0
ARC
  5
4F3
  8
0
 10
183.7940086830381
 20
184.97886467397069
 30
0.0
 40
1.0
 50
270.0
 51
0.0
  0
LINE
  5
4F4
  8
0
 10
176.04295177653489
 20
184.9788646739708
 30
0.0
 11
176.04295177653489
 21
192.9788646739708
 31
0.0
  0
LINE
  5
4F5
  8
1
 10
104.8866047629204
 20
188.9788646739708
 30
0.0
 11
187.2940086830383
 21
188.9788646739708
 31
0.0
  0
LINE
  5
4F6
  8
0
 10
177.56494684887531
 20
47.481389990912469
 30
0.0
 11
178.37221230741611
 21
46.481389990912362
 31
0.0
  0
LINE
  5
4F7
  8
0
 10
177.56494684887551
 20
55.481389990912248
 30
0.0
 11
178.37221230741611
 21
56.481389990912248
 31
0.0
  0
LINE
  5
4F8
  8
0
 10
177.56494684887551
 20
55.481389990912248
 30
0.0
 11
177.56494684887531
 21
47.481389990912469
 31
0.0
  0
ARC
  5
4F9
  8
0
 10
183.7940086830381
 20
47.481389990912241
 30
0.0
 40
1.0
 50
270.0
 51
0.0
  0
LINE
  5
4FA
  8
0
 10
184.7940086830381
 20
47.481389990912241
 30
0.0
 11
184.7940086830381
 21
55.481389990912248
 31
0.0
  0
ARC
  5
4FB
  8
0
 10
183.7940086830381
 20
55.481389990912248
 30
0.0
 40
1.0
 50
0.0
 51
90.0
  0
LINE
  5
4FC
  8
0
 10
183.7940086830381
 20
56.481389990912248
 30
0.0
 11
154.8866047629204
 21
56.481389990912362
 31
0.0
  0
LINE
  5
4FD
  8
0
 10
183.7940086830381
 20
46.481389990912362
 30
0.0
 11
154.8866047629204
 21
46.481389990912362
 31
0.0
  0
LINE
  5
4FE
  8
0
 10
232.2940086371232
 20
125.3897746009456
 30
0.0
 11
233.79400855379151
 21
125.38977479481539
 31
0.0
  0
ARC
  5
4FF
  8
0
 10
233.79400868303799
 20
114.1714607538534
 30
0.0
 40
1.0
 50
0.0
 51
90.0
  0
LINE
  5
500
  8
0
 10
233.79400868303799
 20
115.1714607538534
 30
0.0
 11
225.79400868303799
 21
115.1714607538534
 31
0.0
  0
ARC
  5
501
  8
0
 10
225.79400868303799
 20
114.1714607538534
 30
0.0
 40
1.0
 50
90.0
 51
180.0
  0
ARC
  5
502
  8
0
 10
225.79400868303819
 20
108.1714607538534
 30
0.0
 40
1.0
 50
180.0
 51
270.0
  0
LINE
  5
503
  8
0
 10
233.79400868303819
 20
107.1714607538534
 30
0.0
 11
225.79400868303819
 21
107.1714607538534
 31
0.0
  0
ARC
  5
504
  8
0
 10
233.79400868303819
 20
108.1714607538534
 30
0.0
 40
1.0
 50
270.0
 51
0.0
  0
POLYLINE
  5
505
  8
0
 66
     1
 10
0.0
 20
0.0
 30
0.0
 70
   128
  0
VERTEX
  5
617
  8
0
 10
227.7941429313245
 20
126.2301272190162
 30
0.0
  0
VERTEX
  5
618
  8
0
 10
227.6961789723459
 20
126.2204633503207
 30
0.0
  0
VERTEX
  5
619
  8
0
 10
227.60200712606041
 20
126.19179351618379
 30
0.0
  0
VERTEX
  5
61A
  8
0
 10
227.5152774784687
 20
126.1452297157594
 30
0.0
  0
VERTEX
  5
61B
  8
0
 10
227.43935163840379
 20
126.0825759208747
 30
0.0
  0
VERTEX
  5
61C
  8
0
 10
227.37717305086281
 20
126.006260555143
 30
0.0
  0
VERTEX
  5
61D
  8
0
 10
227.3311512801769
 20
125.91924289604511
 30
0.0
  0
VERTEX
  5
61E
  8
0
 10
227.30307074039899
 20
125.8248947969624
 30
0.0
  0
VERTEX
  5
61F
  8
0
 10
227.2940087389174
 20
125.72997160618991
 30
0.0
  0
SEQEND
  5
620
  8
0
  0
LINE
  5
506
  8
0
 10
227.29400872895289
 20
125.38977395471279
 30
0.0
 11
227.2940087389174
 21
125.7183542883941
 31
0.0
  0
LINE
  5
507
  8
0
 10
227.7941428644906
 20
126.23012733476109
 30
0.0
 11
231.7941591600017
 21
126.2301273301225
 31
0.0
  0
POLYLINE
  5
508
  8
0
 66
     1
 10
0.0
 20
0.0
 30
0.0
 70
   128
  0
VERTEX
  5
621
  8
0
 10
232.29400862715869
 20
125.72997160618991
 30
0.0
  0
VERTEX
  5
622
  8
0
 10
232.2849533777657
 20
125.82485987236591
 30
0.0
  0
VERTEX
  5
623
  8
0
 10
232.25689286142321
 20
125.91917677214229
 30
0.0
  0
VERTEX
  5
624
  8
0
 10
232.2109032213661
 20
126.0061716138372
 30
0.0
  0
VERTEX
  5
625
  8
0
 10
232.14876584484901
 20
126.0824748723754
 30
0.0
  0
VERTEX
  5
626
  8
0
 10
232.0728877350661
 20
126.1451305299052
 30
0.0
  0
VERTEX
  5
627
  8
0
 10
231.98620744757079
 20
126.1917115597972
 30
0.0
  0
VERTEX
  5
628
  8
0
 10
231.8920826330754
 20
126.2204144558856
 30
0.0
  0
VERTEX
  5
629
  8
0
 10
231.79415918662869
 20
126.2301272190162
 30
0.0
  0
SEQEND
  5
62A
  8
0
  0
LINE
  5
509
  8
0
 10
232.2940086371232
 20
125.3897746009456
 30
0.0
 11
232.29400862715869
 21
125.7183542883941
 31
0.0
  0
ARC
  5
50A
  8
0
 10
233.79400868303819
 20
124.38977479481539
 30
0.0
 40
1.0
 50
0.0
 51
90.000007405283952
  0
ARC
  5
50B
  8
0
 10
225.79400868303799
 20
124.38977479481549
 30
0.0
 40
1.0
 50
89.999992594716048
 51
180.0
  0
LINE
  5
50C
  8
0
 10
234.7940086830381
 20
124.3897747948153
 30
0.0
 11
234.794008683036
 21
108.1714607538533
 31
0.0
  0
LINE
  5
50D
  8
0
 10
224.79400868303819
 20
108.1714607538534
 30
0.0
 11
224.79400868303799
 21
124.38977479481549
 31
0.0
  0
LINE
  5
50E
  8
0
 10
225.79544658855551
 20
125.38977376102891
 30
0.0
 11
227.29400872895289
 21
125.38977395471279
 31
0.0
  0
LINE
  5
50F
  8
2
 10
71.886604762920456
 20
113.2301273324417
 30
0.0
 11
52.886604762920513
 21
113.2301273324417
 31
0.0
  0
LINE
  5
510
  8
2
 10
71.886604762920456
 20
113.2301273324417
 30
0.0
 11
72.386604762920456
 21
112.7301273324417
 31
0.0
  0
LINE
  5
511
  8
2
 10
52.886604762920513
 20
113.2301273324417
 30
0.0
 11
52.386604762920513
 21
112.7301273324417
 31
0.0
  0
TEXT
  5
5EA
  8
0
 62
     3
 10
0.0
 20
0.0
 30
0.0
 40
10.0
  1
QSC14S
  7
STANDARD1
  0
ENDSEC
  0
EOF
