  0
SECTION
  2
HEADER
  9
$ACADVER
  1
AC1009
  9
$INSBASE
 10
0.0
 20
0.0
 30
0.0
  9
$EXTMIN
 10
0.0
 20
-2.960436562073669
 30
0.0
  9
$EXTMAX
 10
608.37149472857232
 20
479.93652004997892
 30
0.0
  9
$LIMMIN
 10
0.0
 20
0.0
  9
$LIMMAX
 10
0.0
 20
0.0
  9
$ORTHOMODE
 70
     0
  9
$REGENMODE
 70
     1
  9
$FILLMODE
 70
     1
  9
$QTEXTMODE
 70
     0
  9
$MIRRTEXT
 70
     1
  9
$DRAGMODE
 70
     2
  9
$LTSCALE
 40
10.0
  9
$OSMODE
 70
  3071
  9
$ATTMODE
 70
     1
  9
$TEXTSIZE
 40
0.2
  9
$TRACEWID
 40
0.05
  9
$TEXTSTYLE
  7
STANDARD
  9
$CLAYER
  8
0
  9
$CELTYPE
  6
BYLAYER
  9
$CECOLOR
 62
     4
  9
$DIMSCALE
 40
1.0
  9
$DIMASZ
 40
0.0
  9
$DIMEXO
 40
0.0
  9
$DIMDLI
 40
0.38
  9
$DIMRND
 40
0.0
  9
$DIMDLE
 40
0.0
  9
$DIMEXE
 40
0.18
  9
$DIMTP
 40
0.0
  9
$DIMTM
 40
0.0
  9
$DIMTXT
 40
3.5
  9
$DIMCEN
 40
0.09
  9
$DIMTSZ
 40
0.0
  9
$DIMTOL
 70
     0
  9
$DIMLIM
 70
     0
  9
$DIMTIH
 70
     0
  9
$DIMTOH
 70
     0
  9
$DIMSE1
 70
     0
  9
$DIMSE2
 70
     0
  9
$DIMTAD
 70
     1
  9
$DIMZIN
 70
     8
  9
$DIMBLK
  1

  9
$DIMASO
 70
     1
  9
$DIMSHO
 70
     1
  9
$DIMPOST
  1

  9
$DIMAPOST
  1

  9
$DIMALT
 70
     0
  9
$DIMALTD
 70
     2
  9
$DIMALTF
 40
0.0394
  9
$DIMLFAC
 40
1.0
  9
$DIMTOFL
 70
     0
  9
$DIMTVP
 40
0.0
  9
$DIMTIX
 70
     0
  9
$DIMSOXD
 70
     0
  9
$DIMSAH
 70
     0
  9
$DIMBLK1
  1

  9
$DIMBLK2
  1

  9
$DIMSTYLE
  2
STANDARD
  9
$DIMCLRD
 70
   256
  9
$DIMCLRE
 70
     0
  9
$DIMCLRT
 70
   256
  9
$DIMTFAC
 40
1.0
  9
$DIMGAP
 40
0.0
  9
$LUNITS
 70
     2
  9
$LUPREC
 70
     2
  9
$SKETCHINC
 40
0.1
  9
$FILLETRAD
 40
0.5
  9
$AUNITS
 70
     0
  9
$AUPREC
 70
     2
  9
$MENU
  1
acad
  9
$ELEVATION
 40
0.0
  9
$PELEVATION
 40
0.0
  9
$THICKNESS
 40
0.0
  9
$LIMCHECK
 70
     0
  9
$BLIPMODE
 70
     0
  9
$CHAMFERA
 40
0.0
  9
$CHAMFERB
 40
0.0
  9
$SKPOLY
 70
     0
  9
$TDCREATE
 40
2444972.375
  9
$TDUPDATE
 40
2456598.4304665509
  9
$TDINDWG
 40
0.2608691319
  9
$TDUSRTIMER
 40
0.2608691319
  9
$USRTIMER
 70
     1
  9
$ANGBASE
 50
0.0
  9
$ANGDIR
 70
     0
  9
$PDMODE
 70
     0
  9
$PDSIZE
 40
-1.0
  9
$PLINEWID
 40
0.0
  9
$COORDS
 70
     1
  9
$SPLFRAME
 70
     0
  9
$SPLINETYPE
 70
     6
  9
$SPLINESEGS
 70
     8
  9
$ATTDIA
 70
     0
  9
$ATTREQ
 70
     1
  9
$HANDLING
 70
     1
  9
$HANDSEED
  5
3BAE
  9
$SURFTAB1
 70
     6
  9
$SURFTAB2
 70
     6
  9
$SURFTYPE
 70
     6
  9
$SURFU
 70
     6
  9
$SURFV
 70
     6
  9
$UCSNAME
  2

  9
$UCSORG
 10
0.0
 20
0.0
 30
0.0
  9
$UCSXDIR
 10
1.0
 20
0.0
 30
0.0
  9
$UCSYDIR
 10
0.0
 20
1.0
 30
0.0
  9
$PUCSNAME
  2

  9
$PUCSORG
 10
0.0
 20
0.0
 30
0.0
  9
$PUCSXDIR
 10
1.0
 20
0.0
 30
0.0
  9
$PUCSYDIR
 10
0.0
 20
1.0
 30
0.0
  9
$USERI1
 70
     0
  9
$USERI2
 70
     0
  9
$USERI3
 70
     0
  9
$USERI4
 70
     0
  9
$USERI5
 70
     0
  9
$USERR1
 40
0.0
  9
$USERR2
 40
0.0
  9
$USERR3
 40
0.0
  9
$USERR4
 40
0.0
  9
$USERR5
 40
0.0
  9
$WORLDVIEW
 70
     1
  9
$SHADEDGE
 70
     3
  9
$SHADEDIF
 70
    70
  9
$TILEMODE
 70
     1
  9
$MAXACTVP
 70
    16
  9
$PLIMCHECK
 70
     0
  9
$PEXTMIN
 10
1.0000000000000000E+020
 20
1.0000000000000000E+020
 30
1.0000000000000000E+020
  9
$PEXTMAX
 10
-1.0000000000000000E+020
 20
-1.0000000000000000E+020
 30
-1.0000000000000000E+020
  9
$PLIMMIN
 10
0.0
 20
0.0
  9
$PLIMMAX
 10
12.0
 20
9.0
  9
$UNITMODE
 70
     0
  9
$VISRETAIN
 70
     0
  9
$PLINEGEN
 70
     1
  9
$PSLTSCALE
 70
     1
  0
ENDSEC
  0
SECTION
  2
TABLES
  0
TABLE
  2
VPORT
 70
     1
  0
VPORT
  2
*ACTIVE
 70
     0
 10
0.0
 20
0.0
 11
1.0
 21
1.0
 12
304.18574878076168
 22
266.54843413957627
 13
0.0
 23
0.0
 14
1.0
 24
1.0
 15
0.0
 25
0.0
 16
0.0
 26
0.0
 36
1.0
 17
0.0
 27
0.0
 37
0.0
 40
545.82806262344775
 41
2.304913294797688
 42
50.0
 43
0.0
 44
0.0
 50
0.0
 51
0.0
 71
     0
 72
  2000
 73
     1
 74
     1
 75
     0
 76
     0
 77
     0
 78
     0
  0
ENDTAB
  0
TABLE
  2
LTYPE
 70
     3
  0
LTYPE
  2
CONTINUOUS
 70
     0
  3
Solid line
 72
    65
 73
     0
 40
0.0
  0
LTYPE
  2
CENTER
 70
     0
  3
Center ____ _ ____ _ ____ _ ____ _ ____ _ ____
 72
    65
 73
     4
 40
2.0
 49
1.25
 49
-0.25
 49
0.25
 49
-0.25
  0
LTYPE
  2
PHANTOM2
 70
     0
  3
___ _ _ ___ _ _ ___ _ _ ___ _ _
 72
    65
 73
     6
 40
1.25
 49
0.625
 49
-0.125
 49
0.125
 49
-0.125
 49
0.125
 49
-0.125
  0
ENDTAB
  0
TABLE
  2
LAYER
 70
     4
  0
LAYER
  2
0
 70
     0
 62
     7
  6
CONTINUOUS
  0
LAYER
  2
DEFPOINTS
 70
     0
 62
     7
  6
CONTINUOUS
  0
LAYER
  2
1
 70
     0
 62
     1
  6
CENTER
  0
LAYER
  2
3
 70
     0
 62
     3
  6
CONTINUOUS
  0
ENDTAB
  0
TABLE
  2
STYLE
 70
     2
  0
STYLE
  2
STANDARD
 70
     0
 40
0.0
 41
1.0
 50
0.0
 71
     0
 42
0.2
  3
monotxt.shx
  4

  0
STYLE
  2
STANDARD1
 70
     0
 40
0.0
 41
1.0
 50
0.0
 71
     0
 42
3.0
  3
txt
  4

  0
ENDTAB
  0
TABLE
  2
VIEW
 70
     0
  0
ENDTAB
  0
TABLE
  2
UCS
 70
     0
  0
ENDTAB
  0
TABLE
  2
APPID
 70
     3
  0
APPID
  2
ACAD
 70
     0
  0
APPID
  2
ACAD_MLEADERVER
 70
     0
  0
APPID
  2
ACAD_NAV_VCDISPLAY
 70
     0
  0
ENDTAB
  0
TABLE
  2
DIMSTYLE
 70
     1
  0
DIMSTYLE
  2
STANDARD
 70
     0
  3

  4

  5

  6

  7

 40
1.0
 41
0.18
 42
0.0625
 43
0.38
 44
0.18
 45
0.0
 46
0.0
 47
0.0
 48
0.0
140
0.18
141
0.09
142
0.0
143
25.399999999999999
144
1.0
145
0.0
146
1.0
147
0.09
 71
     0
 72
     0
 73
     1
 74
     1
 75
     0
 76
     0
 77
     0
 78
     0
170
     0
171
     2
172
     0
173
     0
174
     0
175
     0
176
     0
177
     0
178
     0
  0
ENDTAB
  0
ENDSEC
  0
SECTION
  2
BLOCKS
  0
BLOCK
  8
0
  2
$MODEL_SPACE
 70
     0
 10
0.0
 20
0.0
 30
0.0
  3
$MODEL_SPACE
  1

  0
ENDBLK
  5
E
  8
0
  0
BLOCK
 67
     1
  8
0
  2
$PAPER_SPACE
 70
     0
 10
0.0
 20
0.0
 30
0.0
  3
$PAPER_SPACE
  1

  0
ENDBLK
  5
10
 67
     1
  8
0
  0
ENDSEC
  0
SECTION
  2
ENTITIES
  0
LINE
  5
18C9
  8
0
 10
389.95790375005339
 20
277.84354811171579
 30
0.0
 11
389.94065193068133
 21
277.84354811171579
 31
0.0
  0
LINE
  5
18CA
  8
0
 10
419.5210513247165
 20
277.84354811171579
 30
0.0
 11
419.50379950534438
 21
277.84354811171579
 31
0.0
  0
LINE
  5
18CC
  8
0
 10
390.73085119556532
 20
287.34354501227432
 30
0.0
 11
395.73085201512907
 21
287.34354501227432
 31
0.0
  0
LINE
  5
18CE
  8
0
 10
413.73085124026869
 20
287.34354501227432
 30
0.0
 11
418.73085205983261
 21
287.34354501227432
 31
0.0
  0
LINE
  5
18D1
  8
0
 10
413.73085124026869
 20
285.34354840973913
 30
0.0
 11
395.73085201512907
 21
285.34354840973913
 31
0.0
  0
LINE
  5
18D4
  8
0
 10
419.5210513247165
 20
279.84355216483169
 30
0.0
 11
389.94065193068133
 21
279.84355216483169
 31
0.0
  0
LINE
  5
18D5
  8
0
 10
419.5210513247165
 20
277.84354811171579
 30
0.0
 11
419.5210513247165
 21
279.84355216483169
 31
0.0
  0
LINE
  5
18D6
  8
0
 10
419.73085129242281
 20
277.84354811171579
 30
0.0
 11
419.5210513247165
 21
277.84354811171579
 31
0.0
  0
LINE
  5
18D7
  8
0
 10
389.94065193068133
 20
277.84354811171579
 30
0.0
 11
389.73085196297512
 21
277.84354811171579
 31
0.0
  0
LINE
  5
18D8
  8
0
 10
389.94065193068133
 20
277.84354811171579
 30
0.0
 11
389.94065193068133
 21
279.84355216483169
 31
0.0
  0
LINE
  5
18DB
  8
0
 10
372.7308501077805
 20
223.84354857365179
 30
0.0
 11
436.73085162769888
 21
223.84354846934369
 31
0.0
  0
LINE
  5
18DF
  8
0
 10
390.2308520449314
 20
226.84354813406759
 30
0.0
 11
419.23085121046643
 21
226.84354813406759
 31
0.0
  0
LINE
  5
18EA
  8
0
 10
436.73085314761732
 20
211.84354846934369
 30
0.0
 11
372.7308501077805
 21
211.84354846934369
 31
0.0
  0
LINE
  5
18ED
  8
0
 10
419.23085121046643
 20
229.84354769448331
 30
0.0
 11
390.2308520449314
 21
229.84354769448331
 31
0.0
  0
LINE
  5
18FD
  8
0
 10
419.50379950534438
 20
277.34354709843689
 30
0.0
 11
419.73085129242281
 21
277.34354709843689
 31
0.0
  0
LINE
  5
18FE
  8
0
 10
419.50379950534438
 20
277.34354709843689
 30
0.0
 11
419.5037995053446
 21
279.84355216483169
 31
0.0
  0
LINE
  5
1900
  8
0
 10
389.95790375005339
 20
279.84355216483169
 30
0.0
 11
389.95790375005339
 21
277.34354709843689
 31
0.0
  0
LINE
  5
1901
  8
0
 10
389.73085196297512
 20
277.34354709843689
 30
0.0
 11
389.95790375005339
 21
277.34354709843689
 31
0.0
  0
ARC
  5
1977
  8
0
 10
415.73085162769888
 20
227.8435484693436
 30
0.0
 40
1.0
 50
180.0
 51
270.0
  0
ARC
  5
1978
  8
0
 10
393.73085162769888
 20
227.8435484693436
 30
0.0
 40
1.0
 50
270.0
 51
0.0
  0
ARC
  5
197B
  8
0
 10
372.73085162769888
 20
223.34354846934369
 30
0.0
 40
0.5
 50
90.0
 51
180.0
  0
ARC
  5
1981
  8
0
 10
436.73085162769888
 20
223.34354846934369
 30
0.0
 40
0.5
 50
0.0
 51
90.0
  0
ARC
  5
1983
  8
0
 10
419.23085162769888
 20
230.34354846934369
 30
0.0
 40
0.5
 50
270.0
 51
0.0
  0
ARC
  5
1984
  8
0
 10
390.23085162769888
 20
230.34354846934369
 30
0.0
 40
0.5
 50
180.0
 51
270.0
  0
LINE
  5
1D66
  8
0
 10
128.20674225545179
 20
279.84355216483169
 30
0.0
 11
128.2067422554517
 21
255.84354823092511
 31
0.0
  0
LINE
  5
1D69
  8
0
 10
107.3371761277938
 20
255.84354823092511
 30
0.0
 11
107.3371761277938
 21
279.84355216483169
 31
0.0
  0
LINE
  5
1D70
  8
0
 10
113.77195900163289
 20
255.84354823092511
 30
0.0
 11
107.3371761277938
 21
255.84354823092511
 31
0.0
  0
LINE
  5
1D71
  8
0
 10
128.2067422554517
 20
255.84354823092511
 30
0.0
 11
121.7719593816125
 21
255.84354823092511
 31
0.0
  0
LINE
  5
1DDE
  8
0
 10
121.2719592996561
 20
307.34354829052978
 30
0.0
 11
121.2719592996561
 21
309.76354902247482
 31
0.0
  0
LINE
  5
1DDF
  8
0
 10
114.27195908358929
 20
309.76354902247482
 30
0.0
 11
114.27195908358929
 21
307.34354829052978
 31
0.0
  0
LINE
  5
1DE2
  8
0
 10
132.5621588886404
 20
277.84354811171579
 30
0.0
 11
132.54490706926819
 21
277.84354811171579
 31
0.0
  0
LINE
  5
1DE3
  8
0
 10
102.99901131397721
 20
277.84354811171579
 30
0.0
 11
102.981759494605
 21
277.84354811171579
 31
0.0
  0
LINE
  5
1DE5
  8
0
 10
126.77195880419249
 20
287.34354501227432
 30
0.0
 11
131.7719596237564
 21
287.34354501227432
 31
0.0
  0
LINE
  5
1DE7
  8
0
 10
103.771958759489
 20
287.34354501227432
 30
0.0
 11
108.7719595790529
 21
287.34354501227432
 31
0.0
  0
LINE
  5
1DE8
  8
0
 10
108.7719595790529
 20
286.34355043629699
 30
0.0
 11
108.7719595790529
 21
285.34354840973913
 31
0.0
  0
LINE
  5
1DEB
  8
0
 10
126.77195880419249
 20
286.34355043629699
 30
0.0
 11
126.77195880419249
 21
285.34354840973913
 31
0.0
  0
LINE
  5
1DEC
  8
0
 10
114.6379846878969
 20
285.34354840973913
 30
0.0
 11
108.7719595790529
 21
285.34354840973913
 31
0.0
  0
LINE
  5
1DED
  8
0
 10
126.77195880419249
 20
285.34354840973913
 30
0.0
 11
120.90593369534849
 21
285.34354840973913
 31
0.0
  0
LINE
  5
1DEE
  8
0
 10
102.981759494605
 20
277.84354811171579
 30
0.0
 11
102.7719595268988
 21
277.84354811171579
 31
0.0
  0
LINE
  5
1DEF
  8
0
 10
102.981759494605
 20
277.84354811171579
 30
0.0
 11
102.981759494605
 21
279.84355216483169
 31
0.0
  0
LINE
  5
1DF0
  8
0
 10
132.5621588886404
 20
279.84355216483169
 30
0.0
 11
102.981759494605
 21
279.84355216483169
 31
0.0
  0
LINE
  5
1DF2
  8
0
 10
132.5621588886404
 20
277.84354811171579
 30
0.0
 11
132.5621588886404
 21
279.84355216483169
 31
0.0
  0
LINE
  5
1DF3
  8
0
 10
132.7719588563466
 20
277.84354811171579
 30
0.0
 11
132.5621588886404
 21
277.84354811171579
 31
0.0
  0
LINE
  5
1DF4
  8
0
 10
149.7719607115412
 20
211.84354846934369
 30
0.0
 11
85.771957671704286
 21
211.84354846934369
 31
0.0
  0
LINE
  5
1DF6
  8
0
 10
117.7719591916227
 20
223.84354857365179
 30
0.0
 11
149.7719607115412
 21
223.84354857365179
 31
0.0
  0
LINE
  5
1DF8
  8
0
 10
103.2719596088552
 20
226.84354813406759
 30
0.0
 11
132.27195877439021
 21
226.84354813406759
 31
0.0
  0
LINE
  5
1E05
  8
0
 10
85.771957671704286
 20
223.84354857365179
 30
0.0
 11
117.7719591916227
 21
223.84354857365179
 31
0.0
  0
LINE
  5
1E09
  8
0
 10
102.99901131397721
 20
279.34355115155267
 30
0.0
 11
102.99901131397721
 21
277.34354709843689
 31
0.0
  0
LINE
  5
1E0A
  8
0
 10
102.7719595268988
 20
277.34354709843689
 30
0.0
 11
102.99901131397721
 21
277.34354709843689
 31
0.0
  0
LINE
  5
1E0B
  8
0
 10
132.54490706926819
 20
277.34354709843689
 30
0.0
 11
132.7719588563466
 21
277.34354709843689
 31
0.0
  0
LINE
  5
1E0C
  8
0
 10
132.54490706926819
 20
277.34354709843689
 30
0.0
 11
132.54490706926819
 21
279.84355216483169
 31
0.0
  0
LINE
  5
1E0E
  8
0
 10
132.27195877439021
 20
229.84354769448331
 30
0.0
 11
103.2719596088552
 21
229.84354769448331
 31
0.0
  0
ARC
  5
1E18
  8
0
 10
125.2719591916228
 20
262.34354846934372
 30
0.0
 40
0.5
 50
270.0
 51
0.0
  0
ARC
  5
1E19
  8
0
 10
110.2719591916228
 20
262.34354846934372
 30
0.0
 40
0.5
 50
180.0
 51
270.0
  0
LINE
  5
1E1A
  8
0
 10
125.27195902398481
 20
261.84354921440178
 30
0.0
 11
110.2719593592609
 21
261.84354921440178
 31
0.0
  0
LINE
  5
1E1B
  8
0
 10
125.77195957160239
 20
279.84355216483169
 30
0.0
 11
125.77195957160239
 21
262.34355022768068
 31
0.0
  0
LINE
  5
1E1D
  8
0
 10
109.7719588116432
 20
279.84355216483169
 30
0.0
 11
109.7719588116432
 21
262.34355022768068
 31
0.0
  0
LINE
  5
1E3B
  8
0
 10
120.7719591916227
 20
288.84354565354772
 30
0.0
 11
114.7719591916227
 21
288.84354565354772
 31
0.0
  0
LINE
  5
1E3F
  8
0
 10
120.7719591916227
 20
285.42090033749628
 30
0.0
 11
114.7719591916229
 21
285.42090033749628
 31
0.0
  0
LINE
  5
1E44
  8
0
 10
124.261190900305
 20
244.34354727725079
 30
0.0
 11
111.261190900305
 21
244.34354727725079
 31
0.0
  0
LINE
  5
1E45
  8
0
 10
124.261190900305
 20
249.8435472474485
 30
0.0
 11
111.261190900305
 21
249.8435472474485
 31
0.0
  0
LINE
  5
1E48
  8
0
 10
121.7719593816125
 20
306.84354727725082
 30
0.0
 11
117.7719591916227
 21
306.84354727725082
 31
0.0
  0
LINE
  5
1E49
  8
0
 10
117.7719591916227
 20
306.84354727725082
 30
0.0
 11
113.77195900163289
 21
306.84354727725082
 31
0.0
  0
LINE
  5
1E4A
  8
0
 10
114.7719591655457
 20
307.84354930380869
 30
0.0
 11
117.7719591916227
 21
307.84354930380869
 31
0.0
  0
LINE
  5
1E4B
  8
0
 10
117.7719591916227
 20
307.84354930380869
 30
0.0
 11
120.7719592176997
 21
307.84354930380869
 31
0.0
  0
ARC
  5
1EC1
  8
0
 10
128.7719591916227
 20
227.84354846934369
 30
0.0
 40
1.0
 50
180.0
 51
270.0
  0
ARC
  5
1EC2
  8
0
 10
106.7719591916227
 20
227.84354846934369
 30
0.0
 40
1.0
 50
270.0
 51
0.0
  0
ARC
  5
1EC5
  8
0
 10
149.7719591916227
 20
223.34354846934369
 30
0.0
 40
0.5
 50
0.0
 51
90.0
  0
ARC
  5
1ECC
  8
0
 10
85.771959191622727
 20
223.34354846934369
 30
0.0
 40
0.5
 50
90.0
 51
180.0
  0
ARC
  5
1ECF
  8
0
 10
132.2719591916227
 20
230.34354846934369
 30
0.0
 40
0.5
 50
270.0
 51
0.0
  0
ARC
  5
1ED0
  8
0
 10
103.2719591916227
 20
230.34354846934369
 30
0.0
 40
0.5
 50
180.0
 51
270.0
  0
ARC
  5
1F54
  8
0
 10
117.7719591916227
 20
284.84354565354772
 30
0.0
 40
5.0
 50
53.130102354155319
 51
126.8698976458447
  0
POINT
  5
2231
  8
0
 10
201.0995980489765
 20
442.43652005197549
 30
0.0
  0
ARC
  5
22A4
  8
0
 10
246.0995980489765
 20
442.43652005197549
 30
0.0
 40
15.00000000000002
 50
143.13010235415601
 51
216.86989764584661
  0
ARC
  5
22A6
  8
0
 10
246.0995980489765
 20
442.43652005197538
 30
0.0
 40
15.00000000000002
 50
216.86989764584661
 51
323.13010235415601
  0
ARC
  5
22A8
  8
0
 10
246.0995980489765
 20
442.43652005197538
 30
0.0
 40
15.00000000000002
 50
36.86989764584402
 51
143.13010235415601
  0
ARC
  5
22AB
  8
0
 10
246.0995980489765
 20
442.43652005197572
 30
0.0
 40
28.199999999999999
 50
260.00000000000142
 51
279.99999999999858
  0
ARC
  5
22AC
  8
0
 10
250.2671543129828
 20
418.80113397968262
 30
0.0
 40
4.2000000000000011
 50
279.99999999999858
 51
99.999999999998607
  0
ARC
  5
22AD
  8
0
 10
246.0995980489765
 20
442.43652005197572
 30
0.0
 40
19.800000000000001
 50
260.00000000000142
 51
279.99999999999858
  0
ARC
  5
22AE
  8
0
 10
241.9320417849701
 20
418.80113397968262
 30
0.0
 40
4.2000000000000064
 50
80.000000000001407
 51
260.00000000000142
  0
ARC
  5
22AF
  8
0
 10
246.0995980489765
 20
424.93652005197561
 30
0.0
 40
15.00000000000003
 50
180.0
 51
0.0
  0
LINE
  5
22B0
  8
0
 10
261.0995977137004
 20
433.43652043940591
 30
0.0
 11
261.0995977137004
 21
424.93651997746991
 31
0.0
  0
LINE
  5
22B1
  8
0
 10
231.09959838425269
 20
424.93651997746991
 30
0.0
 11
231.09959838425269
 21
434.29026756884622
 31
0.0
  0
LINE
  5
22B6
  8
0
 10
261.0995977137004
 20
459.93652012648153
 30
0.0
 11
261.0995977137004
 21
451.43651966454547
 31
0.0
  0
LINE
  5
22B7
  8
0
 10
231.09959838425269
 20
450.58277253510522
 30
0.0
 11
231.09959838425269
 21
459.93652012648153
 31
0.0
  0
ARC
  5
22B8
  8
0
 10
246.0995980489765
 20
442.43652005197572
 30
0.0
 40
19.800000000000001
 50
80.000000000001407
 51
99.999999999998607
  0
ARC
  5
22B9
  8
0
 10
250.2671543129828
 20
466.07190612426859
 30
0.0
 40
4.2000000000000011
 50
260.00000000000142
 51
80.000000000001407
  0
ARC
  5
22BA
  8
0
 10
241.9320417849701
 20
466.07190612426859
 30
0.0
 40
4.2000000000000064
 50
99.999999999998607
 51
279.99999999999858
  0
ARC
  5
22BB
  8
0
 10
246.0995980489765
 20
442.43652005197572
 30
0.0
 40
28.199999999999999
 50
80.000000000001407
 51
99.999999999998607
  0
ARC
  5
22C0
  8
0
 10
246.0995980489765
 20
459.93652005197561
 30
0.0
 40
15.00000000000003
 50
0.0
 51
180.0
  0
ARC
  5
22C1
  8
0
 10
229.5768864071182
 20
426.43652005197549
 30
0.0
 40
8.0
 50
44.079209847889757
 51
90.0
  0
LINE
  5
22C2
  8
0
 10
229.5768869060789
 20
434.43651967199588
 30
0.0
 11
209.0995975721394
 21
434.43651967199588
 31
0.0
  0
LINE
  5
22C3
  8
0
 10
214.18028050430709
 20
438.23652020173222
 30
0.0
 11
217.09959888344159
 21
438.23652020173222
 31
0.0
  0
LINE
  5
22C4
  8
0
 10
217.09959888344159
 20
446.63651990221882
 30
0.0
 11
214.1802805043074
 21
446.63651990221882
 31
0.0
  0
ARC
  5
22C5
  8
0
 10
217.0995980489765
 20
442.43652005197549
 30
0.0
 40
4.1999999999999877
 50
270.0
 51
90.0
  0
ARC
  5
22C6
  8
0
 10
209.0995980489765
 20
442.43652005197549
 30
0.0
 40
8.0
 50
90.0
 51
270.0
  0
LINE
  5
22C7
  8
0
 10
209.0995975721394
 20
450.4365204319551
 30
0.0
 11
229.5768869060789
 21
450.4365204319551
 31
0.0
  0
ARC
  5
22C8
  8
0
 10
229.5768864071182
 20
458.43652005197538
 30
0.0
 40
8.0000000000000018
 50
270.0
 51
315.9207901521126
  0
LINE
  5
25CC
  8
0
 10
209.0995980340754
 20
279.34355192641323
 30
0.0
 11
209.0995980340754
 21
279.84355293969207
 31
0.0
  0
LINE
  5
2613
  8
0
 10
261.09959724431383
 20
285.34354918459951
 30
0.0
 11
258.09959861522071
 21
285.34354918459951
 31
0.0
  0
LINE
  5
2614
  8
0
 10
258.09959861522071
 20
286.34355121115738
 30
0.0
 11
258.09959861522071
 21
285.34354918459951
 31
0.0
  0
LINE
  5
2615
  8
0
 10
234.09959794094311
 20
286.34355121115738
 30
0.0
 11
234.09959794094311
 21
285.34354918459951
 31
0.0
  0
LINE
  5
2616
  8
0
 10
234.09959794094311
 20
285.34354918459951
 30
0.0
 11
231.0995983805274
 21
285.34354918459951
 31
0.0
  0
LINE
  5
2617
  8
0
 10
261.09959724431383
 20
279.84355293969207
 30
0.0
 11
248.59959798937189
 21
279.84355293969207
 31
0.0
  0
LINE
  5
2618
  8
0
 10
243.5995981011306
 20
279.84355293969207
 30
0.0
 11
233.84396852066271
 21
279.84355293969207
 31
0.0
  0
LINE
  5
2619
  8
0
 10
243.5995981011306
 20
277.84354888657629
 30
0.0
 11
243.5995981011306
 21
279.84355293969207
 31
0.0
  0
LINE
  5
261A
  8
0
 10
248.59959798937189
 20
277.84354888657629
 30
0.0
 11
243.5995981011306
 21
277.84354888657629
 31
0.0
  0
LINE
  5
261B
  8
0
 10
248.59959798937189
 20
277.84354888657629
 30
0.0
 11
248.59959798937189
 21
279.84355293969207
 31
0.0
  0
LINE
  5
261F
  8
0
 10
235.375792990229
 20
287.34354578713481
 30
0.0
 11
256.82340356593483
 21
287.34354578713481
 31
0.0
  0
LINE
  5
2623
  8
0
 10
231.59959846248381
 20
226.8435482104361
 30
0.0
 11
260.59959809368002
 21
226.8435482104361
 31
0.0
  0
LINE
  5
2627
  8
0
 10
231.59959846248381
 20
223.84354841718971
 30
0.0
 11
231.0995983805274
 21
223.84354841718971
 31
0.0
  0
LINE
  5
262A
  8
0
 10
231.59959846248381
 20
223.84354841718971
 30
0.0
 11
261.0995972443136
 21
223.84354841718971
 31
0.0
  0
LINE
  5
262B
  8
0
 10
231.0995983805272
 20
226.34354812847971
 30
0.0
 11
231.0995983805274
 21
212.34354839483791
 31
0.0
  0
LINE
  5
262C
  8
0
 10
261.09959724431371
 20
226.3435481284796
 30
0.0
 11
261.09959724431383
 21
212.34354839483791
 31
0.0
  0
LINE
  5
262D
  8
0
 10
231.0995983805274
 20
212.34354839483791
 30
0.0
 11
231.59959846248381
 21
211.8435492442041
 31
0.0
  0
LINE
  5
262E
  8
0
 10
260.59959809368002
 20
211.8435492442041
 30
0.0
 11
231.59959846248381
 21
211.8435492442041
 31
0.0
  0
LINE
  5
262F
  8
0
 10
261.09959724431383
 20
212.34354839483791
 30
0.0
 11
260.59959809368002
 21
211.8435492442041
 31
0.0
  0
LINE
  5
263C
  8
0
 10
201.599595873407
 20
279.84355293969207
 30
0.0
 11
229.57688736801489
 21
279.84355293969207
 31
0.0
  0
LINE
  5
263E
  8
0
 10
225.09959887564969
 20
261.84354998926221
 30
0.0
 11
201.599595873407
 21
261.84354998926221
 31
0.0
  0
LINE
  5
2642
  8
0
 10
229.57688736801489
 20
279.84355293969207
 30
0.0
 11
233.84396852066271
 21
279.84355293969207
 31
0.0
  0
LINE
  5
2652
  8
0
 10
260.59959993933529
 20
229.84354769448331
 30
0.0
 11
231.59959846248381
 21
229.84354769448331
 31
0.0
  0
CIRCLE
  5
2672
  8
0
 10
246.0995989659792
 20
298.76354679557318
 30
0.0
 40
7.4999999694718236
  0
CIRCLE
  5
2673
  8
0
 10
246.0995967551207
 20
298.76354697926541
 30
0.0
 40
2.3499999519613741
  0
LINE
  5
2674
  8
0
 10
247.23913501088961
 20
298.95006769160329
 30
0.0
 11
246.5078381735598
 21
299.8436754272372
 31
0.0
  0
LINE
  5
2675
  8
0
 10
246.5078381735598
 20
299.8436754272372
 30
0.0
 11
245.36830074226009
 21
299.65715759257381
 31
0.0
  0
CIRCLE
  5
2676
  8
0
 10
246.0995984036629
 20
298.76354961358618
 30
0.0
 40
2.0000014670793171
  0
LINE
  5
2677
  8
0
 10
244.9600610796129
 20
298.57703202227651
 30
0.0
 11
245.69135791694271
 21
297.68342428664272
 31
0.0
  0
LINE
  5
2678
  8
0
 10
245.69135791694271
 20
297.68342428664272
 30
0.0
 11
246.83089534824239
 21
297.86994212130611
 31
0.0
  0
LINE
  5
2679
  8
0
 10
246.83089534824239
 20
297.86994212130611
 30
0.0
 11
247.23913501088961
 21
298.95006769160329
 31
0.0
  0
LINE
  5
267A
  8
0
 10
245.36830074226009
 20
299.65715759257381
 30
0.0
 11
244.9600610796129
 21
298.57703202227651
 31
0.0
  0
LINE
  5
267B
  8
0
 10
212.09959666316851
 20
288.8435488269717
 30
0.0
 11
206.1001414347206
 21
288.8435488269717
 31
0.0
  0
LINE
  5
267C
  8
0
 10
212.09959666316851
 20
285.42090111235677
 30
0.0
 11
206.1001414347206
 21
285.42090111235677
 31
0.0
  0
LINE
  5
267D
  8
0
 10
216.60378742103919
 20
249.84354802230891
 30
0.0
 11
212.97562102859371
 21
249.84354802230891
 31
0.0
  0
LINE
  5
267E
  8
0
 10
216.60378742103919
 20
244.3435471207886
 30
0.0
 11
212.97562102859371
 21
244.3435471207886
 31
0.0
  0
LINE
  5
267F
  8
0
 10
216.60378742103919
 20
244.3435471207886
 30
0.0
 11
216.60378742103919
 21
249.84354802230891
 31
0.0
  0
LINE
  5
2680
  8
0
 10
212.97562102859371
 20
249.84354802230891
 30
0.0
 11
205.47142791633951
 21
249.84354802230891
 31
0.0
  0
LINE
  5
2681
  8
0
 10
212.97562102859371
 20
244.3435471207886
 30
0.0
 11
205.47142791633951
 21
244.3435471207886
 31
0.0
  0
LINE
  5
2682
  8
0
 10
212.97562102859371
 20
244.3435471207886
 30
0.0
 11
212.97562102859371
 21
249.84354802230891
 31
0.0
  0
LINE
  5
2683
  8
0
 10
205.47142791633951
 20
249.84354802230891
 30
0.0
 11
201.5954086471115
 21
249.84354802230891
 31
0.0
  0
LINE
  5
2684
  8
0
 10
201.5954086471115
 20
244.3435471207886
 30
0.0
 11
201.5954086471115
 21
249.84354802230891
 31
0.0
  0
LINE
  5
2685
  8
0
 10
205.47142791633951
 20
244.3435471207886
 30
0.0
 11
201.5954086471115
 21
244.3435471207886
 31
0.0
  0
LINE
  5
2686
  8
0
 10
205.47142791633951
 20
244.3435471207886
 30
0.0
 11
205.47142791633951
 21
249.84354802230891
 31
0.0
  0
LINE
  5
2687
  8
0
 10
201.599595873407
 20
261.84354998926221
 30
0.0
 11
201.59712228064879
 21
261.84354998926221
 31
0.0
  0
LINE
  5
2691
  8
0
 10
204.44058793669089
 20
279.84355293969207
 30
0.0
 11
204.43648639207231
 21
279.84355293969207
 31
0.0
  0
LINE
  5
2697
  8
0
 10
204.4515887189423
 20
279.84355293969207
 30
0.0
 11
204.44058793669089
 21
279.84355293969207
 31
0.0
  0
ARC
  5
269E
  8
0
 10
257.09959924447662
 20
227.8435491675173
 30
0.0
 40
1.0000009570814981
 50
179.9999920843552
 51
269.9999545548244
  0
ARC
  5
269F
  8
0
 10
235.09959731168721
 20
227.8435491675173
 30
0.0
 40
1.00000095708152
 50
270.00004544517549
 51
0.0000079156415437
  0
ARC
  5
26A9
  8
0
 10
201.59959533865239
 20
262.3435504677866
 30
0.0
 40
0.5000004785246989
 50
179.99993872169799
 51
270.0000612782955
  0
ARC
  5
26AA
  8
0
 10
225.09959502283999
 20
255.84354663157569
 30
0.0
 40
6.000003357687703
 50
0.0000226720213176
 51
89.9999639877622
  0
ARC
  5
26AF
  8
0
 10
260.59959993933529
 20
230.3435449994723
 30
0.0
 40
0.4999973049923934
 50
269.99978850233799
 51
0.0004270221077432
  0
ARC
  5
26B0
  8
0
 10
231.59959727536599
 20
230.3435465893252
 30
0.0
 40
0.4999988948432896
 50
179.99975516337659
 51
270.00013603396479
  0
ARC
  5
26DB
  8
0
 10
209.0995971027528
 20
284.8435602784931
 30
0.0
 40
4.9999905750364606
 50
53.130027648963882
 51
126.8699723510361
  0
CIRCLE
  5
2B39
  8
0
 10
246.09931543580501
 20
442.43652005197532
 30
0.0
 40
4.0
  0
LINE
  5
2B3A
  8
1
 10
196.0995980489765
 20
442.43652005197549
 30
0.0
 11
331.09931543580427
 21
442.43652005197549
 31
0.0
  0
LINE
  5
2B3D
  8
1
 10
258.59959893545079
 20
298.76354961358618
 30
0.0
 11
233.59959899650769
 21
298.76354961358618
 31
0.0
  0
LINE
  5
2B45
  8
0
 10
246.0993154358039
 20
437.93652005197538
 30
0.0
 11
233.89106543580399
 21
437.93652005197549
 31
0.0
  0
LINE
  5
2B46
  8
0
 10
246.0993154358039
 20
446.93652005197538
 30
0.0
 11
233.89106543580399
 21
446.93652005197549
 31
0.0
  0
LINE
  5
2B47
  8
0
 10
234.36714488909411
 20
451.43652005197538
 30
0.0
 11
286.0993154358041
 21
451.43652005197538
 31
0.0
  0
LINE
  5
2B48
  8
0
 10
234.36714488909411
 20
433.43652005197538
 30
0.0
 11
286.0993154358041
 21
433.43652005197538
 31
0.0
  0
CIRCLE
  5
2B4A
  8
3
 10
246.09931543580501
 20
442.43652005197532
 30
0.0
 40
3.3999999999998352
  0
LINE
  5
2B4B
  8
0
 10
253.5993154358041
 20
432.43652005197538
 30
0.0
 11
238.5993154358041
 21
432.43652005197538
 31
0.0
  0
LINE
  5
2B4C
  8
0
 10
253.5993154358041
 20
452.43652005197549
 30
0.0
 11
238.5993154358041
 21
452.43652005197549
 31
0.0
  0
POLYLINE
  5
2B4D
  8
0
 66
     1
 10
0.0
 20
0.0
 30
0.0
 70
   128
  0
VERTEX
  5
3A92
  8
0
 10
259.72554235665621
 20
294.18367260438089
 30
0.0
  0
VERTEX
  5
3A93
  8
0
 10
258.75862599838911
 20
292.20591320401388
 30
0.0
  0
VERTEX
  5
3A94
  8
0
 10
257.50958962246631
 20
290.41508291221987
 30
0.0
  0
VERTEX
  5
3A95
  8
0
 10
256.01367741763647
 20
288.84947059961269
 30
0.0
  0
VERTEX
  5
3A96
  8
0
 10
254.26939653231079
 20
287.5191268382423
 30
0.0
  0
VERTEX
  5
3A97
  8
0
 10
253.9438125131486
 20
287.34354578713481
 30
0.0
  0
SEQEND
  5
3A98
  8
0
  0
LINE
  5
2B5A
  8
1
 10
100.7963772182008
 20
298.76354846934368
 30
0.0
 11
134.77195957905269
 21
298.76354846934368
 31
0.0
  0
POLYLINE
  5
2B5D
  8
0
 66
     1
 10
0.0
 20
0.0
 30
0.0
 70
   128
  0
VERTEX
  5
3A99
  8
0
 10
105.96308742551631
 20
313.76354846934368
 30
0.0
  0
VERTEX
  5
3A9A
  8
0
 10
105.81696668573601
 20
313.71941789189049
 30
0.0
  0
VERTEX
  5
3A9B
  8
0
 10
105.77474035469081
 20
313.61809152884859
 30
0.0
  0
VERTEX
  5
3A9C
  8
0
 10
105.7719595781242
 20
313.53341148308022
 30
0.0
  0
SEQEND
  5
3A9D
  8
0
  0
POLYLINE
  5
2B5F
  8
0
 66
     1
 10
0.0
 20
0.0
 30
0.0
 70
   128
  0
VERTEX
  5
3A9E
  8
0
 10
106.0443429334034
 20
313.04906003900498
 30
0.0
  0
VERTEX
  5
3A9F
  8
0
 10
105.85105339252149
 20
313.28463618352521
 30
0.0
  0
VERTEX
  5
3AA0
  8
0
 10
105.7719595781242
 20
313.53341148308022
 30
0.0
  0
SEQEND
  5
3AA1
  8
0
  0
LINE
  5
2B60
  8
0
 10
105.7719595781243
 20
313.53341148307982
 30
0.0
 11
105.7719591916228
 21
298.76354846934368
 31
0.0
  0
LINE
  5
2B62
  8
0
 10
126.7719595790529
 20
309.75621703042708
 30
0.0
 11
126.7719595790529
 21
285.34704846934369
 31
0.0
  0
LINE
  5
2B63
  8
0
 10
122.2719595790529
 20
309.79008337504149
 30
0.0
 11
122.2719595790529
 21
285.34704846934369
 31
0.0
  0
LINE
  5
2B64
  8
0
 10
108.7719595790529
 20
309.75621703042708
 30
0.0
 11
108.7719595790529
 21
285.34704846934369
 31
0.0
  0
LINE
  5
2B65
  8
0
 10
113.2719595790529
 20
309.79008337504149
 30
0.0
 11
113.2719595790529
 21
285.34704846934369
 31
0.0
  0
LINE
  5
2B66
  8
0
 10
129.7719595790528
 20
298.55013292401179
 30
0.0
 11
129.7719595790528
 21
313.53341148304241
 31
0.0
  0
POLYLINE
  5
2B70
  8
0
 66
     1
 10
0.0
 20
0.0
 30
0.0
 70
   128
  0
VERTEX
  5
3AA2
  8
0
 10
121.1719595790529
 20
306.26354846934379
 30
0.0
  0
VERTEX
  5
3AA3
  8
0
 10
121.000995690157
 20
306.18760896255202
 30
0.0
  0
VERTEX
  5
3AA4
  8
0
 10
120.5159607165113
 20
305.98985750247903
 30
0.0
  0
VERTEX
  5
3AA5
  8
0
 10
119.7272077401487
 20
305.72867555874188
 30
0.0
  0
VERTEX
  5
3AA6
  8
0
 10
119.2246598158543
 20
305.60462572208712
 30
0.0
  0
VERTEX
  5
3AA7
  8
0
 10
118.6560693545929
 20
305.50681548876429
 30
0.0
  0
VERTEX
  5
3AA8
  8
0
 10
118.1061759404719
 20
305.45695571649668
 30
0.0
  0
VERTEX
  5
3AA9
  8
0
 10
117.5252003600035
 20
305.45315907925112
 30
0.0
  0
VERTEX
  5
3AAA
  8
0
 10
116.5255287362714
 20
305.56381242347351
 30
0.0
  0
VERTEX
  5
3AAB
  8
0
 10
115.633391494818
 20
305.78234277113859
 30
0.0
  0
VERTEX
  5
3AAC
  8
0
 10
114.88381231773739
 20
306.04581422960291
 30
0.0
  0
VERTEX
  5
3AAD
  8
0
 10
114.6201706685594
 20
306.1543382333885
 30
0.0
  0
VERTEX
  5
3AAE
  8
0
 10
114.4436534355367
 20
306.23132067964627
 30
0.0
  0
VERTEX
  5
3AAF
  8
0
 10
114.37529132431079
 20
306.26203866622819
 30
0.0
  0
VERTEX
  5
3AB0
  8
0
 10
114.3811953482633
 20
306.25937123021612
 30
0.0
  0
SEQEND
  5
3AB1
  8
0
  0
ARC
  5
2B71
  8
0
 10
117.7723537582818
 20
284.39933460718811
 30
0.0
 40
7.6599446265641546
 50
63.652389722386708
 51
116.2771209678034
  0
LINE
  5
2B75
  8
0
 10
107.7719595790529
 20
306.26354846934379
 30
0.0
 11
107.7719595790529
 21
291.26354846934368
 31
0.0
  0
LINE
  5
2B76
  8
0
 10
107.7719595790529
 20
291.26354846934368
 30
0.0
 11
108.7719595790529
 21
291.26354846934368
 31
0.0
  0
LINE
  5
2B79
  8
0
 10
113.2719595790529
 20
291.26354846934368
 30
0.0
 11
114.3811953482633
 21
291.26354846934368
 31
0.0
  0
LINE
  5
2B7D
  8
0
 10
108.7719595790529
 20
306.26354846934379
 30
0.0
 11
107.7719595790529
 21
306.26354846934379
 31
0.0
  0
LINE
  5
2B7E
  8
0
 10
114.3811953482633
 20
306.26354846934379
 30
0.0
 11
113.2719595790529
 21
306.26354846934379
 31
0.0
  0
LINE
  5
2B81
  8
0
 10
127.7719595790529
 20
306.26354846934379
 30
0.0
 11
127.7719595790529
 21
291.26354846934368
 31
0.0
  0
LINE
  5
2B82
  8
0
 10
121.1719595790529
 20
291.26354846934368
 30
0.0
 11
122.2719595790529
 21
291.26354846934368
 31
0.0
  0
LINE
  5
2B83
  8
0
 10
126.7719595790529
 20
291.26354846934368
 30
0.0
 11
127.7719595790529
 21
291.26354846934368
 31
0.0
  0
LINE
  5
2B84
  8
0
 10
122.2719595790529
 20
306.26354846934379
 30
0.0
 11
121.1719595790529
 21
306.26354846934379
 31
0.0
  0
LINE
  5
2B86
  8
0
 10
127.7719595790529
 20
306.26354846934379
 30
0.0
 11
126.7719595790529
 21
306.26354846934379
 31
0.0
  0
ARC
  5
2B89
  8
0
 10
134.89690780403609
 20
305.54919074476493
 30
0.0
 40
9.2400880736040758
 50
125.7409329321797
 51
151.55984472329021
  0
LINE
  5
2B8A
  8
0
 10
129.6013539231451
 20
313.76354846934368
 30
0.0
 11
105.96308742551631
 21
313.76354846934368
 31
0.0
  0
LINE
  5
2B8B
  8
0
 10
113.2719595790529
 20
309.76354846934368
 30
0.0
 11
122.2719595790529
 21
309.76354846934368
 31
0.0
  0
LINE
  5
2B8C
  8
0
 10
113.2719595790529
 20
309.79008337504149
 30
0.0
 11
108.7719595790529
 21
309.79008337504149
 31
0.0
  0
ARC
  5
2B8D
  8
0
 10
100.64701135407481
 20
305.54919074476959
 30
0.0
 40
9.2400880735972066
 50
28.440155276701141
 51
54.25906706782839
  0
LINE
  5
2B8E
  8
0
 10
108.7719595790528
 20
309.76354846934368
 30
0.0
 11
108.7719595790528
 21
309.94969571002753
 31
0.0
  0
LINE
  5
2B8F
  8
0
 10
126.7719595790529
 20
309.79008337504149
 30
0.0
 11
122.2719595790529
 21
309.79008337504149
 31
0.0
  0
LINE
  5
2B90
  8
0
 10
126.7719595790528
 20
309.76354846934368
 30
0.0
 11
126.7719595790528
 21
309.94969571002753
 31
0.0
  0
POLYLINE
  5
2B91
  8
0
 66
     1
 10
0.0
 20
0.0
 30
0.0
 70
   128
  0
VERTEX
  5
3AB2
  8
0
 10
129.7719595790528
 20
313.5334114830423
 30
0.0
  0
VERTEX
  5
3AB3
  8
0
 10
129.7617392657553
 20
313.65515351748161
 30
0.0
  0
VERTEX
  5
3AB4
  8
0
 10
129.6214573808017
 20
313.76301916405498
 30
0.0
  0
VERTEX
  5
3AB5
  8
0
 10
129.6013539231451
 20
313.76354846934368
 30
0.0
  0
SEQEND
  5
3AB6
  8
0
  0
POLYLINE
  5
2B92
  8
0
 66
     1
 10
0.0
 20
0.0
 30
0.0
 70
   128
  0
VERTEX
  5
3AB7
  8
0
 10
129.49957622470231
 20
313.04906003900498
 30
0.0
  0
VERTEX
  5
3AB8
  8
0
 10
129.6928657655842
 20
313.28463618352521
 30
0.0
  0
VERTEX
  5
3AB9
  8
0
 10
129.7719595790528
 20
313.53341148304241
 30
0.0
  0
SEQEND
  5
3ABA
  8
0
  0
LINE
  5
2B97
  8
0
 10
233.86714488909411
 20
450.93652005197538
 30
0.0
 11
233.86714488909411
 21
446.93652005197549
 31
0.0
  0
LINE
  5
2B98
  8
0
 10
233.86714488909411
 20
437.93652005197549
 30
0.0
 11
233.86714488909411
 21
433.93652005197538
 31
0.0
  0
LINE
  5
2B9A
  8
0
 10
238.5993154358041
 20
446.93652005197549
 30
0.0
 11
238.5993154358041
 21
437.93652005197538
 31
0.0
  0
LINE
  5
2B9B
  8
0
 10
238.5993154358041
 20
433.43652005197538
 30
0.0
 11
238.5993154358041
 21
432.43652005197538
 31
0.0
  0
LINE
  5
2B9C
  8
0
 10
238.5993154358041
 20
452.43652005197549
 30
0.0
 11
238.5993154358041
 21
451.43652005197538
 31
0.0
  0
ARC
  5
2BB2
  8
0
 10
278.09959840366361
 20
481.76354961358112
 30
0.0
 40
171.9999999999948
 50
272.66588176484822
 51
281.21679179577262
  0
LINE
  5
2BB3
  8
0
 10
302.97508290706583
 20
301.76354961358629
 30
0.0
 11
270.88181918838859
 21
301.76354961358629
 31
0.0
  0
LINE
  5
2BB4
  8
1
 10
246.09959840366301
 20
206.8435492442041
 30
0.0
 11
246.0995984036629
 21
314.76354961358629
 31
0.0
  0
ARC
  5
2BB5
  8
0
 10
270.88181918838859
 20
289.76354961358641
 30
0.0
 40
12.00000000000003
 50
90.0
 51
158.38650205355361
  0
LINE
  5
2BBA
  8
0
 10
246.0995984036629
 20
309.76354961358629
 30
0.0
 11
278.09959840366281
 21
309.76354961358629
 31
0.0
  0
ARC
  5
2BBB
  8
0
 10
278.09959840366281
 20
481.76354961358618
 30
0.0
 40
171.99999999999989
 50
270.0
 51
272.66588176484822
  0
ARC
  5
2BBC
  8
0
 10
316.09826816428148
 20
303.26125617726598
 30
0.0
 40
10.501966338486531
 50
17.762493818072809
 51
102.0083082588625
  0
POLYLINE
  5
2BBD
  8
0
 66
     1
 10
0.0
 20
0.0
 30
0.0
 70
   128
  0
VERTEX
  5
3ABB
  8
0
 10
314.85630485192678
 20
298.07933908727051
 30
0.0
  0
VERTEX
  5
3ABC
  8
0
 10
313.26072325570709
 20
299.07217060530502
 30
0.0
  0
VERTEX
  5
3ABD
  8
0
 10
311.55735376305751
 20
299.9297862539492
 30
0.0
  0
SEQEND
  5
3ABE
  8
0
  0
ARC
  5
2BBE
  8
0
 10
302.97370717352243
 20
280.75711098679392
 30
0.0
 40
21.006438671841469
 50
65.881838294295761
 51
89.996247639730981
  0
ARC
  5
2BBF
  8
0
 10
319.09959840366241
 20
304.26354961358618
 30
0.0
 40
7.5000000000003162
 50
235.5440495387106
 51
338.9605302186863
  0
LINE
  5
2BC0
  8
0
 10
326.09959840366292
 20
301.57096721001898
 30
0.0
 11
326.09959840366292
 21
306.46511173230272
 31
0.0
  0
POLYLINE
  5
2BC1
  8
0
 66
     1
 10
0.0
 20
0.0
 30
0.0
 70
   128
  0
VERTEX
  5
3ABF
  8
0
 10
311.55735376305751
 20
313.04906118324749
 30
0.0
  0
VERTEX
  5
3AC0
  8
0
 10
312.72410006054571
 20
313.28463732776783
 30
0.0
  0
VERTEX
  5
3AC1
  8
0
 10
313.91329703379978
 20
313.53341262728492
 30
0.0
  0
SEQEND
  5
3AC2
  8
0
  0
ARC
  5
2BC2
  8
0
 10
286.0993154358041
 20
571.60318671864115
 30
0.0
 40
120.16666666666571
 50
270.0
 51
282.23100713257389
  0
ARC
  5
2BC3
  8
0
 10
286.09931543580319
 20
313.2698533852996
 30
0.0
 40
120.16666666667589
 50
77.768992867432402
 51
90.0
  0
LINE
  5
2BC4
  8
1
 10
246.0993154358043
 20
479.93652004997892
 30
0.0
 11
246.0993154358043
 21
404.9365200539724
 31
0.0
  0
LINE
  5
2BC5
  8
0
 10
246.0993154358039
 20
446.93652005197538
 30
0.0
 11
258.0993154358041
 21
446.93652005197538
 31
0.0
  0
LINE
  5
2BC6
  8
0
 10
258.0993154358041
 20
437.93652005197538
 30
0.0
 11
246.0993154358039
 21
437.93652005197538
 31
0.0
  0
LINE
  5
2BC8
  8
0
 10
253.5993154358041
 20
437.93652005197538
 30
0.0
 11
253.5993154358041
 21
446.93652005197538
 31
0.0
  0
LINE
  5
2BC9
  8
0
 10
253.5993154358041
 20
432.43652005197538
 30
0.0
 11
253.5993154358041
 21
433.43652005197538
 31
0.0
  0
LINE
  5
2BCA
  8
0
 10
258.0993154358041
 20
446.93652005197538
 30
0.0
 11
258.0993154358041
 21
437.93652005197538
 31
0.0
  0
LINE
  5
2BCC
  8
0
 10
253.5993154358041
 20
451.43652005197538
 30
0.0
 11
253.5993154358041
 21
452.43652005197549
 31
0.0
  0
ARC
  5
2BCD
  8
0
 10
314.0993154358041
 20
442.43652005197549
 30
0.0
 40
12.00000000000005
 50
269.1104407450498
 51
90.889559254950214
  0
POLYLINE
  5
2BCE
  8
0
 66
     1
 10
0.0
 20
0.0
 30
0.0
 70
   128
  0
VERTEX
  5
3AC3
  8
0
 10
311.5570707951988
 20
430.70890340632599
 30
0.0
  0
VERTEX
  5
3AC4
  8
0
 10
312.72381709268689
 20
430.5156138654441
 30
0.0
  0
VERTEX
  5
3AC5
  8
0
 10
313.91301406594113
 20
430.43796631414568
 30
0.0
  0
SEQEND
  5
3AC6
  8
0
  0
POLYLINE
  5
2BCF
  8
0
 66
     1
 10
0.0
 20
0.0
 30
0.0
 70
   128
  0
VERTEX
  5
3AC7
  8
0
 10
311.5570707951988
 20
454.16413669762488
 30
0.0
  0
VERTEX
  5
3AC8
  8
0
 10
312.72381709268689
 20
454.35742623850678
 30
0.0
  0
VERTEX
  5
3AC9
  8
0
 10
313.91301406594113
 20
454.43507378980507
 30
0.0
  0
SEQEND
  5
3ACA
  8
0
  0
LINE
  5
2C33
  8
0
 10
248.0993154358041
 20
432.43652005197561
 30
0.0
 11
248.0993154358041
 21
431.93652005197561
 31
0.0
  0
LINE
  5
2C34
  8
0
 10
244.0993154358041
 20
431.93652005197572
 30
0.0
 11
244.0993154358041
 21
432.43652005197572
 31
0.0
  0
LINE
  5
2C35
  8
0
 10
248.0993154358041
 20
431.93652005197561
 30
0.0
 11
244.0993154358041
 21
431.93652005197572
 31
0.0
  0
ARC
  5
2C36
  8
0
 10
234.36714488909411
 20
450.93652005197538
 30
0.0
 40
0.5
 50
90.0
 51
180.0
  0
ARC
  5
2C37
  8
0
 10
234.36714488909411
 20
433.93652005197538
 30
0.0
 40
0.5
 50
180.0
 51
270.0
  0
LINE
  5
2C51
  8
0
 10
213.09959868972649
 20
256.8435510323435
 30
0.0
 11
213.09959868972649
 21
249.84354802230891
 31
0.0
  0
LINE
  5
2C52
  8
0
 10
205.0995955157791
 20
256.8435510323435
 30
0.0
 11
205.0995955157791
 21
249.84354802230891
 31
0.0
  0
LINE
  5
2C83
  8
0
 10
212.85237479870909
 20
448.93652005197538
 30
0.0
 11
216.60515154844151
 21
442.43652005197561
 31
0.0
  0
LINE
  5
2C85
  8
0
 10
205.34682129924411
 20
448.93652005197538
 30
0.0
 11
212.85237479870901
 21
448.93652005197538
 31
0.0
  0
LINE
  5
2C86
  8
0
 10
201.59404454951141
 20
442.43652005197538
 30
0.0
 11
205.346821299244
 21
435.93652005197538
 31
0.0
  0
LINE
  5
2C87
  8
0
 10
201.59404454951149
 20
442.43652005197532
 30
0.0
 11
205.34682129924411
 21
448.93652005197538
 31
0.0
  0
LINE
  5
2C88
  8
0
 10
205.346821299244
 20
435.93652005197538
 30
0.0
 11
212.85237479870889
 21
435.93652005197538
 31
0.0
  0
LINE
  5
2C8A
  8
0
 10
212.85237479870901
 20
435.93652005197538
 30
0.0
 11
216.60515154844151
 21
442.43652005197561
 31
0.0
  0
CIRCLE
  5
2CA2
  8
0
 10
209.0995980489765
 20
442.43652005197549
 30
0.0
 40
6.25
  0
LINE
  5
2CAD
  8
1
 10
209.09959804897639
 20
451.93652005197538
 30
0.0
 11
209.0995980489767
 21
432.93652005197538
 31
0.0
  0
LINE
  5
2CAE
  8
1
 10
217.0995980489765
 20
449.63651990221882
 30
0.0
 11
217.0995980489765
 21
435.23652020173211
 31
0.0
  0
ARC
  5
2CB2
  8
1
 10
246.0995980489765
 20
442.43652005197549
 30
0.0
 40
23.999999999708091
 50
62.74614688253714
 51
117.25385311746319
  0
ARC
  5
2CB7
  8
1
 10
246.0995980489765
 20
442.43652005197549
 30
0.0
 40
23.999999999708091
 50
242.74614688253669
 51
297.25385311746311
  0
LINE
  5
2CF3
  8
0
 10
85.271959191622713
 20
223.34354846934369
 30
0.0
 11
85.271960383715609
 21
212.34354849309241
 31
0.0
  0
LINE
  5
2CF4
  8
0
 10
85.271960383715609
 20
212.34354849309241
 30
0.0
 11
85.771957671704286
 21
211.84354846934369
 31
0.0
  0
LINE
  5
2CF5
  8
0
 10
150.2719591916227
 20
223.34354846934369
 30
0.0
 11
150.27195919162281
 21
212.34354849309241
 31
0.0
  0
LINE
  5
2CF6
  8
0
 10
150.27195919162281
 20
212.34354849309241
 30
0.0
 11
149.7719607115412
 21
211.84354846934369
 31
0.0
  0
LINE
  5
2D82
  8
0
 10
102.7719595268988
 20
223.89381577390941
 30
0.0
 11
102.7719595268988
 21
226.3435480521112
 31
0.0
  0
LINE
  5
2D83
  8
0
 10
102.7719595268988
 20
226.3435480521112
 30
0.0
 11
103.2719596088552
 21
226.84354813406759
 31
0.0
  0
LINE
  5
2D84
  8
0
 10
132.7719588563466
 20
223.84354857365179
 30
0.0
 11
132.7719588563466
 21
226.3435480521112
 31
0.0
  0
LINE
  5
2D85
  8
0
 10
132.7719588563466
 20
226.3435480521112
 30
0.0
 11
132.27195877439021
 21
226.84354813406759
 31
0.0
  0
LINE
  5
2D86
  8
0
 10
107.7719594151401
 20
229.84354769448331
 30
0.0
 11
107.7719594151401
 21
227.84354922930291
 31
0.0
  0
LINE
  5
2D87
  8
0
 10
127.7719589681053
 20
229.84354769448331
 30
0.0
 11
127.7719589681053
 21
227.84354922930291
 31
0.0
  0
LINE
  5
2D88
  8
0
 10
102.7719595268988
 20
230.3435487077623
 30
0.0
 11
102.7719595268988
 21
277.34354709843689
 31
0.0
  0
LINE
  5
2D89
  8
0
 10
132.7719591916227
 20
230.34354846934369
 30
0.0
 11
132.7719591916227
 21
277.34354709843689
 31
0.0
  0
LINE
  5
2D8A
  8
0
 10
121.7719593816126
 20
256.84355025748312
 30
0.0
 11
121.7719593816126
 21
249.8435472474485
 31
0.0
  0
LINE
  5
2D8B
  8
0
 10
113.77195900163299
 20
256.84355025748312
 30
0.0
 11
113.77195900163299
 21
249.8435472474485
 31
0.0
  0
LINE
  5
2D98
  8
0
 10
117.7719591916228
 20
244.34354727725079
 30
0.0
 11
117.7719591916228
 21
249.8435472474485
 31
0.0
  0
LINE
  5
2D99
  8
0
 10
111.261190900305
 20
244.34354727725079
 30
0.0
 11
111.261190900305
 21
249.8435472474485
 31
0.0
  0
LINE
  5
2D9A
  8
0
 10
124.261190900305
 20
244.34354727725079
 30
0.0
 11
124.261190900305
 21
249.8435472474485
 31
0.0
  0
LINE
  5
2DE7
  8
0
 10
124.2719591916226
 20
284.6992145975334
 30
0.0
 11
124.02195919162151
 21
284.84355216483152
 31
0.0
  0
ARC
  5
2DE8
  8
0
 10
121.0219591916226
 20
275.3120624622847
 30
0.0
 40
9.3871521352487513
 50
69.743841999583225
 51
110.2561580004167
  0
ARC
  5
2DE9
  8
0
 10
121.0219591916226
 20
289.37504186737851
 30
0.0
 40
9.3871521352487513
 50
249.7438419995832
 51
290.25615800041669
  0
LINE
  5
2DEA
  8
0
 10
124.2719591916226
 20
279.98788973212982
 30
0.0
 11
124.02195919162151
 21
279.84355216483169
 31
0.0
  0
LINE
  5
2DEB
  8
0
 10
124.2719591916226
 20
284.6992145975334
 30
0.0
 11
124.2719591916226
 21
279.98788973212982
 31
0.0
  0
LINE
  5
2DEC
  8
0
 10
117.7719591916228
 20
284.11865801393219
 30
0.0
 11
117.7719591916228
 21
280.56844631573051
 31
0.0
  0
LINE
  5
2DED
  8
0
 10
111.271959191623
 20
284.6992145975334
 30
0.0
 11
111.271959191623
 21
279.98788973212982
 31
0.0
  0
LINE
  5
2DEE
  8
0
 10
111.271959191623
 20
279.98788973212982
 30
0.0
 11
111.52195919162421
 21
279.84355216483169
 31
0.0
  0
ARC
  5
2DEF
  8
0
 10
114.521959191623
 20
289.37504186737851
 30
0.0
 40
9.3871521352487513
 50
249.7438419995832
 51
290.25615800041669
  0
ARC
  5
2DF0
  8
0
 10
114.521959191623
 20
275.3120624622847
 30
0.0
 40
9.3871521352487513
 50
69.743841999583225
 51
110.2561580004167
  0
LINE
  5
2DF1
  8
0
 10
111.271959191623
 20
284.6992145975334
 30
0.0
 11
111.52195919162421
 21
284.84355216483152
 31
0.0
  0
LINE
  5
2DF2
  8
0
 10
111.52195919162421
 20
284.84355216483152
 30
0.0
 11
124.02195919162151
 21
284.84355216483152
 31
0.0
  0
LINE
  5
2DF4
  8
0
 10
124.2719591916226
 20
261.69921164710371
 30
0.0
 11
124.02195919162151
 21
261.84354921440178
 31
0.0
  0
ARC
  5
2DF5
  8
0
 10
121.0219591916226
 20
252.31205951185501
 30
0.0
 40
9.3871521352487513
 50
69.743841999583367
 51
110.2561580004166
  0
ARC
  5
2DF6
  8
0
 10
121.0219591916226
 20
266.37503891694882
 30
0.0
 40
9.3871521352487513
 50
249.74384199958331
 51
290.25615800041669
  0
LINE
  5
2DF7
  8
0
 10
124.2719591916226
 20
256.98788678170013
 30
0.0
 11
124.02195919162151
 21
256.843549214402
 31
0.0
  0
LINE
  5
2DF8
  8
0
 10
124.2719591916226
 20
261.69921164710371
 30
0.0
 11
124.2719591916226
 21
256.98788678170013
 31
0.0
  0
LINE
  5
2DF9
  8
0
 10
117.7719591916228
 20
261.11865506350262
 30
0.0
 11
117.7719591916228
 21
257.56844336530082
 31
0.0
  0
LINE
  5
2DFA
  8
0
 10
111.271959191623
 20
261.69921164710371
 30
0.0
 11
111.271959191623
 21
256.98788678170013
 31
0.0
  0
LINE
  5
2DFB
  8
0
 10
111.271959191623
 20
256.98788678170013
 30
0.0
 11
111.52195919162421
 21
256.843549214402
 31
0.0
  0
ARC
  5
2DFC
  8
0
 10
114.521959191623
 20
266.37503891694882
 30
0.0
 40
9.3871521352487513
 50
249.74384199958331
 51
290.25615800041669
  0
ARC
  5
2DFD
  8
0
 10
114.521959191623
 20
252.31205951185501
 30
0.0
 40
9.3871521352487513
 50
69.743841999583367
 51
110.2561580004166
  0
LINE
  5
2DFE
  8
0
 10
111.271959191623
 20
261.69921164710371
 30
0.0
 11
111.52195919162421
 21
261.84354921440178
 31
0.0
  0
LINE
  5
2DFF
  8
0
 10
111.52195919162421
 20
261.84354921440178
 30
0.0
 11
124.02195919162151
 21
261.84354921440178
 31
0.0
  0
LINE
  5
2E00
  8
0
 10
124.02195919162151
 20
256.843549214402
 30
0.0
 11
111.52195919162421
 21
256.843549214402
 31
0.0
  0
LINE
  5
2E01
  8
0
 10
102.7719595268988
 20
277.84354811171579
 30
0.0
 11
102.7719595268988
 21
286.34355043629699
 31
0.0
  0
LINE
  5
2E02
  8
0
 10
102.7719595268988
 20
286.34355043629699
 30
0.0
 11
103.771958759489
 21
287.34354501227432
 31
0.0
  0
LINE
  5
2E03
  8
0
 10
131.7719596237564
 20
287.34354501227432
 30
0.0
 11
132.7719588563466
 21
286.34355043629699
 31
0.0
  0
LINE
  5
2E04
  8
0
 10
132.7719588563466
 20
286.34355043629699
 30
0.0
 11
132.7719588563466
 21
277.84354811171579
 31
0.0
  0
LINE
  5
2E07
  8
0
 10
120.7719591916227
 20
288.84354565354772
 30
0.0
 11
120.7719591916227
 21
285.4208979389328
 31
0.0
  0
LINE
  5
2E08
  8
0
 10
120.7719591916228
 20
285.4209007547289
 30
0.0
 11
121.7719510965109
 21
284.84355258206398
 31
0.0
  0
POLYLINE
  5
2EC4
  8
0
 66
     1
 10
0.0
 20
0.0
 30
0.0
 70
   128
  0
VERTEX
  5
3ACB
  8
0
 10
106.87825130456559
 20
296.77481635846539
 30
0.0
  0
VERTEX
  5
3ACC
  8
0
 10
106.73245070566639
 20
296.77583266792738
 30
0.0
  0
VERTEX
  5
3ACD
  8
0
 10
106.50166503520251
 20
296.8241918808377
 30
0.0
  0
VERTEX
  5
3ACE
  8
0
 10
106.13262989296641
 20
297.0755658747305
 30
0.0
  0
VERTEX
  5
3ACF
  8
0
 10
105.99787643076171
 20
297.28616208975859
 30
0.0
  0
VERTEX
  5
3AD0
  8
0
 10
105.8762140907268
 20
297.63792490921861
 30
0.0
  0
VERTEX
  5
3AD1
  8
0
 10
105.7719591916228
 20
298.08526621446208
 30
0.0
  0
SEQEND
  5
3AD2
  8
0
  0
POLYLINE
  5
2EC5
  8
0
 66
     1
 10
0.0
 20
0.0
 30
0.0
 70
   128
  0
VERTEX
  5
3AD3
  8
0
 10
105.7719591916228
 20
298.08526621446208
 30
0.0
  0
VERTEX
  5
3AD4
  8
0
 10
105.7719591923542
 20
298.7914961946725
 30
0.0
  0
VERTEX
  5
3AD5
  8
0
 10
106.0560297977014
 20
299.93559001981521
 30
0.0
  0
SEQEND
  5
3AD6
  8
0
  0
LINE
  5
2EC6
  8
0
 10
107.5937084664925
 20
301.76859167305707
 30
0.0
 11
107.7845548748892
 21
301.76849710720529
 31
0.0
  0
LINE
  5
2EC7
  8
0
 10
107.7820773370362
 20
296.76849772102469
 30
0.0
 11
106.8782483955476
 21
296.76894557516272
 31
0.0
  0
POLYLINE
  5
2EC8
  8
0
 66
     1
 10
0.0
 20
0.0
 30
0.0
 70
   128
  0
VERTEX
  5
3AD7
  8
0
 10
106.0560297977014
 20
299.93559001981521
 30
0.0
  0
VERTEX
  5
3AD8
  8
0
 10
106.3958186916369
 20
300.58140238808079
 30
0.0
  0
VERTEX
  5
3AD9
  8
0
 10
106.7240065078595
 20
301.0942504441075
 30
0.0
  0
VERTEX
  5
3ADA
  8
0
 10
107.0407281312808
 20
301.4715537959122
 30
0.0
  0
VERTEX
  5
3ADB
  8
0
 10
107.3371866495785
 20
301.6982601508077
 30
0.0
  0
VERTEX
  5
3ADC
  8
0
 10
107.5937084664925
 20
301.76859167305707
 30
0.0
  0
SEQEND
  5
3ADD
  8
0
  0
LINE
  5
2EC9
  8
0
 10
105.77201709872899
 20
298.08668158800077
 30
0.0
 11
107.7827293206817
 21
298.08428703317747
 31
0.0
  0
LINE
  5
2ECA
  8
0
 10
127.7840569120409
 20
300.75858707855718
 30
0.0
 11
128.284056850659
 21
300.7583393247719
 31
0.0
  0
POLYLINE
  5
2ECB
  8
0
 66
     1
 10
0.0
 20
0.0
 30
0.0
 70
   128
  0
VERTEX
  5
3ADE
  8
0
 10
129.5112602095447
 20
299.92396777414922
 30
0.0
  0
VERTEX
  5
3ADF
  8
0
 10
129.17211149222121
 20
300.57011656118249
 30
0.0
  0
VERTEX
  5
3AE0
  8
0
 10
128.8444320772831
 20
301.08328960442742
 30
0.0
  0
VERTEX
  5
3AE1
  8
0
 10
128.52808452267831
 20
301.46090664684101
 30
0.0
  0
VERTEX
  5
3AE2
  8
0
 10
128.23185081936111
 20
301.68790668525543
 30
0.0
  0
VERTEX
  5
3AE3
  8
0
 10
127.9753988280082
 20
301.75849238994152
 30
0.0
  0
SEQEND
  5
3AE4
  8
0
  0
LINE
  5
2ECC
  8
0
 10
127.9753988280082
 20
301.75849238994152
 30
0.0
 11
127.7845524196116
 21
301.75858695579331
 31
0.0
  0
LINE
  5
2ECE
  8
0
 10
128.68779630522641
 20
296.75813877773538
 30
0.0
 11
128.28207482037661
 21
296.75833981582741
 31
0.0
  0
LINE
  5
2ECF
  8
0
 10
128.284056850659
 20
300.7583393247719
 30
0.0
 11
128.28207482037661
 21
296.75833981582741
 31
0.0
  0
POLYLINE
  5
2ED0
  8
0
 66
     1
 10
0.0
 20
0.0
 30
0.0
 70
   128
  0
VERTEX
  5
3AE5
  8
0
 10
129.75884433061131
 20
298.07339770048088
 30
0.0
  0
VERTEX
  5
3AE6
  8
0
 10
129.75386135566299
 20
299.0662318095014
 30
0.0
  0
VERTEX
  5
3AE7
  8
0
 10
129.5112602095447
 20
299.92396777414922
 30
0.0
  0
SEQEND
  5
3AE8
  8
0
  0
POLYLINE
  5
2ED1
  8
0
 66
     1
 10
0.0
 20
0.0
 30
0.0
 70
   128
  0
VERTEX
  5
3AE9
  8
0
 10
129.75884433061131
 20
298.07339770048088
 30
0.0
  0
VERTEX
  5
3AEA
  8
0
 10
129.72020423440381
 20
297.77871716804913
 30
0.0
  0
VERTEX
  5
3AEB
  8
0
 10
129.57469442429601
 20
297.29088171500661
 30
0.0
  0
VERTEX
  5
3AEC
  8
0
 10
129.46255785375391
 20
297.10276481733661
 30
0.0
  0
VERTEX
  5
3AED
  8
0
 10
129.328662332953
 20
296.96059264271793
 30
0.0
  0
VERTEX
  5
3AEE
  8
0
 10
128.9773205556248
 20
296.78883911795799
 30
0.0
  0
VERTEX
  5
3AEF
  8
0
 10
128.75905377038589
 20
296.75963795318671
 30
0.0
  0
VERTEX
  5
3AF0
  8
0
 10
128.6877980844925
 20
296.76172957214669
 30
0.0
  0
SEQEND
  5
3AF1
  8
0
  0
LINE
  5
2ED2
  8
0
 10
128.2827268040221
 20
298.0741291279802
 30
0.0
 11
129.75884433061131
 21
298.07339770048088
 31
0.0
  0
LINE
  5
2ED3
  8
0
 10
128.28207482037661
 20
296.75833981582741
 30
0.0
 11
127.771959579053
 21
296.75833981582741
 31
0.0
  0
LINE
  5
2ED4
  8
0
 10
114.27195908358929
 20
309.76354902247482
 30
0.0
 11
114.27195908358929
 21
307.34354829052978
 31
0.0
  0
LINE
  5
2ED5
  8
0
 10
121.2719592996561
 20
309.76354846934368
 30
0.0
 11
121.2719592996561
 21
307.34354829052978
 31
0.0
  0
LINE
  5
2ED6
  8
0
 10
114.771959191622
 20
288.84354565354693
 30
0.0
 11
114.7719591916229
 21
285.42089793893211
 31
0.0
  0
LINE
  5
2ED7
  8
0
 10
114.7719591916229
 20
285.4209007547289
 30
0.0
 11
113.77196728673481
 21
284.84355258206398
 31
0.0
  0
LINE
  5
2ED8
  8
1
 10
117.7719591916227
 20
318.76354846934379
 30
0.0
 11
117.7719591916227
 21
206.84354846934369
 31
0.0
  0
LINE
  5
2EDA
  8
0
 10
114.7719591655457
 20
307.84354930380869
 30
0.0
 11
113.77195900163289
 21
306.84354727725082
 31
0.0
  0
LINE
  5
2EDB
  8
0
 10
113.77195900163289
 20
306.84354727725082
 30
0.0
 11
113.77195900163289
 21
306.26354846934379
 31
0.0
  0
LINE
  5
2EDC
  8
0
 10
120.7719592176997
 20
307.84354930380869
 30
0.0
 11
121.7719593816125
 21
306.84354727725082
 31
0.0
  0
LINE
  5
2EDD
  8
0
 10
121.7719593816125
 20
306.84354727725082
 30
0.0
 11
121.7719593816125
 21
306.26354846934379
 31
0.0
  0
LINE
  5
2EDE
  8
0
 10
113.7772654083312
 20
291.26354846934368
 30
0.0
 11
113.7772654083311
 21
285.34354840973913
 31
0.0
  0
LINE
  5
2EDF
  8
0
 10
121.7772657883108
 20
291.26354846934368
 30
0.0
 11
121.7772657883108
 21
285.34354840973913
 31
0.0
  0
LINE
  5
2EE5
  8
3
 10
121.09545919162269
 20
249.8435472474485
 30
0.0
 11
121.09545919162269
 21
256.84354921440189
 31
0.0
  0
LINE
  5
2EE6
  8
3
 10
114.4484591916227
 20
249.8435472474485
 30
0.0
 11
114.4484591916227
 21
256.84354921440189
 31
0.0
  0
LINE
  5
2EE9
  8
1
 10
93.771959190251209
 20
226.34354857365179
 30
0.0
 11
93.771959190251209
 21
209.34354846934349
 31
0.0
  0
LINE
  5
2EEA
  8
1
 10
141.77195919299561
 20
226.34354857365179
 30
0.0
 11
141.77195919299561
 21
209.34354846934369
 31
0.0
  0
LINE
  5
2EF6
  8
0
 10
416.7069693355017
 20
298.07583788342328
 30
0.0
 11
416.73085162769871
 21
298.54663286440717
 31
0.0
  0
LINE
  5
2EF7
  8
0
 10
413.73085162769888
 20
291.26004840973911
 30
0.0
 11
414.73085162769888
 21
291.26004840973911
 31
0.0
  0
LINE
  5
2EF8
  8
0
 10
414.73085162769888
 20
291.26004840973911
 30
0.0
 11
414.73085162769888
 21
296.760048409739
 31
0.0
  0
LINE
  5
2EF9
  8
0
 10
408.13088727341341
 20
291.26004840973911
 30
0.0
 11
409.23085162769888
 21
291.26004840973911
 31
0.0
  0
LINE
  5
2EFA
  8
0
 10
413.73085162769888
 20
294.18017140053382
 30
0.0
 11
409.23085162769888
 21
294.18017140053371
 31
0.0
  0
LINE
  5
2EFD
  8
0
 10
409.23085162769871
 20
296.760048409739
 30
0.0
 11
409.23085162769888
 21
285.36030565843311
 31
0.0
  0
LINE
  5
2EFE
  8
0
 10
413.73085162769871
 20
296.760048409739
 30
0.0
 11
413.73085162769888
 21
285.36030565843311
 31
0.0
  0
LINE
  5
2EFF
  8
0
 10
416.73085162769871
 20
298.54663286440717
 30
0.0
 11
416.73085162769871
 21
313.56539191512849
 31
0.0
  0
LINE
  5
2F00
  8
0
 10
400.23085162769888
 20
291.26004840973911
 30
0.0
 11
401.33085162769879
 21
291.26004840973911
 31
0.0
  0
LINE
  5
2F01
  8
0
 10
392.75473391989539
 20
298.07583788342328
 30
0.0
 11
392.73085162769871
 21
298.54663286440717
 31
0.0
  0
LINE
  5
2F02
  8
0
 10
394.730851627699
 20
291.26004840973911
 30
0.0
 11
395.73085162769888
 21
291.26004840973911
 31
0.0
  0
LINE
  5
2F03
  8
0
 10
394.730851627699
 20
291.26004840973911
 30
0.0
 11
394.730851627699
 21
296.760048409739
 31
0.0
  0
LINE
  5
2F04
  8
0
 10
400.23085162769888
 20
294.18017140053382
 30
0.0
 11
395.73085162769888
 21
294.18017140053382
 31
0.0
  0
LINE
  5
2F07
  8
0
 10
400.23085162769888
 20
285.36030565843311
 30
0.0
 11
400.23085162769871
 21
296.760048409739
 31
0.0
  0
LINE
  5
2F08
  8
0
 10
395.73085162769888
 20
296.760048409739
 30
0.0
 11
395.73085162769888
 21
285.36030565843311
 31
0.0
  0
LINE
  5
2F09
  8
0
 10
392.73085162769871
 20
313.55680158625557
 30
0.0
 11
392.73085162769871
 21
298.54663286440717
 31
0.0
  0
LINE
  5
2F0B
  8
0
 10
416.59329911035582
 20
313.758360260514
 30
0.0
 11
392.91995809835657
 21
313.76004840973911
 31
0.0
  0
LINE
  5
2F0C
  8
0
 10
393.83725419902788
 20
296.760048409739
 30
0.0
 11
415.63236815824501
 21
296.760048409739
 31
0.0
  0
POLYLINE
  5
2F0F
  8
0
 66
     1
 10
0.0
 20
0.0
 30
0.0
 70
   128
  0
VERTEX
  5
3AF2
  8
0
 10
401.33085162769879
 20
291.26004840973911
 30
0.0
  0
VERTEX
  5
3AF3
  8
0
 10
401.5018155165946
 20
291.33598791653083
 30
0.0
  0
VERTEX
  5
3AF4
  8
0
 10
401.98685049024039
 20
291.53373937660371
 30
0.0
  0
VERTEX
  5
3AF5
  8
0
 10
402.77560346660312
 20
291.79492132034079
 30
0.0
  0
VERTEX
  5
3AF6
  8
0
 10
403.27815139089728
 20
291.91897115699572
 30
0.0
  0
VERTEX
  5
3AF7
  8
0
 10
403.8467418521588
 20
292.0167813903185
 30
0.0
  0
VERTEX
  5
3AF8
  8
0
 10
404.39663526627982
 20
292.06664116258611
 30
0.0
  0
VERTEX
  5
3AF9
  8
0
 10
404.97761084674829
 20
292.07043779983172
 30
0.0
  0
VERTEX
  5
3AFA
  8
0
 10
405.97728247048019
 20
291.95978445560928
 30
0.0
  0
VERTEX
  5
3AFB
  8
0
 10
406.86941971193357
 20
291.74125410794431
 30
0.0
  0
VERTEX
  5
3AFC
  8
0
 10
407.61899888901411
 20
291.47778264947988
 30
0.0
  0
VERTEX
  5
3AFD
  8
0
 10
407.88264053819228
 20
291.36925864569429
 30
0.0
  0
VERTEX
  5
3AFE
  8
0
 10
408.05915777121498
 20
291.2922761994364
 30
0.0
  0
VERTEX
  5
3AFF
  8
0
 10
408.12751988244099
 20
291.2615582128546
 30
0.0
  0
VERTEX
  5
3B00
  8
0
 10
408.13088727341341
 20
291.26004840973923
 30
0.0
  0
SEQEND
  5
3B01
  8
0
  0
POLYLINE
  5
2F10
  8
0
 66
     1
 10
0.0
 20
0.0
 30
0.0
 70
   128
  0
VERTEX
  5
3B02
  8
0
 10
392.73085162769871
 20
313.55680158625557
 30
0.0
  0
VERTEX
  5
3B03
  8
0
 10
392.78968256003651
 20
313.72851042150103
 30
0.0
  0
VERTEX
  5
3B04
  8
0
 10
392.91995809835657
 20
313.76004840973911
 30
0.0
  0
VERTEX
  5
3B05
  8
0
 10
393.39204649601629
 20
313.58146692040879
 30
0.0
  0
VERTEX
  5
3B06
  8
0
 10
393.92150010815249
 20
313.2569171532781
 30
0.0
  0
VERTEX
  5
3B07
  8
0
 10
394.76768398540207
 20
312.65517947207098
 30
0.0
  0
VERTEX
  5
3B08
  8
0
 10
395.80042082154802
 20
311.86611523076141
 30
0.0
  0
VERTEX
  5
3B09
  8
0
 10
396.55990513859388
 20
311.27049535082068
 30
0.0
  0
VERTEX
  5
3B0A
  8
0
 10
397.36750603170822
 20
310.63365151874262
 30
0.0
  0
VERTEX
  5
3B0B
  8
0
 10
398.24140935873862
 20
309.94855234039392
 30
0.0
  0
VERTEX
  5
3B0C
  8
0
 10
399.15686463412482
 20
309.24560335723407
 30
0.0
  0
VERTEX
  5
3B0D
  8
0
 10
400.62925678645217
 20
308.17758622581709
 30
0.0
  0
VERTEX
  5
3B0E
  8
0
 10
402.25204760730338
 20
307.17913342151792
 30
0.0
  0
VERTEX
  5
3B0F
  8
0
 10
403.01457350467871
 20
306.82405442667289
 30
0.0
  0
VERTEX
  5
3B10
  8
0
 10
403.83657133134352
 20
306.56402512391139
 30
0.0
  0
VERTEX
  5
3B11
  8
0
 10
404.73085162769843
 20
306.46161052845548
 30
0.0
  0
VERTEX
  5
3B12
  8
0
 10
405.57917489854748
 20
306.55391545002249
 30
0.0
  0
VERTEX
  5
3B13
  8
0
 10
406.42749816939659
 20
306.81622884492208
 30
0.0
  0
VERTEX
  5
3B14
  8
0
 10
407.71120615099971
 20
307.4586829697389
 30
0.0
  0
VERTEX
  5
3B15
  8
0
 10
408.92226269507222
 20
308.23947948001762
 30
0.0
  0
VERTEX
  5
3B16
  8
0
 10
410.0106036584159
 20
309.02387223242238
 30
0.0
  0
VERTEX
  5
3B17
  8
0
 10
411.04494068320582
 20
309.81259070951211
 30
0.0
  0
VERTEX
  5
3B18
  8
0
 10
412.05715098043061
 20
310.6043041849789
 30
0.0
  0
VERTEX
  5
3B19
  8
0
 10
413.01002449235187
 20
311.35576991214759
 30
0.0
  0
VERTEX
  5
3B1A
  8
0
 10
414.12526084185811
 20
312.22497866205998
 30
0.0
  0
VERTEX
  5
3B1B
  8
0
 10
415.11753764810618
 20
312.96428113681702
 30
0.0
  0
VERTEX
  5
3B1C
  8
0
 10
415.76372302253071
 20
313.4017015188399
 30
0.0
  0
VERTEX
  5
3B1D
  8
0
 10
416.27248420646509
 20
313.68113153716467
 30
0.0
  0
VERTEX
  5
3B1E
  8
0
 10
416.59329911133199
 20
313.75836026051388
 30
0.0
  0
VERTEX
  5
3B1F
  8
0
 10
416.72807085206063
 20
313.61459146924398
 30
0.0
  0
VERTEX
  5
3B20
  8
0
 10
416.73085162769871
 20
313.56539191512849
 30
0.0
  0
SEQEND
  5
3B21
  8
0
  0
POLYLINE
  5
2F11
  8
0
 66
     1
 10
0.0
 20
0.0
 30
0.0
 70
   128
  0
VERTEX
  5
3B22
  8
0
 10
416.7069693355017
 20
298.07583788342328
 30
0.0
  0
VERTEX
  5
3B23
  8
0
 10
416.60850052075602
 20
297.5205519340231
 30
0.0
  0
VERTEX
  5
3B24
  8
0
 10
416.41116385095933
 20
297.10505830724532
 30
0.0
  0
VERTEX
  5
3B25
  8
0
 10
416.11670532997317
 20
296.85833667645448
 30
0.0
  0
VERTEX
  5
3B26
  8
0
 10
415.70782987591508
 20
296.7615828936199
 30
0.0
  0
VERTEX
  5
3B27
  8
0
 10
415.20745057335893
 20
296.80855003097122
 30
0.0
  0
VERTEX
  5
3B28
  8
0
 10
414.60861838463393
 20
296.98271124799658
 30
0.0
  0
VERTEX
  5
3B29
  8
0
 10
413.61610150974479
 20
297.4151457136536
 30
0.0
  0
VERTEX
  5
3B2A
  8
0
 10
412.47266088687678
 20
298.02528738223168
 30
0.0
  0
VERTEX
  5
3B2B
  8
0
 10
411.63854272096739
 20
298.50761352782058
 30
0.0
  0
VERTEX
  5
3B2C
  8
0
 10
410.75931999561197
 20
299.03026864470189
 30
0.0
  0
VERTEX
  5
3B2D
  8
0
 10
408.84687496272579
 20
300.14765114186793
 30
0.0
  0
VERTEX
  5
3B2E
  8
0
 10
407.75739225458221
 20
300.7201900197623
 30
0.0
  0
VERTEX
  5
3B2F
  8
0
 10
406.5904419750276
 20
301.2172774169473
 30
0.0
  0
VERTEX
  5
3B30
  8
0
 10
405.693065962535
 20
301.46908785368879
 30
0.0
  0
VERTEX
  5
3B31
  8
0
 10
404.73085162769843
 20
301.56746600617191
 30
0.0
  0
VERTEX
  5
3B32
  8
0
 10
403.81206526752578
 20
301.4776187986007
 30
0.0
  0
VERTEX
  5
3B33
  8
0
 10
402.89327890735319
 20
301.22502285035108
 30
0.0
  0
VERTEX
  5
3B34
  8
0
 10
401.39896839846369
 20
300.56774817079469
 30
0.0
  0
VERTEX
  5
3B35
  8
0
 10
399.97671153502068
 20
299.7842604835875
 30
0.0
  0
VERTEX
  5
3B36
  8
0
 10
398.43096557315971
 20
298.86824589628901
 30
0.0
  0
VERTEX
  5
3B37
  8
0
 10
396.96380490123289
 20
298.01105220605137
 30
0.0
  0
VERTEX
  5
3B38
  8
0
 10
395.89886280506289
 20
297.44154913252208
 30
0.0
  0
VERTEX
  5
3B39
  8
0
 10
394.9197199542798
 20
297.0072096429015
 30
0.0
  0
VERTEX
  5
3B3A
  8
0
 10
394.25291336532769
 20
296.80827631205818
 30
0.0
  0
VERTEX
  5
3B3B
  8
0
 10
393.6812214906634
 20
296.76686325779912
 30
0.0
  0
VERTEX
  5
3B3C
  8
0
 10
393.25086787446639
 20
296.91274966831497
 30
0.0
  0
VERTEX
  5
3B3D
  8
0
 10
392.94639443384563
 20
297.27682862986597
 30
0.0
  0
VERTEX
  5
3B3E
  8
0
 10
392.82455780760671
 20
297.62853112153169
 30
0.0
  0
VERTEX
  5
3B3F
  8
0
 10
392.75473391989539
 20
298.07583788342328
 30
0.0
  0
SEQEND
  5
3B40
  8
0
  0
LINE
  5
2F4C
  8
0
 10
372.23085162769888
 20
223.34354846934369
 30
0.0
 11
372.23085162769888
 21
212.34354849309241
 31
0.0
  0
LINE
  5
2F4D
  8
0
 10
372.23085162769888
 20
212.34354849309241
 30
0.0
 11
372.7308501077805
 21
211.84354846934369
 31
0.0
  0
LINE
  5
2F4E
  8
0
 10
437.23085162769888
 20
223.34354846934369
 30
0.0
 11
437.23085043560599
 21
212.34354849309241
 31
0.0
  0
LINE
  5
2F4F
  8
0
 10
437.23085043560599
 20
212.34354849309241
 30
0.0
 11
436.73085314761732
 21
211.84354846934369
 31
0.0
  0
LINE
  5
2F50
  8
0
 10
389.73085196297512
 20
223.84354857365179
 30
0.0
 11
389.73085196297512
 21
226.3435480521112
 31
0.0
  0
LINE
  5
2F51
  8
0
 10
389.73085196297512
 20
226.3435480521112
 30
0.0
 11
390.2308520449314
 21
226.84354813406759
 31
0.0
  0
LINE
  5
2F52
  8
0
 10
419.23085121046643
 20
226.84354813406759
 30
0.0
 11
419.73085129242281
 21
226.3435480521112
 31
0.0
  0
LINE
  5
2F53
  8
0
 10
419.73085129242281
 20
226.3435480521112
 30
0.0
 11
419.73085129242281
 21
223.84354857365179
 31
0.0
  0
LINE
  5
2F54
  8
0
 10
414.73085140418152
 20
229.84354769448331
 30
0.0
 11
414.73085140418152
 21
227.84354922930291
 31
0.0
  0
LINE
  5
2F55
  8
0
 10
394.7308518512163
 20
229.84354769448331
 30
0.0
 11
394.7308518512163
 21
227.84354922930291
 31
0.0
  0
LINE
  5
2F56
  8
0
 10
389.73085196297512
 20
230.3435487077623
 30
0.0
 11
389.73085196297512
 21
277.34354709843689
 31
0.0
  0
LINE
  5
2F57
  8
0
 10
419.73085129242281
 20
277.34354709843689
 30
0.0
 11
419.73085129242281
 21
230.3435487077623
 31
0.0
  0
LINE
  5
2F58
  8
0
 10
389.73085196297512
 20
277.84354811171579
 30
0.0
 11
389.73085196297512
 21
286.34355043629699
 31
0.0
  0
LINE
  5
2F59
  8
0
 10
389.73085196297512
 20
286.34355043629699
 30
0.0
 11
390.73085119556532
 21
287.34354501227432
 31
0.0
  0
LINE
  5
2F5A
  8
0
 10
418.73085205983261
 20
287.34354501227432
 30
0.0
 11
419.73085129242281
 21
286.34355043629699
 31
0.0
  0
LINE
  5
2F5B
  8
0
 10
419.73085129242281
 20
286.34355043629699
 30
0.0
 11
419.73085129242281
 21
277.84354811171579
 31
0.0
  0
LINE
  5
2F6E
  8
0
 10
408.73085181768869
 20
285.34354840973913
 30
0.0
 11
408.73085181768869
 21
291.26004840973911
 31
0.0
  0
LINE
  5
2F6F
  8
0
 10
400.73085143770908
 20
291.26004840973911
 30
0.0
 11
400.73085143770908
 21
285.34354840973913
 31
0.0
  0
LINE
  5
2F73
  8
0
 10
407.73085162769888
 20
285.34354840973913
 30
0.0
 11
401.73085162769888
 21
285.34354840973913
 31
0.0
  0
LINE
  5
2F78
  8
1
 10
428.73554479572317
 20
226.3065321501623
 30
0.0
 11
428.73554479572317
 21
209.3065320458542
 31
0.0
  0
LINE
  5
2F79
  8
1
 10
380.73554479297883
 20
226.3065321501623
 30
0.0
 11
380.73554479297883
 21
209.306532045854
 31
0.0
  0
LINE
  5
2F7A
  8
1
 10
404.73554479435029
 20
318.72653204585413
 30
0.0
 11
404.73554479435029
 21
206.80653204585411
 31
0.0
  0
LINE
  5
2F7B
  8
1
 10
387.75996282092842
 20
298.76354846934368
 30
0.0
 11
421.7355451817802
 21
298.76354846934368
 31
0.0
  0
LINE
  5
2FE5
  8
0
 10
260.59959809368002
 20
226.8435482104361
 30
0.0
 11
261.09959724431383
 21
226.34354812847971
 31
0.0
  0
LINE
  5
2FE6
  8
0
 10
231.59959846248381
 20
226.8435482104361
 30
0.0
 11
231.0995983805274
 21
226.34354812847971
 31
0.0
  0
LINE
  5
2FE7
  8
0
 10
256.09959828739511
 20
227.84354930567139
 30
0.0
 11
256.09959828739511
 21
229.84354769448331
 31
0.0
  0
LINE
  5
2FE8
  8
0
 10
236.09959826876869
 20
227.84354930567139
 30
0.0
 11
236.09959826876869
 21
229.84354769448331
 31
0.0
  0
LINE
  5
2FE9
  8
0
 10
231.0995983805274
 20
230.34354872592311
 30
0.0
 11
231.09959838052771
 21
255.84354663157569
 31
0.0
  0
LINE
  5
2FEA
  8
0
 10
261.09959724431383
 20
230.34354872592311
 30
0.0
 11
261.09959724431383
 21
279.34355192641323
 31
0.0
  0
LINE
  5
2FEE
  8
1
 10
209.09959710275271
 20
239.3435471207886
 30
0.0
 11
209.0995971027526
 21
294.84355085352962
 31
0.0
  0
ARC
  5
2FF1
  8
0
 10
203.4704329094767
 20
281.37664579944391
 30
0.0
 40
3.3225695729499738
 50
55.615752531961533
 51
115.6157525321738
  0
ARC
  5
2FF2
  8
0
 10
209.09959803407619
 20
272.27977195600153
 30
0.0
 40
12.41944341639239
 50
72.412046225995397
 51
107.5879537740046
  0
LINE
  5
2FF3
  8
0
 10
201.59404453461039
 20
284.11865878879303
 30
0.0
 11
202.84959803407659
 21
284.8435529396919
 31
0.0
  0
LINE
  5
2FF4
  8
0
 10
201.59404453461039
 20
280.56844709059089
 30
0.0
 11
202.84959803407659
 21
279.84355293969207
 31
0.0
  0
ARC
  5
2FF5
  8
0
 10
203.4704329094767
 20
283.31046007994019
 30
0.0
 40
3.3225695729499738
 50
244.3842474678261
 51
304.38424746803838
  0
ARC
  5
2FF6
  8
0
 10
209.09959803407619
 20
292.40733392338262
 30
0.0
 40
12.41944341639239
 50
252.4120462259954
 51
287.58795377400469
  0
LINE
  5
2FF7
  8
0
 10
201.59404453461039
 20
284.11865878879303
 30
0.0
 11
201.59404453461039
 21
280.56844709059089
 31
0.0
  0
LINE
  5
2FF8
  8
0
 10
205.3468212843446
 20
284.11865878879303
 30
0.0
 11
205.34682128434281
 21
280.56844709059249
 31
0.0
  0
LINE
  5
2FF9
  8
0
 10
212.85237478380591
 20
284.11865878879303
 30
0.0
 11
212.8523747838077
 21
280.56844709059249
 31
0.0
  0
LINE
  5
2FFA
  8
0
 10
216.60515153354009
 20
284.11865878879303
 30
0.0
 11
216.60515153354009
 21
280.56844709059089
 31
0.0
  0
ARC
  5
2FFB
  8
0
 10
214.72876315867379
 20
283.31046007994019
 30
0.0
 40
3.3225695729499738
 50
235.61575253196159
 51
295.61575253217387
  0
LINE
  5
2FFC
  8
0
 10
216.60515153354009
 20
280.56844709059089
 30
0.0
 11
215.34959803407389
 21
279.84355293969207
 31
0.0
  0
LINE
  5
2FFD
  8
0
 10
216.60515153354009
 20
284.11865878879303
 30
0.0
 11
215.34959803407389
 21
284.8435529396919
 31
0.0
  0
ARC
  5
2FFE
  8
0
 10
214.72876315867379
 20
281.37664579944391
 30
0.0
 40
3.3225695729499738
 50
64.384247467826114
 51
124.3842474680384
  0
LINE
  5
2FFF
  8
0
 10
202.84959803407551
 20
284.8435529396919
 30
0.0
 11
215.34959803407361
 21
284.8435529396919
 31
0.0
  0
ARC
  5
3001
  8
0
 10
203.47043197815469
 20
258.3766428490141
 30
0.0
 40
3.3225695729499738
 50
55.615752531961739
 51
115.6157525321738
  0
ARC
  5
3002
  8
0
 10
209.0995971027541
 20
249.27976900557169
 30
0.0
 40
12.41944341639239
 50
72.412046225995397
 51
107.5879537740046
  0
LINE
  5
3003
  8
0
 10
201.59404360328841
 20
261.1186558383634
 30
0.0
 11
202.84959710275459
 21
261.84354998926221
 31
0.0
  0
LINE
  5
3004
  8
0
 10
201.59404360328841
 20
257.5684441401612
 30
0.0
 11
202.84959710275459
 21
256.84354998926239
 31
0.0
  0
ARC
  5
3005
  8
0
 10
203.47043197815469
 20
260.3104571295105
 30
0.0
 40
3.3225695729499738
 50
244.3842474678261
 51
304.38424746803821
  0
ARC
  5
3006
  8
0
 10
209.0995971027541
 20
269.40733097295282
 30
0.0
 40
12.41944341639239
 50
252.4120462259954
 51
287.58795377400469
  0
LINE
  5
3007
  8
0
 10
201.59404360328841
 20
261.1186558383634
 30
0.0
 11
201.59404360328841
 21
257.5684441401612
 31
0.0
  0
LINE
  5
3008
  8
0
 10
205.34682035302259
 20
261.1186558383634
 30
0.0
 11
205.3468203530208
 21
257.56844414016268
 31
0.0
  0
LINE
  5
3009
  8
0
 10
212.85237385248391
 20
261.1186558383634
 30
0.0
 11
212.8523738524857
 21
257.56844414016268
 31
0.0
  0
LINE
  5
300A
  8
0
 10
216.60515060221809
 20
261.1186558383634
 30
0.0
 11
216.60515060221809
 21
257.5684441401612
 31
0.0
  0
ARC
  5
300B
  8
0
 10
214.72876222735181
 20
260.3104571295105
 30
0.0
 40
3.3225695729499738
 50
235.61575253196179
 51
295.61575253217387
  0
LINE
  5
300C
  8
0
 10
216.60515060221809
 20
257.5684441401612
 30
0.0
 11
215.34959710275189
 21
256.84354998926239
 31
0.0
  0
LINE
  5
300D
  8
0
 10
216.60515060221809
 20
261.1186558383634
 30
0.0
 11
215.34959710275189
 21
261.84354998926221
 31
0.0
  0
ARC
  5
300E
  8
0
 10
214.72876222735181
 20
258.3766428490141
 30
0.0
 40
3.3225695729499738
 50
64.384247467826114
 51
124.3842474680382
  0
LINE
  5
300F
  8
0
 10
202.84959710275351
 20
261.84354998926221
 30
0.0
 11
215.3495971027516
 21
261.84354998926221
 31
0.0
  0
LINE
  5
3010
  8
0
 10
215.34959710275189
 20
256.84354998926239
 30
0.0
 11
202.84959710275481
 21
256.84354998926239
 31
0.0
  0
LINE
  5
3011
  8
0
 10
260.59959809368002
 20
279.84355293969207
 30
0.0
 11
261.09959724431383
 21
279.34355192641323
 31
0.0
  0
LINE
  5
3012
  8
0
 10
201.599595873407
 20
279.84355293969207
 30
0.0
 11
201.09959486012801
 21
279.34355192641323
 31
0.0
  0
LINE
  5
3013
  8
0
 10
201.09959486012801
 20
279.34355192641323
 30
0.0
 11
201.09959486012801
 21
262.34355100254118
 31
0.0
  0
LINE
  5
3014
  8
0
 10
206.09959754233711
 20
288.84354882697158
 30
0.0
 11
206.09959754233711
 21
285.42090111235677
 31
0.0
  0
LINE
  5
3015
  8
0
 10
206.09959754233711
 20
285.42090111235677
 30
0.0
 11
205.09960377481909
 21
284.8435529396919
 31
0.0
  0
LINE
  5
3016
  8
0
 10
212.09959666316851
 20
288.84354882697158
 30
0.0
 11
212.09959666316851
 21
285.42090111235677
 31
0.0
  0
LINE
  5
3017
  8
0
 10
212.09959666316851
 20
285.42090111235677
 30
0.0
 11
213.0995904306865
 21
284.8435529396919
 31
0.0
  0
LINE
  5
3018
  8
0
 10
231.0995983805274
 20
285.34354918459951
 30
0.0
 11
231.0995983805274
 21
279.84355293969207
 31
0.0
  0
LINE
  5
3019
  8
0
 10
235.375792990229
 20
287.34354578713481
 30
0.0
 11
234.09959794094311
 21
286.34355121115738
 31
0.0
  0
LINE
  5
301A
  8
0
 10
256.82340356593483
 20
287.34354578713481
 30
0.0
 11
258.09959861522071
 21
286.34355121115738
 31
0.0
  0
LINE
  5
301B
  8
0
 10
261.09959724431383
 20
285.34354918459951
 30
0.0
 11
261.09959724431383
 21
279.84355293969207
 31
0.0
  0
LINE
  5
3023
  8
0
 10
243.4995982710038
 20
277.34354787329733
 30
0.0
 11
243.49959827100369
 21
279.84355293969207
 31
0.0
  0
LINE
  5
3024
  8
0
 10
243.4995982710038
 20
277.34354787329733
 30
0.0
 11
248.69959781949871
 21
277.34354787329733
 31
0.0
  0
LINE
  5
3025
  8
0
 10
248.69959781949851
 20
279.84355293969207
 30
0.0
 11
248.69959781949871
 21
277.34354787329733
 31
0.0
  0
POLYLINE
  5
3029
  8
0
 66
     1
 10
0.0
 20
0.0
 30
0.0
 70
   128
  0
VERTEX
  5
3B41
  8
0
 10
239.8709148968606
 20
287.34354578713481
 30
0.0
  0
VERTEX
  5
3B42
  8
0
 10
238.49821347353441
 20
288.30088277836228
 30
0.0
  0
VERTEX
  5
3B43
  8
0
 10
237.03988115805811
 20
289.70383236798119
 30
0.0
  0
VERTEX
  5
3B44
  8
0
 10
235.83261352277609
 20
291.30390435382242
 30
0.0
  0
VERTEX
  5
3B45
  8
0
 10
234.89931211125011
 20
293.05666563392867
 30
0.0
  0
VERTEX
  5
3B46
  8
0
 10
234.25936241009649
 20
294.91631138955631
 30
0.0
  0
VERTEX
  5
3B47
  8
0
 10
233.9230383409905
 20
296.83481730265311
 30
0.0
  0
VERTEX
  5
3B48
  8
0
 10
233.89134840366279
 20
298.76354961358618
 30
0.0
  0
VERTEX
  5
3B49
  8
0
 10
234.16163145993619
 20
300.65413896972967
 30
0.0
  0
VERTEX
  5
3B4A
  8
0
 10
234.7189657569908
 20
302.461290083037
 30
0.0
  0
VERTEX
  5
3B4B
  8
0
 10
235.54514541745269
 20
304.14119371641522
 30
0.0
  0
VERTEX
  5
3B4C
  8
0
 10
236.61436946289609
 20
305.6547816748307
 30
0.0
  0
VERTEX
  5
3B4D
  8
0
 10
237.89424292642639
 20
306.96890509082249
 30
0.0
  0
VERTEX
  5
3B4E
  8
0
 10
239.35010601278299
 20
308.05309660001581
 30
0.0
  0
VERTEX
  5
3B4F
  8
0
 10
240.94123206804369
 20
308.8873030805164
 30
0.0
  0
VERTEX
  5
3B50
  8
0
 10
242.62572329500151
 20
309.4547014003839
 30
0.0
  0
VERTEX
  5
3B51
  8
0
 10
244.3598651468221
 20
309.74680280363231
 30
0.0
  0
VERTEX
  5
3B52
  8
0
 10
246.0995984036629
 20
309.76354961358629
 30
0.0
  0
SEQEND
  5
3B53
  8
0
  0
POLYLINE
  5
3030
  8
0
 66
     1
 10
0.0
 20
0.0
 30
0.0
 70
   128
  0
VERTEX
  5
3B54
  8
0
 10
569.60017469183958
 20
287.34354578713481
 30
0.0
  0
VERTEX
  5
3B55
  8
0
 10
570.97287611516595
 20
288.30088277836228
 30
0.0
  0
VERTEX
  5
3B56
  8
0
 10
572.4312084306423
 20
289.70383236798119
 30
0.0
  0
VERTEX
  5
3B57
  8
0
 10
573.63847606592435
 20
291.30390435382242
 30
0.0
  0
VERTEX
  5
3B58
  8
0
 10
574.57177747745027
 20
293.05666563392867
 30
0.0
  0
VERTEX
  5
3B59
  8
0
 10
575.21172717860372
 20
294.91631138955631
 30
0.0
  0
VERTEX
  5
3B5A
  8
0
 10
575.54805124770974
 20
296.83481730265311
 30
0.0
  0
VERTEX
  5
3B5B
  8
0
 10
575.57974118503762
 20
298.76354961358618
 30
0.0
  0
VERTEX
  5
3B5C
  8
0
 10
575.30945812876405
 20
300.65413896972967
 30
0.0
  0
VERTEX
  5
3B5D
  8
0
 10
574.75212383170935
 20
302.461290083037
 30
0.0
  0
VERTEX
  5
3B5E
  8
0
 10
573.92594417124758
 20
304.14119371641522
 30
0.0
  0
VERTEX
  5
3B5F
  8
0
 10
572.85672012580426
 20
305.6547816748307
 30
0.0
  0
VERTEX
  5
3B60
  8
0
 10
571.57684666227397
 20
306.96890509082249
 30
0.0
  0
VERTEX
  5
3B61
  8
0
 10
570.12098357591731
 20
308.05309660001581
 30
0.0
  0
VERTEX
  5
3B62
  8
0
 10
568.52985752065661
 20
308.8873030805164
 30
0.0
  0
VERTEX
  5
3B63
  8
0
 10
566.84536629369882
 20
309.4547014003839
 30
0.0
  0
VERTEX
  5
3B64
  8
0
 10
565.11122444187822
 20
309.74680280363231
 30
0.0
  0
VERTEX
  5
3B65
  8
0
 10
563.37149118503748
 20
309.76354961358629
 30
0.0
  0
SEQEND
  5
3B66
  8
0
  0
LINE
  5
3033
  8
0
 10
560.77149176920193
 20
279.84355293969207
 30
0.0
 11
560.7714917692017
 21
277.34354787329733
 31
0.0
  0
LINE
  5
3034
  8
0
 10
565.97149131769652
 20
277.34354787329733
 30
0.0
 11
560.7714917692017
 21
277.34354787329733
 31
0.0
  0
LINE
  5
3035
  8
0
 10
565.97149131769652
 20
277.34354787329733
 30
0.0
 11
565.97149131769675
 21
279.84355293969207
 31
0.0
  0
LINE
  5
3036
  8
0
 10
548.37149234438652
 20
285.34354918459951
 30
0.0
 11
548.37149234438652
 21
279.84355293969207
 31
0.0
  0
LINE
  5
3037
  8
0
 10
552.64768602276547
 20
287.34354578713481
 30
0.0
 11
551.37149097347969
 21
286.34355121115738
 31
0.0
  0
LINE
  5
3038
  8
0
 10
574.09529659847135
 20
287.34354578713481
 30
0.0
 11
575.37149164775724
 21
286.34355121115738
 31
0.0
  0
LINE
  5
3039
  8
0
 10
578.37149120817287
 20
285.34354918459951
 30
0.0
 11
578.37149120817287
 21
279.84355293969207
 31
0.0
  0
LINE
  5
303A
  8
0
 10
597.37149292553181
 20
285.42090111235677
 30
0.0
 11
596.37149915801388
 21
284.8435529396919
 31
0.0
  0
LINE
  5
303B
  8
0
 10
597.37149292553181
 20
288.84354882697158
 30
0.0
 11
597.37149292553181
 21
285.42090111235677
 31
0.0
  0
LINE
  5
303C
  8
0
 10
603.3714920463633
 20
285.42090111235677
 30
0.0
 11
604.37148581388124
 21
284.8435529396919
 31
0.0
  0
LINE
  5
303D
  8
0
 10
603.3714920463633
 20
288.84354882697158
 30
0.0
 11
603.3714920463633
 21
285.42090111235677
 31
0.0
  0
LINE
  5
303E
  8
0
 10
608.37149472857232
 20
279.34355192641323
 30
0.0
 11
608.37149472857232
 21
262.34355100254118
 31
0.0
  0
LINE
  5
303F
  8
0
 10
607.87149371529335
 20
279.84355293969207
 30
0.0
 11
608.37149472857232
 21
279.34355192641323
 31
0.0
  0
LINE
  5
3040
  8
0
 10
548.87149149502034
 20
279.84355293969207
 30
0.0
 11
548.37149234438652
 21
279.34355192641323
 31
0.0
  0
LINE
  5
3041
  8
0
 10
594.12149248594835
 20
256.84354998926239
 30
0.0
 11
606.62149248594551
 21
256.84354998926239
 31
0.0
  0
LINE
  5
3042
  8
0
 10
606.62149248594676
 20
261.84354998926221
 30
0.0
 11
594.12149248594869
 21
261.84354998926221
 31
0.0
  0
ARC
  5
3043
  8
0
 10
594.74232736134854
 20
258.3766428490141
 30
0.0
 40
3.3225695729499738
 50
55.615752531961768
 51
115.6157525321738
  0
LINE
  5
3044
  8
0
 10
592.86593898648209
 20
261.1186558383634
 30
0.0
 11
594.12149248594835
 21
261.84354998926221
 31
0.0
  0
LINE
  5
3045
  8
0
 10
592.86593898648209
 20
257.5684441401612
 30
0.0
 11
594.12149248594835
 21
256.84354998926239
 31
0.0
  0
ARC
  5
3046
  8
0
 10
594.74232736134854
 20
260.3104571295105
 30
0.0
 40
3.3225695729499738
 50
244.3842474678261
 51
304.38424746803821
  0
LINE
  5
3047
  8
0
 10
592.86593898648209
 20
261.1186558383634
 30
0.0
 11
592.86593898648209
 21
257.5684441401612
 31
0.0
  0
LINE
  5
3048
  8
0
 10
596.61871573621636
 20
261.1186558383634
 30
0.0
 11
596.61871573621465
 21
257.56844414016268
 31
0.0
  0
LINE
  5
3049
  8
0
 10
604.12426923567773
 20
261.1186558383634
 30
0.0
 11
604.12426923567955
 21
257.56844414016268
 31
0.0
  0
LINE
  5
304A
  8
0
 10
607.87704598541188
 20
261.1186558383634
 30
0.0
 11
607.87704598541188
 21
257.5684441401612
 31
0.0
  0
ARC
  5
304B
  8
0
 10
600.37149248594619
 20
269.40733097295282
 30
0.0
 40
12.41944341639239
 50
252.4120462259954
 51
287.58795377400469
  0
ARC
  5
304C
  8
0
 10
606.00065761054566
 20
260.3104571295105
 30
0.0
 40
3.3225695729499738
 50
235.61575253196179
 51
295.61575253217387
  0
LINE
  5
304D
  8
0
 10
607.87704598541188
 20
257.5684441401612
 30
0.0
 11
606.62149248594574
 21
256.84354998926239
 31
0.0
  0
LINE
  5
304E
  8
0
 10
607.87704598541188
 20
261.1186558383634
 30
0.0
 11
606.62149248594574
 21
261.84354998926221
 31
0.0
  0
ARC
  5
304F
  8
0
 10
600.37149248594619
 20
249.27976900557169
 30
0.0
 40
12.41944341639239
 50
72.412046225995411
 51
107.5879537740046
  0
ARC
  5
3050
  8
0
 10
606.00065761054566
 20
258.3766428490141
 30
0.0
 40
3.3225695729499738
 50
64.384247467826142
 51
124.3842474680382
  0
LINE
  5
3051
  8
0
 10
606.62149155462475
 20
284.8435529396919
 30
0.0
 11
594.12149155462646
 21
284.8435529396919
 31
0.0
  0
ARC
  5
3052
  8
0
 10
594.74232643002642
 20
281.37664579944391
 30
0.0
 40
3.3225695729499738
 50
55.61575253196154
 51
115.6157525321738
  0
LINE
  5
3053
  8
0
 10
592.86593805516031
 20
284.11865878879303
 30
0.0
 11
594.12149155462646
 21
284.8435529396919
 31
0.0
  0
LINE
  5
3054
  8
0
 10
592.86593805516031
 20
280.56844709059089
 30
0.0
 11
594.12149155462646
 21
279.84355293969207
 31
0.0
  0
ARC
  5
3055
  8
0
 10
594.74232643002642
 20
283.31046007994019
 30
0.0
 40
3.3225695729499738
 50
244.3842474678261
 51
304.38424746803838
  0
LINE
  5
3056
  8
0
 10
592.86593805516031
 20
284.11865878879303
 30
0.0
 11
592.86593805516031
 21
280.56844709059089
 31
0.0
  0
LINE
  5
3057
  8
0
 10
596.61871480489435
 20
284.11865878879303
 30
0.0
 11
596.61871480489253
 21
280.56844709059249
 31
0.0
  0
LINE
  5
3058
  8
0
 10
604.12426830435561
 20
284.11865878879303
 30
0.0
 11
604.12426830435743
 21
280.56844709059249
 31
0.0
  0
LINE
  5
3059
  8
0
 10
607.8770450540901
 20
284.11865878879303
 30
0.0
 11
607.8770450540901
 21
280.56844709059089
 31
0.0
  0
ARC
  5
305A
  8
0
 10
600.37149155462419
 20
292.40733392338262
 30
0.0
 40
12.41944341639239
 50
252.4120462259954
 51
287.58795377400469
  0
ARC
  5
305B
  8
0
 10
606.00065667922354
 20
283.31046007994019
 30
0.0
 40
3.3225695729499738
 50
235.61575253196159
 51
295.61575253217387
  0
LINE
  5
305C
  8
0
 10
607.8770450540901
 20
280.56844709059089
 30
0.0
 11
606.62149155462384
 21
279.84355293969207
 31
0.0
  0
LINE
  5
305D
  8
0
 10
607.8770450540901
 20
284.11865878879303
 30
0.0
 11
606.62149155462384
 21
284.8435529396919
 31
0.0
  0
ARC
  5
305E
  8
0
 10
600.37149155462419
 20
272.27977195600153
 30
0.0
 40
12.41944341639239
 50
72.412046225995411
 51
107.5879537740046
  0
ARC
  5
305F
  8
0
 10
606.00065667922354
 20
281.37664579944391
 30
0.0
 40
3.3225695729499738
 50
64.384247467826142
 51
124.3842474680384
  0
LINE
  5
3060
  8
1
 10
600.37149248594778
 20
239.3435471207886
 30
0.0
 11
600.37149248594778
 21
294.84355085352962
 31
0.0
  0
LINE
  5
3061
  8
0
 10
548.37149234438652
 20
230.34354872592311
 30
0.0
 11
548.37149234438652
 21
279.34355192641323
 31
0.0
  0
LINE
  5
3062
  8
0
 10
578.37149120817287
 20
230.34354872592311
 30
0.0
 11
578.37149120817276
 21
255.84354663157569
 31
0.0
  0
LINE
  5
3063
  8
0
 10
573.37149131993169
 20
227.84354930567139
 30
0.0
 11
573.37149131993169
 21
229.84354769448331
 31
0.0
  0
LINE
  5
3064
  8
0
 10
553.37149130130524
 20
227.84354930567139
 30
0.0
 11
553.37149130130524
 21
229.84354769448331
 31
0.0
  0
LINE
  5
3065
  8
0
 10
577.8714911262166
 20
226.8435482104361
 30
0.0
 11
578.37149120817287
 21
226.34354812847971
 31
0.0
  0
LINE
  5
3066
  8
0
 10
548.87149149502034
 20
226.8435482104361
 30
0.0
 11
548.37149234438652
 21
226.34354812847971
 31
0.0
  0
LINE
  5
3067
  8
0
 10
604.37149407292122
 20
256.8435510323435
 30
0.0
 11
604.37149407292122
 21
249.84354802230891
 31
0.0
  0
LINE
  5
3068
  8
0
 10
596.37149089897378
 20
256.8435510323435
 30
0.0
 11
596.37149089897378
 21
249.84354802230891
 31
0.0
  0
POLYLINE
  5
3069
  8
0
 66
     1
 10
0.0
 20
0.0
 30
0.0
 70
   128
  0
VERTEX
  5
3B67
  8
0
 10
497.91373582564268
 20
313.04906118324749
 30
0.0
  0
VERTEX
  5
3B68
  8
0
 10
496.7469895281547
 20
313.28463732776783
 30
0.0
  0
VERTEX
  5
3B69
  8
0
 10
495.55779255490052
 20
313.53341262728492
 30
0.0
  0
SEQEND
  5
3B6A
  8
0
  0
LINE
  5
306A
  8
0
 10
483.37149118503748
 20
301.57096721001898
 30
0.0
 11
483.37149118503748
 21
306.46511173230272
 31
0.0
  0
ARC
  5
306B
  8
0
 10
490.37149118503788
 20
304.26354961358618
 30
0.0
 40
7.5000000000003162
 50
201.03946978131361
 51
304.45595046128938
  0
ARC
  5
306C
  8
0
 10
506.49738241517792
 20
280.75711098679392
 30
0.0
 40
21.006438671841469
 50
90.003752360269019
 51
114.1181617057042
  0
POLYLINE
  5
306D
  8
0
 66
     1
 10
0.0
 20
0.0
 30
0.0
 70
   128
  0
VERTEX
  5
3B6B
  8
0
 10
494.61478473677352
 20
298.07933908727051
 30
0.0
  0
VERTEX
  5
3B6C
  8
0
 10
496.21036633299332
 20
299.07217060530502
 30
0.0
  0
VERTEX
  5
3B6D
  8
0
 10
497.91373582564268
 20
299.9297862539492
 30
0.0
  0
SEQEND
  5
3B6E
  8
0
  0
ARC
  5
306E
  8
0
 10
493.37282142441882
 20
303.26125617726598
 30
0.0
 40
10.501966338486531
 50
77.991691741137473
 51
162.23750618192719
  0
ARC
  5
306F
  8
0
 10
531.37149118503737
 20
481.76354961358618
 30
0.0
 40
171.99999999999989
 50
267.33411823515178
 51
270.0
  0
LINE
  5
3070
  8
0
 10
563.37149118503748
 20
309.76354961358629
 30
0.0
 11
531.37149118503737
 21
309.76354961358629
 31
0.0
  0
ARC
  5
3071
  8
0
 10
538.58927040031176
 20
289.76354961358641
 30
0.0
 40
12.00000000000003
 50
21.613497946446358
 51
90.0
  0
LINE
  5
3072
  8
1
 10
563.37149118503748
 20
206.8435492442041
 30
0.0
 11
563.37149118503748
 21
314.76354961358629
 31
0.0
  0
LINE
  5
3073
  8
0
 10
506.49600668163453
 20
301.76354961358629
 30
0.0
 11
538.58927040031176
 21
301.76354961358629
 31
0.0
  0
ARC
  5
3074
  8
0
 10
531.37149118503669
 20
481.76354961358112
 30
0.0
 40
171.9999999999948
 50
258.78320820422738
 51
267.33411823515178
  0
POLYLINE
  5
3075
  8
0
 66
     1
 10
0.0
 20
0.0
 30
0.0
 70
   128
  0
VERTEX
  5
3B6F
  8
0
 10
549.74554723204415
 20
294.18367260438089
 30
0.0
  0
VERTEX
  5
3B70
  8
0
 10
550.71246359031124
 20
292.20591320401388
 30
0.0
  0
VERTEX
  5
3B71
  8
0
 10
551.96149996623399
 20
290.41508291221987
 30
0.0
  0
VERTEX
  5
3B72
  8
0
 10
553.45741217106388
 20
288.84947059961269
 30
0.0
  0
VERTEX
  5
3B73
  8
0
 10
555.20169305638944
 20
287.5191268382423
 30
0.0
  0
VERTEX
  5
3B74
  8
0
 10
555.52727707555175
 20
287.34354578713481
 30
0.0
  0
SEQEND
  5
3B75
  8
0
  0
LINE
  5
3076
  8
1
 10
550.87149065324945
 20
298.76354961358618
 30
0.0
 11
575.87149059219269
 21
298.76354961358618
 31
0.0
  0
ARC
  5
3077
  8
0
 10
600.37149248594756
 20
284.8435602784931
 30
0.0
 40
4.9999905750364606
 50
53.130027648963903
 51
126.8699723510361
  0
ARC
  5
3078
  8
0
 10
577.87149231333433
 20
230.3435465893252
 30
0.0
 40
0.4999988948432896
 50
269.99986396603521
 51
0.000244836623337
  0
ARC
  5
3079
  8
0
 10
548.87148964936489
 20
230.3435449994723
 30
0.0
 40
0.4999973049923934
 50
179.9995729778922
 51
270.00021149766201
  0
ARC
  5
307A
  8
0
 10
584.3714945658603
 20
255.84354663157569
 30
0.0
 40
6.000003357687703
 50
90.000036012237786
 51
179.9999773279786
  0
ARC
  5
307B
  8
0
 10
607.87149425004782
 20
262.3435504677866
 30
0.0
 40
0.5000004785246989
 50
269.9999387217045
 51
0.0000612783020143
  0
ARC
  5
307C
  8
0
 10
574.3714922770132
 20
227.8435491675173
 30
0.0
 40
1.00000095708152
 50
179.99999208435841
 51
269.9999545548244
  0
ARC
  5
307D
  8
0
 10
552.37149034422373
 20
227.8435491675173
 30
0.0
 40
1.0000009570814981
 50
270.00004544517549
 51
0.0000079156448076
  0
LINE
  5
307E
  8
0
 10
605.01950086975796
 20
279.84355293969207
 30
0.0
 11
605.03050165200943
 21
279.84355293969207
 31
0.0
  0
LINE
  5
307F
  8
0
 10
605.03050165200943
 20
279.84355293969207
 30
0.0
 11
605.03460319662804
 21
279.84355293969207
 31
0.0
  0
LINE
  5
3080
  8
0
 10
607.87149371529335
 20
261.84354998926221
 30
0.0
 11
607.87396730805153
 21
261.84354998926221
 31
0.0
  0
LINE
  5
3081
  8
0
 10
603.99966167236084
 20
244.3435471207886
 30
0.0
 11
603.99966167236084
 21
249.84354802230891
 31
0.0
  0
LINE
  5
3082
  8
0
 10
603.99966167236084
 20
244.3435471207886
 30
0.0
 11
607.87568094158883
 21
244.3435471207886
 31
0.0
  0
LINE
  5
3083
  8
0
 10
607.87568094158883
 20
244.3435471207886
 30
0.0
 11
607.87568094158883
 21
249.84354802230891
 31
0.0
  0
LINE
  5
3084
  8
0
 10
603.99966167236084
 20
249.84354802230891
 30
0.0
 11
607.87568094158883
 21
249.84354802230891
 31
0.0
  0
LINE
  5
3085
  8
0
 10
596.4954685601067
 20
244.3435471207886
 30
0.0
 11
596.4954685601067
 21
249.84354802230891
 31
0.0
  0
LINE
  5
3086
  8
0
 10
596.4954685601067
 20
244.3435471207886
 30
0.0
 11
603.99966167236084
 21
244.3435471207886
 31
0.0
  0
LINE
  5
3087
  8
0
 10
596.4954685601067
 20
249.84354802230891
 30
0.0
 11
603.99966167236084
 21
249.84354802230891
 31
0.0
  0
LINE
  5
3088
  8
0
 10
592.86730216766114
 20
244.3435471207886
 30
0.0
 11
592.86730216766114
 21
249.84354802230891
 31
0.0
  0
LINE
  5
3089
  8
0
 10
592.86730216766114
 20
244.3435471207886
 30
0.0
 11
596.4954685601067
 21
244.3435471207886
 31
0.0
  0
LINE
  5
308A
  8
0
 10
592.86730216766114
 20
249.84354802230891
 30
0.0
 11
596.4954685601067
 21
249.84354802230891
 31
0.0
  0
LINE
  5
308B
  8
0
 10
597.37149292553181
 20
285.42090111235677
 30
0.0
 11
603.37094815397973
 21
285.42090111235677
 31
0.0
  0
LINE
  5
308C
  8
0
 10
597.37149292553181
 20
288.8435488269717
 30
0.0
 11
603.37094815397973
 21
288.8435488269717
 31
0.0
  0
CIRCLE
  5
3095
  8
0
 10
563.37149062272101
 20
298.76354679557318
 30
0.0
 40
7.4999999694718236
  0
LINE
  5
3096
  8
0
 10
548.87148964936489
 20
229.84354769448331
 30
0.0
 11
577.8714911262166
 21
229.84354769448331
 31
0.0
  0
LINE
  5
3097
  8
0
 10
579.89420222068543
 20
279.84355293969207
 30
0.0
 11
575.6271210680377
 21
279.84355293969207
 31
0.0
  0
LINE
  5
3098
  8
0
 10
584.37149071305066
 20
261.84354998926221
 30
0.0
 11
607.87149371529335
 21
261.84354998926221
 31
0.0
  0
LINE
  5
3099
  8
0
 10
607.87149371529335
 20
279.84355293969207
 30
0.0
 11
579.89420222068543
 21
279.84355293969207
 31
0.0
  0
LINE
  5
309A
  8
0
 10
548.37149234438652
 20
212.34354839483791
 30
0.0
 11
548.87149149502034
 21
211.8435492442041
 31
0.0
  0
LINE
  5
309B
  8
0
 10
548.87149149502034
 20
211.8435492442041
 30
0.0
 11
577.8714911262166
 21
211.8435492442041
 31
0.0
  0
LINE
  5
309C
  8
0
 10
578.37149120817287
 20
212.34354839483791
 30
0.0
 11
577.8714911262166
 21
211.8435492442041
 31
0.0
  0
LINE
  5
309D
  8
0
 10
548.37149234438675
 20
226.3435481284796
 30
0.0
 11
548.37149234438652
 21
212.34354839483791
 31
0.0
  0
LINE
  5
309E
  8
0
 10
578.37149120817321
 20
226.34354812847971
 30
0.0
 11
578.37149120817287
 21
212.34354839483791
 31
0.0
  0
LINE
  5
309F
  8
0
 10
577.8714911262166
 20
223.84354841718971
 30
0.0
 11
548.37149234438675
 21
223.84354841718971
 31
0.0
  0
LINE
  5
30A0
  8
0
 10
577.8714911262166
 20
223.84354841718971
 30
0.0
 11
578.37149120817287
 21
223.84354841718971
 31
0.0
  0
LINE
  5
30A1
  8
0
 10
577.8714911262166
 20
226.8435482104361
 30
0.0
 11
548.87149149502034
 21
226.8435482104361
 31
0.0
  0
LINE
  5
30A2
  8
0
 10
574.09529659847135
 20
287.34354578713481
 30
0.0
 11
552.64768602276547
 21
287.34354578713481
 31
0.0
  0
LINE
  5
30A3
  8
0
 10
560.87149159932835
 20
277.84354888657629
 30
0.0
 11
560.87149159932835
 21
279.84355293969207
 31
0.0
  0
LINE
  5
30A4
  8
0
 10
560.87149159932835
 20
277.84354888657629
 30
0.0
 11
565.87149148756976
 21
277.84354888657629
 31
0.0
  0
LINE
  5
30A5
  8
0
 10
565.87149148756976
 20
277.84354888657629
 30
0.0
 11
565.87149148756976
 21
279.84355293969207
 31
0.0
  0
LINE
  5
30A6
  8
0
 10
565.87149148756976
 20
279.84355293969207
 30
0.0
 11
575.6271210680377
 21
279.84355293969207
 31
0.0
  0
LINE
  5
30A7
  8
0
 10
548.37149234438652
 20
279.84355293969207
 30
0.0
 11
560.87149159932835
 21
279.84355293969207
 31
0.0
  0
LINE
  5
30A8
  8
0
 10
575.37149164775724
 20
285.34354918459951
 30
0.0
 11
578.37149120817287
 21
285.34354918459951
 31
0.0
  0
LINE
  5
30A9
  8
0
 10
575.37149164775724
 20
286.34355121115738
 30
0.0
 11
575.37149164775724
 21
285.34354918459951
 31
0.0
  0
LINE
  5
30AA
  8
0
 10
551.37149097347969
 20
286.34355121115738
 30
0.0
 11
551.37149097347969
 21
285.34354918459951
 31
0.0
  0
LINE
  5
30AB
  8
0
 10
548.37149234438652
 20
285.34354918459951
 30
0.0
 11
551.37149097347969
 21
285.34354918459951
 31
0.0
  0
LINE
  5
30AC
  8
0
 10
600.37149155462487
 20
279.34355192641323
 30
0.0
 11
600.37149155462487
 21
279.84355293969207
 31
0.0
  0
CIRCLE
  5
312E
  8
0
 10
209.0995980489765
 20
442.43652005197549
 30
0.0
 40
3.0000005066394801
  0
CIRCLE
  5
3131
  8
0
 10
209.0995980489765
 20
442.43652005197538
 30
0.0
 40
3.999994274157415
  0
ARC
  5
32E8
  8
0
 10
314.09931543580552
 20
75.821832989879056
 30
0.0
 40
12.000000000013779
 50
86.384594080854541
 51
102.2310071325609
  0
ARC
  5
32E9
  8
0
 10
286.09931543579739
 20
-53.34483367681554
 30
0.0
 40
120.16666666670901
 50
77.768992867429219
 51
81.927039833328266
  0
ARC
  5
32EA
  8
0
 10
314.0993154358066
 20
75.82183298992112
 30
0.0
 40
12.00000000002807
 50
257.76899286744589
 51
273.61540591913899
  0
ARC
  5
32EB
  8
0
 10
314.0993154358041
 20
75.821832989892926
 30
0.0
 40
12.000000000000041
 50
273.61540591915849
 51
86.384594080841481
  0
ARC
  5
32EC
  8
0
 10
286.09931543581138
 20
204.98849965652269
 30
0.0
 40
120.1666666666291
 50
278.07296016667169
 51
282.23100713257412
  0
LINE
  5
32F7
  8
0
 10
286.09931543580427
 20
84.821832989892926
 30
0.0
 11
261.09959771370052
 21
84.821832989892926
 31
0.0
  0
LINE
  5
32F8
  8
0
 10
286.09931543580427
 20
66.821832989892926
 30
0.0
 11
261.0995977137004
 21
66.821832989892926
 31
0.0
  0
LINE
  5
32F9
  8
1
 10
246.0993154358043
 20
113.3218329878963
 30
0.0
 11
246.0993154358043
 21
38.321832991889828
 31
0.0
  0
ARC
  5
32FA
  8
0
 10
286.09931543580427
 20
204.9884996565591
 30
0.0
 40
120.1666666666662
 50
270.0
 51
278.07296016667169
  0
ARC
  5
32FB
  8
0
 10
286.09931543580427
 20
-53.344833676773298
 30
0.0
 40
120.1666666666662
 50
81.927039833328266
 51
90.0
  0
LINE
  5
330B
  8
1
 10
196.0995980489765
 20
75.821832989892926
 30
0.0
 11
331.0993154358041
 21
75.821832989892926
 31
0.0
  0
ARC
  5
3513
  8
1
 10
246.0995980489765
 20
75.821832989892926
 30
0.0
 40
23.999999999708091
 50
242.74614688253669
 51
297.25385311746311
  0
ARC
  5
3514
  8
1
 10
246.0995980489765
 20
75.821832989892926
 30
0.0
 40
23.999999999708091
 50
62.74614688253714
 51
117.25385311746319
  0
LINE
  5
3515
  8
1
 10
217.0995980489765
 20
83.021832840136256
 30
0.0
 11
217.0995980489765
 21
68.621833139649596
 31
0.0
  0
LINE
  5
3516
  8
1
 10
209.09959804897639
 20
85.321832989892854
 30
0.0
 11
209.0995980489767
 21
66.321832989892869
 31
0.0
  0
LINE
  5
3518
  8
0
 10
212.85237479870901
 20
69.321832989892854
 30
0.0
 11
216.60515154844151
 21
75.821832989893039
 31
0.0
  0
LINE
  5
3519
  8
0
 10
205.346821299244
 20
69.321832989892854
 30
0.0
 11
212.85237479870889
 21
69.321832989892854
 31
0.0
  0
LINE
  5
351A
  8
0
 10
201.59404454951149
 20
75.821832989892812
 30
0.0
 11
205.34682129924411
 21
82.321832989892869
 31
0.0
  0
LINE
  5
351B
  8
0
 10
201.59404454951141
 20
75.821832989892869
 30
0.0
 11
205.346821299244
 21
69.321832989892854
 31
0.0
  0
LINE
  5
351C
  8
0
 10
205.34682129924411
 20
82.321832989892869
 30
0.0
 11
212.85237479870901
 21
82.321832989892869
 31
0.0
  0
LINE
  5
351D
  8
0
 10
212.85237479870909
 20
82.321832989892869
 30
0.0
 11
216.60515154844151
 21
75.821832989893039
 31
0.0
  0
LINE
  5
3540
  8
0
 10
209.0995975721394
 20
83.821833369872536
 30
0.0
 11
229.5768869060789
 21
83.821833369872536
 31
0.0
  0
ARC
  5
3541
  8
0
 10
209.0995980489765
 20
75.821832989892926
 30
0.0
 40
8.0
 50
90.0
 51
270.0
  0
ARC
  5
3542
  8
0
 10
217.0995980489765
 20
75.821832989892926
 30
0.0
 40
4.1999999999999877
 50
270.0
 51
90.0
  0
LINE
  5
3543
  8
0
 10
217.09959888344159
 20
80.021832840136256
 30
0.0
 11
214.1802805043074
 21
80.021832840136256
 31
0.0
  0
LINE
  5
3544
  8
0
 10
214.18028050430709
 20
71.621833139649596
 30
0.0
 11
217.09959888344159
 21
71.621833139649596
 31
0.0
  0
LINE
  5
3545
  8
0
 10
229.5768869060789
 20
67.821832609913315
 30
0.0
 11
209.0995975721394
 21
67.821832609913315
 31
0.0
  0
ARC
  5
3547
  8
0
 10
246.0995980489765
 20
93.321832989893096
 30
0.0
 40
15.00000000000003
 50
0.0
 51
180.0
  0
ARC
  5
3548
  8
0
 10
246.0995980489765
 20
75.821832989893096
 30
0.0
 40
28.199999999999999
 50
80.000000000001407
 51
99.999999999998607
  0
ARC
  5
3549
  8
0
 10
241.9320417849701
 20
99.457219062186084
 30
0.0
 40
4.2000000000000064
 50
99.999999999998607
 51
279.99999999999858
  0
ARC
  5
354A
  8
0
 10
250.2671543129828
 20
99.457219062186084
 30
0.0
 40
4.2000000000000011
 50
260.00000000000142
 51
80.000000000001407
  0
ARC
  5
354B
  8
0
 10
246.0995980489765
 20
75.821832989893096
 30
0.0
 40
19.800000000000001
 50
80.000000000001407
 51
99.999999999998607
  0
LINE
  5
354C
  8
0
 10
231.09959838425269
 20
75.821832989892926
 30
0.0
 11
231.09959838425269
 21
93.321833064398902
 31
0.0
  0
LINE
  5
354D
  8
0
 10
261.0995977137004
 20
93.321833064398902
 30
0.0
 11
261.0995977137004
 21
75.821832989892926
 31
0.0
  0
LINE
  5
354E
  8
0
 10
231.09959838425269
 20
58.32183291538729
 30
0.0
 11
231.09959838425269
 21
75.821832989892926
 31
0.0
  0
LINE
  5
354F
  8
0
 10
261.0995977137004
 20
75.821832989892926
 30
0.0
 11
261.0995977137004
 21
58.32183291538729
 31
0.0
  0
ARC
  5
3550
  8
0
 10
246.0995980489765
 20
58.321832989893103
 30
0.0
 40
15.00000000000003
 50
180.0
 51
0.0
  0
ARC
  5
3551
  8
0
 10
241.9320417849701
 20
52.186446917600108
 30
0.0
 40
4.2000000000000064
 50
80.000000000001407
 51
260.00000000000142
  0
ARC
  5
3552
  8
0
 10
246.0995980489765
 20
75.821832989893096
 30
0.0
 40
19.800000000000001
 50
260.00000000000142
 51
279.99999999999858
  0
ARC
  5
3553
  8
0
 10
250.2671543129828
 20
52.186446917600108
 30
0.0
 40
4.2000000000000011
 50
279.99999999999858
 51
99.999999999998607
  0
ARC
  5
3554
  8
0
 10
246.0995980489765
 20
75.821832989893096
 30
0.0
 40
28.199999999999999
 50
260.00000000000142
 51
279.99999999999858
  0
POINT
  5
3558
  8
0
 10
201.0995980489765
 20
75.821832989892926
 30
0.0
  0
ARC
  5
3559
  8
0
 10
229.5768864071182
 20
91.821832989892926
 30
0.0
 40
8.0000000000000018
 50
270.0
 51
280.97256833988109
  0
ARC
  5
355A
  8
0
 10
229.5768864071182
 20
59.821832989892918
 30
0.0
 40
8.0
 50
79.027431660118609
 51
90.0
  0
LINE
  5
355C
  8
0
 10
270.88153533748527
 20
84.821832989892926
 30
0.0
 11
270.88153533748527
 21
79.321833097926046
 31
0.0
  0
LINE
  5
355D
  8
0
 10
270.88153533748527
 20
79.321833097926046
 30
0.0
 11
261.0993151005282
 21
79.321833097926046
 31
0.0
  0
LINE
  5
355E
  8
0
 10
261.0993151005282
 20
72.321832881859223
 30
0.0
 11
270.88153533748527
 21
72.321832881859223
 31
0.0
  0
LINE
  5
355F
  8
0
 10
270.88153533748527
 20
72.321832881859223
 30
0.0
 11
270.88153533748527
 21
66.821832989892926
 31
0.0
  0
LINE
  5
398B
  8
3
 10
212.42309710275259
 20
249.84354724744861
 30
0.0
 11
212.42309710275259
 21
256.84354921440212
 31
0.0
  0
LINE
  5
398C
  8
3
 10
205.7760971027526
 20
249.84354724744861
 30
0.0
 11
205.7760971027526
 21
256.84354921440212
 31
0.0
  0
LINE
  5
398D
  8
3
 10
603.69499248594775
 20
249.8435472474485
 30
0.0
 11
603.69499248594775
 21
256.84354921440189
 31
0.0
  0
LINE
  5
398E
  8
3
 10
597.0479924859477
 20
249.8435472474485
 30
0.0
 11
597.0479924859477
 21
256.84354921440189
 31
0.0
  0
TEXT
  5
3A36
  8
0
 62
     3
 10
0.0
 20
0.0
 30
0.0
 40
10.0
  1
QLSWC200VL
  7
STANDARD1
  0
ENDSEC
  0
EOF
