  0
SECTION
  2
HEADER
  9
$ACADVER
  1
AC1009
  9
$INSBASE
 10
0.0
 20
0.0
 30
0.0
  9
$EXTMIN
 10
0.0
 20
-2.960436562073669
 30
0.0
  9
$EXTMAX
 10
346.04145184164997
 20
263.42439321738362
 30
0.0
  9
$LIMMIN
 10
0.0
 20
0.0
  9
$LIMMAX
 10
770.0
 20
540.0
  9
$ORTHOMODE
 70
     1
  9
$REGENMODE
 70
     1
  9
$FILLMODE
 70
     1
  9
$QTEXTMODE
 70
     0
  9
$MIRRTEXT
 70
     0
  9
$DRAGMODE
 70
     2
  9
$LTSCALE
 40
5.0
  9
$OSMODE
 70
    37
  9
$ATTMODE
 70
     1
  9
$TEXTSIZE
 40
4.000000000000048
  9
$TRACEWID
 40
0.05
  9
$TEXTSTYLE
  7
STANDARD
  9
$CLAYER
  8
0
  9
$CELTYPE
  6
BYLAYER
  9
$CECOLOR
 62
   256
  9
$DIMSCALE
 40
2.0
  9
$DIMASZ
 40
3.0
  9
$DIMEXO
 40
2.0
  9
$DIMDLI
 40
0.38
  9
$DIMRND
 40
0.0
  9
$DIMDLE
 40
0.0
  9
$DIMEXE
 40
2.0
  9
$DIMTP
 40
0.0
  9
$DIMTM
 40
0.0
  9
$DIMTXT
 40
3.0
  9
$DIMCEN
 40
0.0
  9
$DIMTSZ
 40
0.0
  9
$DIMTOL
 70
     0
  9
$DIMLIM
 70
     0
  9
$DIMTIH
 70
     0
  9
$DIMTOH
 70
     0
  9
$DIMSE1
 70
     0
  9
$DIMSE2
 70
     0
  9
$DIMTAD
 70
     1
  9
$DIMZIN
 70
     0
  9
$DIMBLK
  1

  9
$DIMASO
 70
     0
  9
$DIMSHO
 70
     0
  9
$DIMPOST
  1

  9
$DIMAPOST
  1

  9
$DIMALT
 70
     0
  9
$DIMALTD
 70
     2
  9
$DIMALTF
 40
25.399999999999999
  9
$DIMLFAC
 40
1.0
  9
$DIMTOFL
 70
     0
  9
$DIMTVP
 40
1.6000000000000001
  9
$DIMTIX
 70
     1
  9
$DIMSOXD
 70
     0
  9
$DIMSAH
 70
     0
  9
$DIMBLK1
  1

  9
$DIMBLK2
  1

  9
$DIMSTYLE
  2
STANDARD
  9
$DIMCLRD
 70
     4
  9
$DIMCLRE
 70
     4
  9
$DIMCLRT
 70
     4
  9
$DIMTFAC
 40
1.0
  9
$DIMGAP
 40
0.09
  9
$LUNITS
 70
     2
  9
$LUPREC
 70
     1
  9
$SKETCHINC
 40
0.1
  9
$FILLETRAD
 40
0.0
  9
$AUNITS
 70
     0
  9
$AUPREC
 70
     0
  9
$MENU
  1
E:\r13\win\SUPPORT\ACAD
  9
$ELEVATION
 40
0.0
  9
$PELEVATION
 40
0.0
  9
$THICKNESS
 40
0.0
  9
$LIMCHECK
 70
     0
  9
$BLIPMODE
 70
     0
  9
$CHAMFERA
 40
1.1999999999999991
  9
$CHAMFERB
 40
1.1999999999999991
  9
$SKPOLY
 70
     0
  9
$TDCREATE
 40
2450158.583426042
  9
$TDUPDATE
 40
2459506.7017222922
  9
$TDINDWG
 40
0.3736651042
  9
$TDUSRTIMER
 40
0.3736651042
  9
$USRTIMER
 70
     1
  9
$ANGBASE
 50
0.0
  9
$ANGDIR
 70
     0
  9
$PDMODE
 70
     0
  9
$PDSIZE
 40
0.0
  9
$PLINEWID
 40
0.0
  9
$COORDS
 70
     1
  9
$SPLFRAME
 70
     0
  9
$SPLINETYPE
 70
     6
  9
$SPLINESEGS
 70
     8
  9
$ATTDIA
 70
     0
  9
$ATTREQ
 70
     1
  9
$HANDLING
 70
     1
  9
$HANDSEED
  5
4789
  9
$SURFTAB1
 70
     6
  9
$SURFTAB2
 70
     6
  9
$SURFTYPE
 70
     6
  9
$SURFU
 70
     6
  9
$SURFV
 70
     6
  9
$UCSNAME
  2

  9
$UCSORG
 10
0.0
 20
0.0
 30
0.0
  9
$UCSXDIR
 10
1.0
 20
0.0
 30
0.0
  9
$UCSYDIR
 10
0.0
 20
1.0
 30
0.0
  9
$PUCSNAME
  2

  9
$PUCSORG
 10
0.0
 20
0.0
 30
0.0
  9
$PUCSXDIR
 10
1.0
 20
0.0
 30
0.0
  9
$PUCSYDIR
 10
0.0
 20
1.0
 30
0.0
  9
$USERI1
 70
     3
  9
$USERI2
 70
     1
  9
$USERI3
 70
     0
  9
$USERI4
 70
     0
  9
$USERI5
 70
     0
  9
$USERR1
 40
2.0
  9
$USERR2
 40
3.0
  9
$USERR3
 40
3.0
  9
$USERR4
 40
3.0
  9
$USERR5
 40
10.0
  9
$WORLDVIEW
 70
     1
  9
$SHADEDGE
 70
     3
  9
$SHADEDIF
 70
    70
  9
$TILEMODE
 70
     1
  9
$MAXACTVP
 70
    16
  9
$PLIMCHECK
 70
     0
  9
$PEXTMIN
 10
1.0000000000000000E+020
 20
1.0000000000000000E+020
 30
1.0000000000000000E+020
  9
$PEXTMAX
 10
-1.0000000000000000E+020
 20
-1.0000000000000000E+020
 30
-1.0000000000000000E+020
  9
$PLIMMIN
 10
0.0
 20
0.0
  9
$PLIMMAX
 10
12.0
 20
9.0
  9
$UNITMODE
 70
     0
  9
$VISRETAIN
 70
     0
  9
$PLINEGEN
 70
     0
  9
$PSLTSCALE
 70
     0
  0
ENDSEC
  0
SECTION
  2
TABLES
  0
TABLE
  2
VPORT
 70
     1
  0
VPORT
  2
*ACTIVE
 70
     0
 10
0.0
 20
0.0
 11
1.0
 21
1.0
 12
283.04525184780971
 22
130.23395152204489
 13
0.0
 23
0.0
 14
10.0
 24
10.0
 15
10.0
 25
10.0
 16
0.0
 26
0.0
 36
1.0
 17
0.0
 27
0.0
 37
0.0
 40
268.80774803136478
 41
2.3805970149253728
 42
50.0
 43
0.0
 44
0.0
 50
0.0
 51
0.0
 71
     0
 72
   500
 73
     1
 74
     0
 75
     0
 76
     0
 77
     0
 78
     2
  0
ENDTAB
  0
TABLE
  2
LTYPE
 70
     3
  0
LTYPE
  2
CONTINUOUS
 70
     0
  3
Solid Line
 72
    65
 73
     0
 40
0.0
  0
LTYPE
  2
CENTER
 70
     0
  3
Center ____ _ ____ _ ____ _ ____ _ ____ _ ____
 72
    65
 73
     4
 40
2.0
 49
1.25
 49
-0.25
 49
0.25
 49
-0.25
  0
LTYPE
  2
PHANTOM2
 70
     0
  3
___ _ _ ___ _ _ ___ _ _ ___ _ _
 72
    65
 73
     6
 40
1.25
 49
0.625
 49
-0.125
 49
0.125
 49
-0.125
 49
0.125
 49
-0.125
  0
ENDTAB
  0
TABLE
  2
LAYER
 70
     3
  0
LAYER
  2
0
 70
     0
 62
     7
  6
CONTINUOUS
  0
LAYER
  2
1
 70
     0
 62
     1
  6
CENTER
  0
LAYER
  2
3
 70
     0
 62
     3
  6
CONTINUOUS
  0
ENDTAB
  0
TABLE
  2
STYLE
 70
     2
  0
STYLE
  2
STANDARD
 70
     0
 40
0.0
 41
1.0
 50
0.0
 71
     0
 42
4.000000000000048
  3
SIMPLEX
  4
BIGFONT
  0
STYLE
  2
STANDARD1
 70
     0
 40
0.0
 41
1.0
 50
0.0
 71
     0
 42
3.0
  3
txt
  4

  0
ENDTAB
  0
TABLE
  2
VIEW
 70
     1
  0
VIEW
  2
ALL
 70
     0
 40
179.5384664489153
 10
146.94997169852391
 20
89.769233224457665
 41
0.0
 11
0.0
 21
0.0
 31
1.0
 12
0.0
 22
0.0
 32
0.0
 42
50.0
 43
0.0
 44
0.0
 50
0.0
 71
     0
  0
ENDTAB
  0
TABLE
  2
UCS
 70
     0
  0
ENDTAB
  0
TABLE
  2
APPID
 70
     4
  0
APPID
  2
ACAD
 70
     0
  0
APPID
  2
ACAD_MLEADERVER
 70
     0
  0
APPID
  2
ACAD_NAV_VCDISPLAY
 70
     0
  0
APPID
  2
ACAD_EXEMPT_FROM_CAD_STANDARDS
 70
     0
  0
ENDTAB
  0
TABLE
  2
DIMSTYLE
 70
     1
  0
DIMSTYLE
  2
STANDARD
 70
     0
  3

  4

  5

  6

  7

 40
1.0
 41
0.18
 42
0.0625
 43
0.38
 44
0.18
 45
0.0
 46
0.0
 47
0.0
 48
0.0
140
0.18
141
0.09
142
0.0
143
25.399999999999999
144
1.0
145
0.0
146
1.0
147
0.09
 71
     0
 72
     0
 73
     1
 74
     1
 75
     0
 76
     0
 77
     0
 78
     0
170
     0
171
     2
172
     0
173
     0
174
     0
175
     0
176
     0
177
     0
178
     0
  0
ENDTAB
  0
ENDSEC
  0
SECTION
  2
BLOCKS
  0
BLOCK
  8
0
  2
$MODEL_SPACE
 70
     0
 10
0.0
 20
0.0
 30
0.0
  3
$MODEL_SPACE
  1

  0
ENDBLK
  5
644
  8
0
  0
BLOCK
 67
     1
  8
0
  2
$PAPER_SPACE
 70
     0
 10
0.0
 20
0.0
 30
0.0
  3
$PAPER_SPACE
  1

  0
ENDBLK
  5
642
 67
     1
  8
0
  0
ENDSEC
  0
SECTION
  2
ENTITIES
  0
TEXT
  5
1D5B
  8
0
 62
     3
 10
0.0
 20
0.0
 30
0.0
 40
10.0
  1
QLSWC18L-18
  7
STANDARD1
  0
LINE
  5
2FC6
  8
1
 10
50.0
 20
117.0
 30
0.0
 11
50.0
 21
178.01920010734429
 31
0.0
  0
LINE
  5
388F
  8
0
 10
120.00000044700001
 20
144.8000008315
 30
0.0
 11
120.00000044700001
 21
147.60000069439999
 31
0.0
  0
LINE
  5
3890
  8
0
 10
120.0000004469499
 20
162.39999976749999
 30
0.0
 11
120.0000004469499
 21
164.10000157350001
 31
0.0
  0
LINE
  5
3891
  8
0
 10
115.99999979134989
 20
164.10000157350001
 30
0.0
 11
115.99999979134989
 21
162.39999976749991
 31
0.0
  0
LINE
  5
3892
  8
0
 10
115.9999997914
 20
147.60000069439999
 30
0.0
 11
115.9999997914
 21
144.8000008315
 31
0.0
  0
LINE
  5
3893
  8
0
 10
120.0000004469499
 20
164.10000157350001
 30
0.0
 11
119.2999997734499
 21
164.8000022471
 31
0.0
  0
LINE
  5
3894
  8
0
 10
116.70000046484989
 20
164.8000022471
 30
0.0
 11
115.99999979134989
 21
164.10000157350001
 31
0.0
  0
LINE
  5
3895
  8
0
 10
148.99999961259999
 20
162.50000146030001
 30
0.0
 11
148.5000004619001
 21
162.99999874829999
 31
0.0
  0
LINE
  5
3896
  8
0
 10
131.49999953810001
 20
162.99999874829999
 30
0.0
 11
131.00000038740001
 21
162.50000146030001
 31
0.0
  0
LINE
  5
3897
  8
0
 10
131.00000038740001
 20
160.25000062589999
 30
0.0
 11
131.2499999627
 21
160.0000001192
 31
0.0
  0
LINE
  5
3898
  8
0
 10
148.75000003729991
 20
160.0000001192
 30
0.0
 11
148.99999961259999
 21
160.25000062589999
 31
0.0
  0
LINE
  5
3899
  8
0
 10
148.99999961259999
 20
160.25000062589999
 30
0.0
 11
148.99999961259999
 21
162.50000146030001
 31
0.0
  0
LINE
  5
389A
  8
0
 10
131.00000038740001
 20
162.50000146030001
 30
0.0
 11
131.00000038740001
 21
160.25000062589999
 31
0.0
  0
ARC
  5
389B
  8
0
 10
135.99999997892891
 20
173.5192000508705
 30
0.0
 40
1.4999999491295171
 50
89.999999195141555
 51
179.99994285588221
  0
LINE
  5
389C
  8
0
 10
145.49999997020001
 20
166.0192012489
 30
0.0
 11
145.49999997020001
 21
167.72955653069999
 31
0.0
  0
LINE
  5
389D
  8
0
 10
134.50000002979999
 20
173.51920154690001
 30
0.0
 11
134.50000002979999
 21
166.0192012489
 31
0.0
  0
ARC
  5
389E
  8
0
 10
134.99999997892931
 20
166.01919994913109
 30
0.0
 40
0.499999949131036
 50
179.99985105744221
 51
270.00000241451988
  0
ARC
  5
389F
  8
0
 10
145.00000042326349
 20
166.01919978253849
 30
0.0
 40
0.4999995469387407
 50
269.99993868618822
 51
0.0001680328070937
  0
ARC
  5
38A0
  8
0
 10
145.9379624420568
 20
167.7483319874097
 30
0.0
 40
0.4383647391494586
 50
121.7742239606734
 51
182.4547677071703
  0
POLYLINE
  5
38A1
  8
0
 66
     1
 10
0.0
 20
0.0
 30
0.0
 70
   128
  0
VERTEX
  5
4623
  8
0
 10
145.70713123301891
 20
168.1209988593794
 30
0.0
  0
VERTEX
  5
4624
  8
0
 10
146.01076055319999
 20
168.32606863980001
 30
0.0
  0
VERTEX
  5
4625
  8
0
 10
146.4636580646
 20
168.55407130719999
 30
0.0
  0
VERTEX
  5
4626
  8
0
 10
146.9857421330999
 20
168.72313615679991
 30
0.0
  0
VERTEX
  5
4627
  8
0
 10
147.6255421153999
 20
168.85218766329999
 30
0.0
  0
VERTEX
  5
4628
  8
0
 10
148.37177317589999
 20
168.99694126840001
 30
0.0
  0
VERTEX
  5
4629
  8
0
 10
149.22629609699999
 20
169.15626820919999
 30
0.0
  0
VERTEX
  5
462A
  8
0
 10
150.08827611800001
 20
169.3094521463
 30
0.0
  0
VERTEX
  5
462B
  8
0
 10
150.82186400890001
 20
169.4336235225
 30
0.0
  0
VERTEX
  5
462C
  8
0
 10
151.3012082875
 20
169.5115603209
 30
0.0
  0
VERTEX
  5
462D
  8
0
 10
151.69952657069999
 20
169.5743128359
 30
0.0
  0
VERTEX
  5
462E
  8
0
 10
152.02786061910001
 20
169.62460798029991
 30
0.0
  0
VERTEX
  5
462F
  8
0
 10
152.44693249459999
 20
169.68695443870001
 30
0.0
  0
VERTEX
  5
4630
  8
0
 10
153.00865784289999
 20
169.76730895039989
 30
0.0
  0
VERTEX
  5
4631
  8
0
 10
153.71446624399999
 20
169.86308243869991
 30
0.0
  0
VERTEX
  5
4632
  8
0
 10
154.75315447899999
 20
169.9936762154
 30
0.0
  0
VERTEX
  5
4633
  8
0
 10
155.96534810959989
 20
170.13451081509999
 30
0.0
  0
VERTEX
  5
4634
  8
0
 10
157.37381704149999
 20
170.27667906879989
 30
0.0
  0
VERTEX
  5
4635
  8
0
 10
158.98337900640001
 20
170.40941861269999
 30
0.0
  0
VERTEX
  5
4636
  8
0
 10
160.794775337
 20
170.5191991925
 30
0.0
  0
SEQEND
  5
4637
  8
0
  0
ARC
  5
38A2
  8
0
 10
160.54699913680861
 20
161.4081407032011
 30
0.0
 40
9.1144270165933001
 50
62.534357791371022
 51
88.442219165896645
  0
ARC
  5
38A4
  8
0
 10
165.10573002453879
 20
172.51738427908339
 30
0.0
 40
4.4965614043634918
 50
251.38507149933369
 51
0.0231300453188312
  0
ARC
  5
38A5
  8
0
 10
164.59875929209031
 20
169.09983297407109
 30
0.0
 40
0.4236210196508081
 50
36.882085867027662
 51
68.977916339442785
  0
ARC
  5
38A7
  8
0
 10
168.10228902779821
 20
173.51919882679579
 30
0.0
 40
1.5000020347042311
 50
0.0001039001835688
 51
89.999967245887817
  0
LINE
  5
38A8
  8
0
 10
169.60229106249989
 20
172.51919952039989
 30
0.0
 11
169.60229106249989
 21
173.51920154690001
 31
0.0
  0
LINE
  5
38A9
  8
0
 10
135.5000001937
 20
165.51920001177999
 30
0.0
 11
135.5000001937
 21
162.99999874829999
 31
0.0
  0
LINE
  5
38AA
  8
0
 10
144.4999998063
 20
162.99999874829999
 30
0.0
 11
144.4999998063
 21
165.51920022382001
 31
0.0
  0
LINE
  5
38AD
  8
0
 10
148.99999961259999
 20
157.0000014901
 30
0.0
 11
148.99999961259999
 21
159.49999910589989
 31
0.0
  0
LINE
  5
38AE
  8
0
 10
148.99999961259999
 20
131.0000000224
 30
0.0
 11
148.99999961259999
 21
153.00000083450001
 31
0.0
  0
LINE
  5
38AF
  8
0
 10
131.00000038740001
 20
146.99999985100001
 30
0.0
 11
131.00000038740001
 21
131.0000000224
 31
0.0
  0
ARC
  5
38B0
  8
0
 10
131.5
 20
131.0
 30
0.0
 40
0.5
 50
180.0
 51
270.0
  0
ARC
  5
38B1
  8
0
 10
148.5
 20
131.0
 30
0.0
 40
0.5
 50
270.0
 51
0.0
  0
LINE
  5
38B2
  8
0
 10
148.99999961259999
 20
159.49999910589989
 30
0.0
 11
148.5000004619001
 21
160.0000001192
 31
0.0
  0
ARC
  5
38B3
  8
0
 10
127.9999994149744
 20
146.99999975767449
 30
0.0
 40
3.0000005850255409
 50
0.000004628074934
 51
89.999988826838631
  0
LINE
  5
38B4
  8
0
 10
148.70000012220001
 20
155.7499989568999
 30
0.0
 11
148.70000012220001
 21
157.0000014901
 31
0.0
  0
LINE
  5
38B5
  8
0
 10
148.70000012220001
 20
153.00000083450001
 30
0.0
 11
148.70000012220001
 21
154.24999964240001
 31
0.0
  0
ARC
  5
38B6
  8
0
 10
114.5
 20
150.5
 30
0.0
 40
0.5000000000000142
 50
180.0
 51
270.0
  0
LINE
  5
38B7
  8
0
 10
114.5000004768
 20
160.0000001192
 30
0.0
 11
113.99999946360001
 21
159.49999910589989
 31
0.0
  0
LINE
  5
38B8
  8
0
 10
113.99999946360001
 20
159.49999910589989
 30
0.0
 11
113.99999946360001
 21
150.4999994934
 31
0.0
  0
LINE
  5
38B9
  8
0
 10
148.99999961259999
 20
154.24999964240001
 30
0.0
 11
148.99999961259999
 21
155.7499989568999
 31
0.0
  0
LINE
  5
38BC
  8
0
 10
148.99999961259999
 20
127.49999983239999
 30
0.0
 11
148.5000004619001
 21
128.00000037999999
 31
0.0
  0
LINE
  5
38BD
  8
0
 10
131.49999953810001
 20
128.00000037999999
 30
0.0
 11
131.00000038740001
 21
127.49999983239999
 31
0.0
  0
ARC
  5
38BE
  8
0
 10
133.0
 20
129.0
 30
0.0
 40
1.0
 50
270.0
 51
0.0
  0
ARC
  5
38BF
  8
0
 10
147.0
 20
129.0
 30
0.0
 40
1.0
 50
180.0
 51
270.0
  0
LINE
  5
38C0
  8
0
 10
146.00000005219999
 20
128.99999961259999
 30
0.0
 11
146.00000005219999
 21
130.4999999491647
 31
0.0
  0
LINE
  5
38C1
  8
0
 10
133.99999994780001
 20
130.49999999123531
 30
0.0
 11
133.99999994780001
 21
128.99999961259999
 31
0.0
  0
LINE
  5
38C2
  8
0
 10
115.97927413879999
 20
162.39999976749999
 30
0.0
 11
115.97927413879999
 21
160.0000001192
 31
0.0
  0
LINE
  5
38C4
  8
0
 10
120.0207260996
 20
162.39999976749999
 30
0.0
 11
120.0207260996
 21
160.0000001192
 31
0.0
  0
LINE
  5
38C6
  8
0
 10
113.95854815840001
 20
162.39999976749999
 30
0.0
 11
113.95854815840001
 21
160.0000001192
 31
0.0
  0
LINE
  5
38C8
  8
0
 10
113.95854815840001
 20
160.0000001192
 30
0.0
 11
148.75000003729991
 21
160.0000001192
 31
0.0
  0
LINE
  5
38C9
  8
0
 10
113.95854815840001
 20
162.39999976749991
 30
0.0
 11
122.04145208
 21
162.39999976749999
 31
0.0
  0
LINE
  5
38CA
  8
0
 10
122.04145208
 20
162.39999976749999
 30
0.0
 11
122.04145208
 21
160.0000001192
 31
0.0
  0
LINE
  5
38CB
  8
0
 10
115.97927413879999
 20
150.00000034269999
 30
0.0
 11
115.97927413879999
 21
147.60000069439999
 31
0.0
  0
LINE
  5
38CD
  8
0
 10
120.0207260996
 20
150.00000034269999
 30
0.0
 11
120.0207260996
 21
147.60000069439999
 31
0.0
  0
LINE
  5
38CF
  8
0
 10
113.95854815840001
 20
150.00000034269999
 30
0.0
 11
113.95854815840001
 21
147.60000069439999
 31
0.0
  0
LINE
  5
38D2
  8
0
 10
122.04145208
 20
150.00000034269999
 30
0.0
 11
122.04145208
 21
147.60000069439999
 31
0.0
  0
LINE
  5
38D3
  8
0
 10
113.95854815840001
 20
147.60000069439999
 30
0.0
 11
122.04145208
 21
147.60000069439999
 31
0.0
  0
LINE
  5
38D4
  8
0
 10
120.0207260995499
 20
142.0
 30
0.0
 11
120.0207260995499
 21
144.8000008315
 31
0.0
  0
LINE
  5
38D6
  8
0
 10
115.9792741387499
 20
142.0
 30
0.0
 11
115.9792741387499
 21
144.8000008315
 31
0.0
  0
LINE
  5
38D8
  8
0
 10
113.9585481583499
 20
142.0
 30
0.0
 11
113.9585481583499
 21
144.8000008315
 31
0.0
  0
LINE
  5
38DB
  8
0
 10
122.04145207994991
 20
142.0
 30
0.0
 11
122.04145207994991
 21
144.8000008315
 31
0.0
  0
LINE
  5
38DC
  8
0
 10
122.04145207994991
 20
144.8000008315
 30
0.0
 11
113.95854815835
 21
144.8000008315
 31
0.0
  0
LINE
  5
38DD
  8
0
 10
122.04145207994991
 20
142.0
 30
0.0
 11
113.95854815835
 21
142.0
 31
0.0
  0
LINE
  5
38DF
  8
0
 10
120.0000004469499
 20
164.10000157350001
 30
0.0
 11
115.99999979134979
 21
164.10000157350001
 31
0.0
  0
LINE
  5
38E0
  8
0
 10
116.70000046484989
 20
164.8000022471
 30
0.0
 11
119.2999997734499
 21
164.8000022471
 31
0.0
  0
LINE
  5
38E8
  8
0
 10
131.49999953810001
 20
162.99999874829999
 30
0.0
 11
148.5000004619001
 21
162.99999874829999
 31
0.0
  0
LINE
  5
38ED
  8
0
 10
138.499999987
 20
157.9999997914
 30
0.0
 11
138.499999987
 21
160.0000001192
 31
0.0
  0
LINE
  5
38EE
  8
0
 10
141.500000013
 20
157.9999997914
 30
0.0
 11
141.50000001300009
 21
160.0000001192
 31
0.0
  0
LINE
  5
38EF
  8
0
 10
141.500000013
 20
158.50000080469999
 30
0.0
 11
138.499999987
 21
158.50000080469999
 31
0.0
  0
LINE
  5
38F4
  8
0
 10
144.99999988819999
 20
165.51920023560001
 30
0.0
 11
135.0
 21
165.51920000000001
 31
0.0
  0
LINE
  5
38FA
  8
0
 10
134.96949138119999
 20
171.94822427630001
 30
0.0
 11
134.96949138119999
 21
172.71919918059999
 31
0.0
  0
LINE
  5
38FC
  8
0
 10
134.96949138119999
 20
172.71919918059999
 30
0.0
 11
134.96949138119999
 21
173.0051040351
 31
0.0
  0
LINE
  5
3901
  8
0
 10
160.794775337
 20
170.5191991925
 30
0.0
 11
160.82997933030001
 21
170.5191991925
 31
0.0
  0
ARC
  5
3905
  8
0
 10
156.48451485689989
 20
159.79361910099999
 30
0.0
 40
10.779666159056189
 50
66.047221046599518
 51
78.955754904100303
  0
ARC
  5
3907
  8
0
 10
156.47794104589701
 20
158.53069290348461
 30
0.0
 40
11.947249079696761
 50
58.349993558555482
 51
68.478040734200221
  0
POLYLINE
  5
3908
  8
0
 66
     1
 10
0.0
 20
0.0
 30
0.0
 70
   128
  0
VERTEX
  5
4638
  8
0
 10
163.67039956150001
 20
168.25605925919999
 30
0.0
  0
VERTEX
  5
4639
  8
0
 10
163.28041009610001
 20
168.40692606569999
 30
0.0
  0
VERTEX
  5
463A
  8
0
 10
162.7470099926
 20
168.70101910829999
 30
0.0
  0
SEQEND
  5
463B
  8
0
  0
LINE
  5
3909
  8
0
 10
136.0
 20
175.01920000000001
 30
0.0
 11
168.1022898853
 21
175.0192008615
 31
0.0
  0
LINE
  5
390C
  8
0
 10
141.59999995960001
 20
159.49999910589989
 30
0.0
 11
141.59999995960001
 21
157.9999997914
 31
0.0
  0
LINE
  5
390F
  8
0
 10
138.40000004039999
 20
157.9999997914
 30
0.0
 11
138.40000004039999
 21
159.49999910589989
 31
0.0
  0
LINE
  5
3910
  8
0
 10
148.4852809086
 20
157.0000014901
 30
0.0
 11
148.99999961259999
 21
157.0000014901
 31
0.0
  0
POLYLINE
  5
3911
  8
0
 66
     1
 10
0.0
 20
0.0
 30
0.0
 70
   128
  0
VERTEX
  5
463C
  8
0
 10
148.06225743140001
 20
155.99999946359989
 30
0.0
  0
VERTEX
  5
463D
  8
0
 10
148.07254295800001
 20
156.20245409009999
 30
0.0
  0
VERTEX
  5
463E
  8
0
 10
148.1022176891999
 20
156.39545020459991
 30
0.0
  0
VERTEX
  5
463F
  8
0
 10
148.14807321879999
 20
156.5692536235
 30
0.0
  0
VERTEX
  5
4640
  8
0
 10
148.2063097507
 20
156.71847757699999
 30
0.0
  0
VERTEX
  5
4641
  8
0
 10
148.3433296531
 20
156.92709010839999
 30
0.0
  0
VERTEX
  5
4642
  8
0
 10
148.4852809086
 20
157.0000014901
 30
0.0
  0
SEQEND
  5
4643
  8
0
  0
LINE
  5
3912
  8
0
 10
148.06225743140001
 20
155.99999946359989
 30
0.0
 11
148.06225743140001
 21
153.99999913569991
 31
0.0
  0
POLYLINE
  5
3913
  8
0
 66
     1
 10
0.0
 20
0.0
 30
0.0
 70
   128
  0
VERTEX
  5
4644
  8
0
 10
148.4852809086
 20
153.00000083450001
 30
0.0
  0
VERTEX
  5
4645
  8
0
 10
148.35292506959999
 20
153.06359153989999
 30
0.0
  0
VERTEX
  5
4646
  8
0
 10
148.22312198579999
 20
153.24689817429999
 30
0.0
  0
VERTEX
  5
4647
  8
0
 10
148.11902526770001
 20
153.5315364301
 30
0.0
  0
VERTEX
  5
4648
  8
0
 10
148.06711148470001
 20
153.8603529035999
 30
0.0
  0
VERTEX
  5
4649
  8
0
 10
148.06225743140001
 20
153.99999913569991
 30
0.0
  0
SEQEND
  5
464A
  8
0
  0
LINE
  5
3914
  8
0
 10
148.99999961259999
 20
153.00000083450001
 30
0.0
 11
148.4852809086
 21
153.00000083450001
 31
0.0
  0
LINE
  5
3915
  8
0
 10
138.40000004039999
 20
157.9999997914
 30
0.0
 11
141.59999995960001
 21
157.9999997914
 31
0.0
  0
LINE
  5
3917
  8
0
 10
148.5000004619001
 20
130.4999999403999
 30
0.0
 11
131.5
 21
130.5
 31
0.0
  0
LINE
  5
3918
  8
0
 10
138.40000004039999
 20
159.49999910589989
 30
0.0
 11
137.90000007489999
 21
160.0000001192
 31
0.0
  0
LINE
  5
3919
  8
0
 10
142.09999992510009
 20
160.0000001192
 30
0.0
 11
141.59999995960001
 21
159.49999910589989
 31
0.0
  0
LINE
  5
391D
  8
0
 10
148.1118959934
 20
155.7499989568999
 30
0.0
 11
148.1118959934
 21
154.24999964240001
 31
0.0
  0
LINE
  5
3921
  8
0
 10
127.9999994149744
 20
150.00000034269999
 30
0.0
 11
113.95854815840001
 21
150.00000034269999
 31
0.0
  0
LINE
  5
3922
  8
0
 10
148.96437373009999
 20
154.24999964240001
 30
0.0
 11
148.96437373009999
 21
153.50000184769999
 31
0.0
  0
LINE
  5
3923
  8
0
 10
148.1118959934
 20
154.2499996423999
 30
0.0
 11
148.99999961259999
 21
154.24999964240001
 31
0.0
  0
LINE
  5
3924
  8
0
 10
148.41189641509999
 20
155.7499989568999
 30
0.0
 11
148.41189641509999
 21
154.24999964240001
 31
0.0
  0
LINE
  5
3925
  8
0
 10
148.96437373009999
 20
156.50000047680001
 30
0.0
 11
148.96437373009999
 21
155.7499989568999
 31
0.0
  0
LINE
  5
3926
  8
0
 10
148.99999961259999
 20
155.7499989568999
 30
0.0
 11
148.1118959934
 21
155.7499989568999
 31
0.0
  0
LINE
  5
3929
  8
0
 10
148.70000012220001
 20
153.50000184769999
 30
0.0
 11
148.96437373009999
 21
153.50000184769999
 31
0.0
  0
LINE
  5
392A
  8
0
 10
148.70000012220001
 20
156.50000047680001
 30
0.0
 11
148.96437373009999
 21
156.50000047680001
 31
0.0
  0
LINE
  5
392C
  8
0
 10
148.99999961259999
 20
120.5000000238
 30
0.0
 11
148.5000004619001
 21
120.0
 31
0.0
  0
LINE
  5
392D
  8
0
 10
148.5000004619001
 20
120.0
 30
0.0
 11
131.49999953810001
 21
120.0
 31
0.0
  0
LINE
  5
392E
  8
0
 10
131.49999953810001
 20
120.0
 30
0.0
 11
131.00000038740001
 21
120.5000000238
 31
0.0
  0
LINE
  5
392F
  8
0
 10
148.99999961259999
 20
127.49999983239999
 30
0.0
 11
148.99999961259999
 21
120.5000000238
 31
0.0
  0
LINE
  5
3930
  8
0
 10
131.00000038740001
 20
127.49999983239999
 30
0.0
 11
131.00000038740001
 21
120.5000000238
 31
0.0
  0
LINE
  5
3932
  8
0
 10
131.00000038739989
 20
126.00000005219999
 30
0.0
 11
148.99999961259999
 21
126.00000005219999
 31
0.0
  0
LINE
  5
3938
  8
0
 10
131.49999953810001
 20
128.00000037999999
 30
0.0
 11
148.5000004619001
 21
128.00000037999999
 31
0.0
  0
ARC
  5
393C
  8
0
 10
143.75198177750011
 20
173.63625475250001
 30
0.0
 40
1.3830210081045831
 50
39.252935623001079
 51
89.403701657798578
  0
ARC
  5
393E
  8
0
 10
143.61460186950001
 20
173.5237007625
 30
0.0
 40
1.560113138604504
 50
359.83517471620053
 51
39.276821642900551
  0
LINE
  5
3940
  8
0
 10
137.8672033176
 20
173.42630770799991
 30
0.0
 11
137.8672033176
 21
166.0192012489
 31
0.0
  0
LINE
  5
3941
  8
0
 10
134.9303669855
 20
173.42630770799991
 30
0.0
 11
137.8672033176
 21
173.42630770799991
 31
0.0
  0
LINE
  5
3942
  8
0
 10
134.92934858446421
 20
166.0192010224728
 30
0.0
 11
134.9303669855
 21
173.42630770799991
 31
0.0
  0
ARC
  5
3948
  8
0
 10
147.56831749625201
 20
169.06574715323941
 30
0.0
 40
2.4623855848213538
 50
192.88074723232739
 51
212.86358389905331
  0
POLYLINE
  5
3949
  8
0
 66
     1
 10
0.0
 20
0.0
 30
0.0
 70
   128
  0
VERTEX
  5
464B
  8
0
 10
138.06109385100001
 20
165.51920023560001
 30
0.0
  0
VERTEX
  5
464C
  8
0
 10
138.0232676025
 20
165.52880775930001
 30
0.0
  0
VERTEX
  5
464D
  8
0
 10
137.98689503220001
 20
165.5572615266
 30
0.0
  0
VERTEX
  5
464E
  8
0
 10
137.95337393880001
 20
165.60346630219999
 30
0.0
  0
VERTEX
  5
464F
  8
0
 10
137.92399257420001
 20
165.6656451225
 30
0.0
  0
VERTEX
  5
4650
  8
0
 10
137.89987970140001
 20
165.74141380189991
 30
0.0
  0
VERTEX
  5
4651
  8
0
 10
137.88196221929999
 20
165.82785916329999
 30
0.0
  0
VERTEX
  5
4652
  8
0
 10
137.8709288407
 20
165.92165452239999
 30
0.0
  0
VERTEX
  5
4653
  8
0
 10
137.8672033176
 20
166.0192012489
 30
0.0
  0
SEQEND
  5
4654
  8
0
  0
ARC
  5
394A
  8
0
 10
135.41061712253639
 20
166.00040358461979
 30
0.0
 40
0.4816354943398848
 50
177.7632722775999
 51
267.57332307999849
  0
LINE
  5
394D
  8
0
 10
137.26335797460001
 20
172.71919918059999
 30
0.0
 11
135.9694915451
 21
171.94822427630001
 31
0.0
  0
LINE
  5
394E
  8
0
 10
137.67331266779999
 20
173.0051040351
 30
0.0
 11
137.26335797460001
 21
172.71919918059999
 31
0.0
  0
POLYLINE
  5
395D
  8
0
 66
     1
 10
0.0
 20
0.0
 30
0.0
 70
   128
  0
VERTEX
  5
4655
  8
0
 10
135.9694915451
 20
171.94822427630001
 30
0.0
  0
VERTEX
  5
4656
  8
0
 10
135.67803693939999
 20
171.8663423955
 30
0.0
  0
VERTEX
  5
4657
  8
0
 10
135.43521925810001
 20
171.82335999610001
 30
0.0
  0
VERTEX
  5
4658
  8
0
 10
135.221005287
 20
171.81292918319991
 30
0.0
  0
VERTEX
  5
4659
  8
0
 10
135.08103774860001
 20
171.833842963
 30
0.0
  0
VERTEX
  5
465A
  8
0
 10
134.99714188280001
 20
171.8801855742999
 30
0.0
  0
VERTEX
  5
465B
  8
0
 10
134.96949138119999
 20
171.94822427630001
 30
0.0
  0
SEQEND
  5
465C
  8
0
  0
POLYLINE
  5
3968
  8
0
 66
     1
 10
0.0
 20
0.0
 30
0.0
 70
   128
  0
VERTEX
  5
465D
  8
0
 10
134.96949138119999
 20
173.0051040351
 30
0.0
  0
VERTEX
  5
465E
  8
0
 10
134.93138538669999
 20
173.42051860689989
 30
0.0
  0
VERTEX
  5
465F
  8
0
 10
134.9303669855
 20
173.42630770799991
 30
0.0
  0
SEQEND
  5
4660
  8
0
  0
LINE
  5
3974
  8
0
 10
160.486144349
 20
170.50049450989999
 30
0.0
 11
161.7788890004
 21
169.95260488989999
 31
0.0
  0
LINE
  5
3987
  8
0
 10
164.92821589110011
 20
169.12525889279999
 30
0.0
 11
164.93761852380001
 21
169.35447973009991
 31
0.0
  0
POLYLINE
  5
3988
  8
0
 66
     1
 10
0.0
 20
0.0
 30
0.0
 70
   128
  0
VERTEX
  5
4661
  8
0
 10
164.60731565949999
 20
168.72974109649999
 30
0.0
  0
VERTEX
  5
4662
  8
0
 10
164.8241014779
 20
168.89863458280001
 30
0.0
  0
VERTEX
  5
4663
  8
0
 10
164.92821589110011
 20
169.12525889279999
 30
0.0
  0
SEQEND
  5
4664
  8
0
  0
ARC
  5
398D
  8
0
 10
164.04163032770001
 20
170.60703322879999
 30
0.0
 40
1.960669692871041
 50
253.2308450158007
 51
286.7691549841993
  0
POLYLINE
  5
398F
  8
0
 66
     1
 10
0.0
 20
0.0
 30
0.0
 70
   128
  0
VERTEX
  5
4665
  8
0
 10
162.89656363430001
 20
169.12525889279999
 30
0.0
  0
VERTEX
  5
4666
  8
0
 10
163.2312455773
 20
168.86384782199991
 30
0.0
  0
VERTEX
  5
4667
  8
0
 10
163.47594499589999
 20
168.72974109649999
 30
0.0
  0
SEQEND
  5
4668
  8
0
  0
ARC
  5
3990
  8
0
 10
157.4330282208
 20
162.91309860210001
 30
0.0
 40
8.2729169397211901
 50
48.668681651698527
 51
58.310765041500439
  0
POLYLINE
  5
39A6
  8
0
 66
     1
 10
0.0
 20
0.0
 30
0.0
 70
   128
  0
VERTEX
  5
4669
  8
0
 10
145.17470840303389
 20
231.1557641150122
 30
0.0
  0
VERTEX
  5
466A
  8
0
 10
145.56245306509999
 20
231.9029331981437
 30
0.0
  0
VERTEX
  5
466B
  8
0
 10
145.9763360769
 20
232.45561627724371
 30
0.0
  0
VERTEX
  5
466C
  8
0
 10
146.32210541520001
 20
232.86965765754371
 30
0.0
  0
VERTEX
  5
466D
  8
0
 10
146.5765525214
 20
233.15971229634371
 30
0.0
  0
VERTEX
  5
466E
  8
0
 10
147.18967430289999
 20
233.8331481284437
 30
0.0
  0
VERTEX
  5
466F
  8
0
 10
147.7376998961
 20
234.4580467167437
 30
0.0
  0
VERTEX
  5
4670
  8
0
 10
148.46071913840001
 20
235.2624044130437
 30
0.0
  0
VERTEX
  5
4671
  8
0
 10
149.15910303589999
 20
236.0190814203437
 30
0.0
  0
VERTEX
  5
4672
  8
0
 10
149.9762575700999
 20
236.88064839984369
 30
0.0
  0
VERTEX
  5
4673
  8
0
 10
151.45152654500001
 20
238.37569750204369
 30
0.0
  0
VERTEX
  5
4674
  8
0
 10
152.77435664090001
 20
239.6548341336437
 30
0.0
  0
VERTEX
  5
4675
  8
0
 10
154.2117887735001
 20
240.9826393547437
 30
0.0
  0
VERTEX
  5
4676
  8
0
 10
155.60290250930001
 20
242.20743377984371
 30
0.0
  0
VERTEX
  5
4677
  8
0
 10
156.90440624949991
 20
243.49126381154369
 30
0.0
  0
VERTEX
  5
4678
  8
0
 10
157.4064282327999
 20
244.0047876286437
 30
0.0
  0
VERTEX
  5
4679
  8
0
 10
157.97672174869999
 20
244.58696854594371
 30
0.0
  0
VERTEX
  5
467A
  8
0
 10
158.71315948670011
 20
245.33569881054359
 30
0.0
  0
VERTEX
  5
467B
  8
0
 10
159.6161288768001
 20
246.2506925064437
 30
0.0
  0
VERTEX
  5
467C
  8
0
 10
160.68529091779999
 20
247.33095498114369
 30
0.0
  0
VERTEX
  5
467D
  8
0
 10
161.92031033340001
 20
248.57554932414371
 30
0.0
  0
SEQEND
  5
467E
  8
0
  0
POLYLINE
  5
39A7
  8
0
 66
     1
 10
0.0
 20
0.0
 30
0.0
 70
   128
  0
VERTEX
  5
467F
  8
0
 10
155.5563494191
 20
254.93951023844369
 30
0.0
  0
VERTEX
  5
4680
  8
0
 10
154.4820082933
 20
253.8730006042436
 30
0.0
  0
VERTEX
  5
4681
  8
0
 10
153.35399691020001
 20
252.75470198424361
 30
0.0
  0
VERTEX
  5
4682
  8
0
 10
152.17159535740001
 20
251.58439831164361
 30
0.0
  0
VERTEX
  5
4683
  8
0
 10
151.03717740630009
 20
250.46440282194371
 30
0.0
  0
VERTEX
  5
4684
  8
0
 10
150.10434236379999
 20
249.54784171014359
 30
0.0
  0
VERTEX
  5
4685
  8
0
 10
149.5182470977
 20
248.9668510231437
 30
0.0
  0
VERTEX
  5
4686
  8
0
 10
149.0814381838
 20
248.4749515849436
 30
0.0
  0
VERTEX
  5
4687
  8
0
 10
148.6698168888999
 20
248.00225601824371
 30
0.0
  0
VERTEX
  5
4688
  8
0
 10
148.2485163584
 20
247.5290752324436
 30
0.0
  0
VERTEX
  5
4689
  8
0
 10
147.75811914350001
 20
246.9886175665437
 30
0.0
  0
VERTEX
  5
468A
  8
0
 10
147.0582232438
 20
246.2346961098437
 30
0.0
  0
VERTEX
  5
468B
  8
0
 10
146.20137760419999
 20
245.33717588814361
 30
0.0
  0
VERTEX
  5
468C
  8
0
 10
145.22242672740001
 20
244.34338764574369
 30
0.0
  0
VERTEX
  5
468D
  8
0
 10
144.28203772750001
 20
243.41833846004371
 30
0.0
  0
VERTEX
  5
468E
  8
0
 10
143.4006373025
 20
242.57586405904371
 30
0.0
  0
VERTEX
  5
468F
  8
0
 10
142.7136411518
 20
241.93478816474371
 30
0.0
  0
VERTEX
  5
4690
  8
0
 10
142.07086466249999
 20
241.34682559694369
 30
0.0
  0
VERTEX
  5
4691
  8
0
 10
141.33576488590001
 20
240.68769973994361
 30
0.0
  0
VERTEX
  5
4692
  8
0
 10
140.66470616730001
 20
240.09996162084369
 30
0.0
  0
VERTEX
  5
4693
  8
0
 10
139.90538157
 20
239.4542696262437
 30
0.0
  0
VERTEX
  5
4694
  8
0
 10
139.0735597094
 20
238.7760865810437
 30
0.0
  0
VERTEX
  5
4695
  8
0
 10
138.13643150705059
 20
238.19386051923729
 30
0.0
  0
SEQEND
  5
4696
  8
0
  0
LINE
  5
39AB
  8
0
 10
115.97927413879999
 20
229.5191997970436
 30
0.0
 11
120.0207260996
 21
229.5191997970436
 31
0.0
  0
LINE
  5
39AC
  8
0
 10
113.95854815840001
 20
233.01919990504371
 30
0.0
 11
115.97927413879999
 21
229.5191997970436
 31
0.0
  0
LINE
  5
39AD
  8
0
 10
115.97927413879999
 20
236.5192000131436
 30
0.0
 11
113.95854815840001
 21
233.01919990504371
 31
0.0
  0
LINE
  5
39AE
  8
0
 10
120.0207260996
 20
236.5192000131436
 30
0.0
 11
115.97927413879999
 21
236.5192000131436
 31
0.0
  0
LINE
  5
39AF
  8
0
 10
122.04145208
 20
233.01919990504371
 30
0.0
 11
120.0207260996
 21
236.5192000131436
 31
0.0
  0
LINE
  5
39B0
  8
0
 10
120.0207260996
 20
229.5191997970436
 30
0.0
 11
122.04145208
 21
233.01919990504371
 31
0.0
  0
CIRCLE
  5
39B1
  8
3
 10
118.0
 20
233.01919990504371
 30
0.0
 40
1.621000119198527
  0
CIRCLE
  5
39B2
  8
0
 10
118.0
 20
233.01919990504371
 30
0.0
 40
1.999999999999992
  0
CIRCLE
  5
39B3
  8
0
 10
140.0
 20
233.01919990504371
 30
0.0
 40
2.2500000000000182
  0
LINE
  5
39B5
  8
0
 10
140.8164965547999
 20
232.20270335034371
 30
0.0
 11
141.11535505859999
 21
233.31805840884371
 31
0.0
  0
LINE
  5
39B6
  8
0
 10
141.11535505859999
 20
233.31805840884371
 30
0.0
 11
140.29885850380001
 21
234.13455496364369
 31
0.0
  0
LINE
  5
39B7
  8
0
 10
139.18350344519999
 20
233.83569645984369
 30
0.0
 11
138.88464494140001
 21
232.7203414012437
 31
0.0
  0
LINE
  5
39B8
  8
0
 10
138.88464494140001
 20
232.7203414012437
 30
0.0
 11
139.70114149619999
 21
231.90384484654371
 31
0.0
  0
LINE
  5
39B9
  8
0
 10
139.70114149619999
 20
231.90384484654371
 30
0.0
 11
140.8164965547999
 21
232.20270335034371
 31
0.0
  0
LINE
  5
39BA
  8
0
 10
140.29885850380001
 20
234.13455496364369
 30
0.0
 11
139.18350344519999
 21
233.83569645984369
 31
0.0
  0
ARC
  5
39BB
  8
0
 10
140.0
 20
233.01919990504371
 30
0.0
 40
9.0
 50
74.473724200799893
 51
15.843312883741911
  0
POLYLINE
  5
39BF
  8
0
 66
     1
 10
0.0
 20
0.0
 30
0.0
 70
   128
  0
VERTEX
  5
4697
  8
0
 10
133.18512249739999
 20
233.71031506274369
 30
0.0
  0
VERTEX
  5
4698
  8
0
 10
132.6330549642
 20
233.88152602884369
 30
0.0
  0
VERTEX
  5
4699
  8
0
 10
132.27921804409999
 20
234.15896981774361
 30
0.0
  0
SEQEND
  5
469A
  8
0
  0
ARC
  5
39C0
  8
0
 10
133.62342939889999
 20
235.06289574014369
 30
0.0
 40
1.4218253861350849
 50
252.04496299850109
 51
294.21590228370138
  0
POLYLINE
  5
39C1
  8
0
 66
     1
 10
0.0
 20
0.0
 30
0.0
 70
   128
  0
VERTEX
  5
469B
  8
0
 10
134.44814538579999
 20
234.13318498814371
 30
0.0
  0
VERTEX
  5
469C
  8
0
 10
134.35119284320001
 20
233.9011683786436
 30
0.0
  0
VERTEX
  5
469D
  8
0
 10
134.20662829650001
 20
233.7661820190437
 30
0.0
  0
SEQEND
  5
469E
  8
0
  0
POLYLINE
  5
39C2
  8
0
 66
     1
 10
0.0
 20
0.0
 30
0.0
 70
   128
  0
VERTEX
  5
469F
  8
0
 10
134.36305603010001
 20
234.5848479150437
 30
0.0
  0
VERTEX
  5
46A0
  8
0
 10
134.4581543095
 20
234.34027911454359
 30
0.0
  0
VERTEX
  5
46A1
  8
0
 10
134.44814538579999
 20
234.13318498814371
 30
0.0
  0
SEQEND
  5
46A2
  8
0
  0
POLYLINE
  5
39C3
  8
0
 66
     1
 10
0.0
 20
0.0
 30
0.0
 70
   128
  0
VERTEX
  5
46A3
  8
0
 10
133.4545732103
 20
235.0330729811437
 30
0.0
  0
VERTEX
  5
46A4
  8
0
 10
134.00788173079999
 20
234.8620114923437
 30
0.0
  0
VERTEX
  5
46A5
  8
0
 10
134.36305603010001
 20
234.5848479150437
 30
0.0
  0
SEQEND
  5
46A6
  8
0
  0
ARC
  5
39C4
  8
0
 10
133.03417005060001
 20
233.71455948704369
 30
0.0
 40
1.3839135271800951
 50
72.315310050799923
 51
115.2708258419997
  0
POLYLINE
  5
39C5
  8
0
 66
     1
 10
0.0
 20
0.0
 30
0.0
 70
   128
  0
VERTEX
  5
46A7
  8
0
 10
132.20702052120001
 20
234.5895751920437
 30
0.0
  0
VERTEX
  5
46A8
  8
0
 10
132.30156280099999
 20
234.82546883924371
 30
0.0
  0
VERTEX
  5
46A9
  8
0
 10
132.44338087739999
 20
234.96603254054369
 30
0.0
  0
SEQEND
  5
46AA
  8
0
  0
POLYLINE
  5
39C6
  8
0
 66
     1
 10
0.0
 20
0.0
 30
0.0
 70
   128
  0
VERTEX
  5
46AB
  8
0
 10
132.27921804409999
 20
234.15896981774361
 30
0.0
  0
VERTEX
  5
46AC
  8
0
 10
132.1954469755
 20
234.39325879614361
 30
0.0
  0
VERTEX
  5
46AD
  8
0
 10
132.20702052120001
 20
234.5895751920437
 30
0.0
  0
SEQEND
  5
46AE
  8
0
  0
LINE
  5
39C7
  8
0
 10
133.72117081659999
 20
228.08766293624359
 30
0.0
 11
134.62607409809999
 21
229.39113642374369
 31
0.0
  0
LINE
  5
39C8
  8
0
 10
133.97171242159999
 20
227.7490228722437
 30
0.0
 11
133.72117081659999
 21
228.08766293624359
 31
0.0
  0
LINE
  5
39C9
  8
0
 10
135.06660004266391
 20
228.55882265398671
 30
0.0
 11
133.97171242159999
 21
227.7490228722437
 31
0.0
  0
LINE
  5
39CA
  8
0
 10
134.4423125125
 20
228.5643948550437
 30
0.0
 11
134.97006686460469
 21
228.95477054691449
 31
0.0
  0
LINE
  5
39CB
  8
0
 10
134.96949138119999
 20
229.34237656474369
 30
0.0
 11
134.4423125125
 21
228.5643948550437
 31
0.0
  0
LINE
  5
39CC
  8
0
 10
133.1947318837
 20
228.7997517111437
 30
0.0
 11
134.96949138119999
 21
230.11239779474371
 31
0.0
  0
LINE
  5
39CD
  8
0
 10
133.41819994150001
 20
228.49764044684369
 30
0.0
 11
133.1947318837
 21
228.7997517111437
 31
0.0
  0
LINE
  5
39CE
  8
0
 10
134.62607409809999
 20
229.39113642374369
 30
0.0
 11
133.41819994150001
 21
228.49764044684369
 31
0.0
  0
LINE
  5
39CF
  8
0
 10
135.03939645360001
 20
237.59212645994359
 30
0.0
 11
134.5976180024
 21
237.03904378514369
 31
0.0
  0
LINE
  5
39D0
  8
0
 10
134.81979664420001
 20
237.76746283574369
 30
0.0
 11
135.03939645360001
 21
237.59212645994359
 31
0.0
  0
LINE
  5
39D1
  8
0
 10
134.3780177273
 20
237.21438016104369
 30
0.0
 11
134.81979664420001
 21
237.76746283574369
 31
0.0
  0
LINE
  5
39D2
  8
0
 10
133.84857062250001
 20
237.63724996994361
 30
0.0
 11
134.3780177273
 21
237.21438016104369
 31
0.0
  0
LINE
  5
39D3
  8
0
 10
134.4330253638
 20
238.3686776581437
 30
0.0
 11
133.84857062250001
 21
237.63724996994361
 31
0.0
  0
LINE
  5
39D4
  8
0
 10
134.21342508870001
 20
238.5444433736437
 30
0.0
 11
134.4330253638
 21
238.3686776581437
 31
0.0
  0
LINE
  5
39D5
  8
0
 10
133.38788306340001
 20
237.51090442124359
 30
0.0
 11
134.21342508870001
 21
238.5444433736437
 31
0.0
  0
LINE
  5
39D6
  8
0
 10
135.17691554500001
 20
236.0815699054437
 30
0.0
 11
133.38788306340001
 21
237.51090442124359
 31
0.0
  0
LINE
  5
39D7
  8
0
 10
135.41800282899999
 20
236.3836811698437
 30
0.0
 11
135.17691554500001
 21
236.0815699054437
 31
0.0
  0
LINE
  5
39D8
  8
0
 10
134.5976180024
 20
237.03904378514369
 30
0.0
 11
135.41800282899999
 21
236.3836811698437
 31
0.0
  0
POLYLINE
  5
39D9
  8
0
 66
     1
 10
0.0
 20
0.0
 30
0.0
 70
   128
  0
VERTEX
  5
46AF
  8
0
 10
136.4559536893
 20
227.13853626804371
 30
0.0
  0
VERTEX
  5
46B0
  8
0
 10
136.06281146410001
 20
226.7049050266437
 30
0.0
  0
VERTEX
  5
46B1
  8
0
 10
135.65662629900001
 20
226.4990743558437
 30
0.0
  0
SEQEND
  5
46B2
  8
0
  0
ARC
  5
39DA
  8
0
 10
135.46365198789999
 20
228.08466688134371
 30
0.0
 40
1.371067395901904
 50
316.36445742800021
 51
355.98597602610062
  0
LINE
  5
39DB
  8
0
 10
135.34763908010001
 20
227.95849128914369
 30
0.0
 11
135.4870615975816
 21
228.11275675702339
 31
0.0
  0
ARC
  5
39DC
  8
0
 10
136.37236524779999
 20
227.01413004364369
 30
0.0
 40
1.3935142197696939
 50
137.3371317753984
 51
180.55681060939949
  0
POLYLINE
  5
39DD
  8
0
 66
     1
 10
0.0
 20
0.0
 30
0.0
 70
   128
  0
VERTEX
  5
46B3
  8
0
 10
135.2277396806
 20
226.61768433924371
 30
0.0
  0
VERTEX
  5
46B4
  8
0
 10
135.04874553529999
 20
226.8077672767437
 30
0.0
  0
VERTEX
  5
46B5
  8
0
 10
134.97891683130001
 20
227.00058783694371
 30
0.0
  0
SEQEND
  5
46B6
  8
0
  0
POLYLINE
  5
39DE
  8
0
 66
     1
 10
0.0
 20
0.0
 30
0.0
 70
   128
  0
VERTEX
  5
46B7
  8
0
 10
135.65662629900001
 20
226.4990743558437
 30
0.0
  0
VERTEX
  5
46B8
  8
0
 10
135.40419317780001
 20
226.52275043824369
 30
0.0
  0
VERTEX
  5
46B9
  8
0
 10
135.2277396806
 20
226.61768433924371
 30
0.0
  0
SEQEND
  5
46BA
  8
0
  0
LINE
  5
39DF
  8
0
 10
134.1226402298
 20
236.27809270574369
 30
0.0
 11
133.8183799386
 21
235.63175483894369
 31
0.0
  0
LINE
  5
39E0
  8
0
 10
133.84803278370001
 20
236.40744619364369
 30
0.0
 11
134.1226402298
 21
236.27809270574369
 31
0.0
  0
LINE
  5
39E1
  8
0
 10
133.5437724926
 20
235.7611083268437
 30
0.0
 11
133.84803278370001
 21
236.40744619364369
 31
0.0
  0
LINE
  5
39E2
  8
0
 10
132.94298794119999
 20
236.04431094894369
 30
0.0
 11
133.5437724926
 21
235.7611083268437
 31
0.0
  0
LINE
  5
39E3
  8
0
 10
133.34565969179999
 20
236.8990755482437
 30
0.0
 11
132.94298794119999
 21
236.04431094894369
 31
0.0
  0
LINE
  5
39E4
  8
0
 10
133.07105178009999
 20
237.02842903614371
 30
0.0
 11
133.34565969179999
 21
236.8990755482437
 31
0.0
  0
LINE
  5
39E5
  8
0
 10
132.51281190660001
 20
235.84404935414369
 30
0.0
 11
133.07105178009999
 21
237.02842903614371
 31
0.0
  0
LINE
  5
39E6
  8
0
 10
134.621145539
 20
234.85090651834369
 30
0.0
 11
132.51281190660001
 21
235.84404935414369
 31
0.0
  0
LINE
  5
39E7
  8
0
 10
134.7767136619
 20
235.18052160094371
 30
0.0
 11
134.621145539
 21
234.85090651834369
 31
0.0
  0
LINE
  5
39E8
  8
0
 10
133.8183799386
 20
235.63175483894369
 30
0.0
 11
134.7767136619
 21
235.18052160094371
 31
0.0
  0
LINE
  5
39E9
  8
0
 10
134.00822259489999
 20
233.33321565464371
 30
0.0
 11
132.9097304121
 21
233.39078518504371
 31
0.0
  0
ARC
  5
39EA
  8
0
 10
140.0
 20
233.01919990504371
 30
0.0
 40
7.1000000000000076
 50
177.00000000000011
 51
191.14579227059929
  0
LINE
  5
39EB
  8
0
 10
133.03391668949999
 20
231.6467260086437
 30
0.0
 11
132.12153814729999
 21
231.63001447274371
 31
0.0
  0
LINE
  5
39EC
  8
0
 10
132.12153814729999
 20
231.63001447274371
 30
0.0
 11
134.70231449229999
 21
230.20237054034371
 31
0.0
  0
ARC
  5
39ED
  8
0
 10
140.0
 20
233.01919990504371
 30
0.0
 40
6.0000000000000071
 50
177.00000000000011
 51
207.99999999999889
  0
ARC
  5
39EE
  8
0
 10
133.2605560161
 20
233.31276953464371
 30
0.0
 40
1.386435000695275
 50
51.678397611198378
 51
84.834372415899281
  0
POLYLINE
  5
39EF
  8
0
 66
     1
 10
0.0
 20
0.0
 30
0.0
 70
   128
  0
VERTEX
  5
46BB
  8
0
 10
134.17353793980001
 20
234.18905200264371
 30
0.0
  0
VERTEX
  5
46BC
  8
0
 10
134.16444078090001
 20
234.31277552904371
 30
0.0
  0
VERTEX
  5
46BD
  8
0
 10
134.1202495247
 20
234.4004869070437
 30
0.0
  0
SEQEND
  5
46BE
  8
0
  0
ARC
  5
39F0
  8
0
 10
133.69046898030001
 20
235.26989396754371
 30
0.0
 40
1.2956959187089621
 50
250.32890000599889
 51
285.80292693230058
  0
ARC
  5
39F1
  8
0
 10
133.3809786034
 20
235.4487111852437
 30
0.0
 40
1.4046199340038461
 50
232.6761563273989
 51
264.82609510740099
  0
POLYLINE
  5
39F2
  8
0
 66
     1
 10
0.0
 20
0.0
 30
0.0
 70
   128
  0
VERTEX
  5
46BF
  8
0
 10
132.4743226729
 20
234.53542716624361
 30
0.0
  0
VERTEX
  5
46C0
  8
0
 10
132.485773284
 20
234.4161307980437
 30
0.0
  0
VERTEX
  5
46C1
  8
0
 10
132.52933030950001
 20
234.33172759424369
 30
0.0
  0
SEQEND
  5
46C2
  8
0
  0
POLYLINE
  5
39F3
  8
0
 66
     1
 10
0.0
 20
0.0
 30
0.0
 70
   128
  0
VERTEX
  5
46C3
  8
0
 10
132.60625476019999
 20
234.7090445534437
 30
0.0
  0
VERTEX
  5
46C4
  8
0
 10
132.51433974130001
 20
234.6247179509437
 30
0.0
  0
VERTEX
  5
46C5
  8
0
 10
132.4743226729
 20
234.53542716624361
 30
0.0
  0
SEQEND
  5
46C6
  8
0
  0
ARC
  5
39F4
  8
0
 10
132.97296838599999
 20
233.5505148922436
 30
0.0
 40
1.2151830558396099
 50
70.160561949099801
 51
107.5643319721986
  0
POLYLINE
  5
39F5
  8
0
 66
     1
 10
0.0
 20
0.0
 30
0.0
 70
   128
  0
VERTEX
  5
46C7
  8
0
 10
134.04332507399999
 20
234.0231700643437
 30
0.0
  0
VERTEX
  5
46C8
  8
0
 10
134.13320794699999
 20
234.10364972254371
 30
0.0
  0
VERTEX
  5
46C9
  8
0
 10
134.17353793980001
 20
234.18905200264371
 30
0.0
  0
SEQEND
  5
46CA
  8
0
  0
ARC
  5
39F6
  8
0
 10
136.51514096139999
 20
226.8760711391437
 30
0.0
 40
1.2278166957598851
 50
135.26916655649941
 51
172.36198470830041
  0
LINE
  5
39F7
  8
0
 10
135.84837798132401
 20
227.99605264129229
 30
0.0
 11
135.64287438989999
 21
227.74018043014371
 31
0.0
  0
ARC
  5
39F8
  8
0
 10
135.2191906608
 20
228.2832736015437
 30
0.0
 40
1.320886073537338
 50
315.46318345830127
 51
347.11360119649561
  0
ARC
  5
39F9
  8
0
 10
134.91981993569999
 20
228.08136403364369
 30
0.0
 40
1.4369248825058889
 50
298.26742721389968
 51
329.72084416699909
  0
POLYLINE
  5
39FA
  8
0
 66
     1
 10
0.0
 20
0.0
 30
0.0
 70
   128
  0
VERTEX
  5
46CB
  8
0
 10
135.3983491287
 20
226.8484576913437
 30
0.0
  0
VERTEX
  5
46CC
  8
0
 10
135.5084160902
 20
226.81163505944369
 30
0.0
  0
VERTEX
  5
46CD
  8
0
 10
135.60032971199999
 20
226.8157971399437
 30
0.0
  0
SEQEND
  5
46CE
  8
0
  0
POLYLINE
  5
39FB
  8
0
 66
     1
 10
0.0
 20
0.0
 30
0.0
 70
   128
  0
VERTEX
  5
46CF
  8
0
 10
135.2982179821
 20
227.03926519784369
 30
0.0
  0
VERTEX
  5
46D0
  8
0
 10
135.3352310695
 20
226.92166430234369
 30
0.0
  0
VERTEX
  5
46D1
  8
0
 10
135.3983491287
 20
226.8484576913437
 30
0.0
  0
SEQEND
  5
46D2
  8
0
  0
ARC
  5
39FD
  8
0
 10
140.0
 20
233.01919990504371
 30
0.0
 40
5.5000000000000071
 50
109.8056460534015
 51
340.19582327619958
  0
LINE
  5
3A00
  8
0
 10
155.5563494191
 20
254.93951023844369
 30
0.0
 11
161.92031033340001
 21
261.30347022144372
 31
0.0
  0
LINE
  5
3A01
  8
0
 10
168.28427031640001
 20
254.93951023844369
 30
0.0
 11
161.92031033340001
 21
248.57554932414371
 31
0.0
  0
ARC
  5
3A02
  8
0
 10
165.10229073209999
 20
258.12149063724371
 30
0.0
 40
4.500000000000056
 50
315.00000000000023
 51
135.0000000000002
  0
CIRCLE
  5
3A03
  8
0
 10
140.0
 20
233.01919990504371
 30
0.0
 40
2.4999999999999898
  0
POLYLINE
  5
3A0B
  8
0
 66
     1
 10
0.0
 20
0.0
 30
0.0
 70
   128
  0
VERTEX
  5
46D3
  8
0
 10
134.96949138119999
 20
230.6925125728437
 30
0.0
  0
VERTEX
  5
46D4
  8
0
 10
134.93138538669999
 20
230.88396502014371
 30
0.0
  0
VERTEX
  5
46D5
  8
0
 10
134.9303669855
 20
230.88640322264371
 30
0.0
  0
SEQEND
  5
46D6
  8
0
  0
POLYLINE
  5
3A0C
  8
0
 66
     1
 10
0.0
 20
0.0
 30
0.0
 70
   128
  0
VERTEX
  5
46D7
  8
0
 10
137.8672033176
 20
227.94956689054371
 30
0.0
  0
VERTEX
  5
46D8
  8
0
 10
137.8647651151
 20
227.95058529184371
 30
0.0
  0
VERTEX
  5
46D9
  8
0
 10
137.67331266779999
 20
227.98869128624369
 30
0.0
  0
SEQEND
  5
46DA
  8
0
  0
LINE
  5
3A0D
  8
0
 10
134.96949138119999
 20
230.2825578796436
 30
0.0
 11
134.96949138119999
 21
230.6925125728437
 31
0.0
  0
LINE
  5
3A0E
  8
0
 10
137.67331266779999
 20
227.98869128624369
 30
0.0
 11
137.26335797460001
 21
227.98869128624369
 31
0.0
  0
LINE
  5
3A0F
  8
0
 10
134.96949138119999
 20
228.9886914501437
 30
0.0
 11
134.96949138119999
 21
230.2825578796436
 31
0.0
  0
LINE
  5
3A10
  8
0
 10
137.26335797460001
 20
227.98869128624369
 30
0.0
 11
135.9694915451
 21
227.98869128624369
 31
0.0
  0
ARC
  5
3A11
  8
0
 10
135.9694916663
 20
228.98869157134371
 30
0.0
 40
1.0000002850709471
 50
180.00000694189961
 51
269.99999305820052
  0
ARC
  5
3A19
  8
0
 10
129.753049234
 20
241.01919990504371
 30
0.0
 40
4.0000000000000133
 50
270.0
 51
322.02012755510049
  0
LINE
  5
3A1A
  8
0
 10
118.0000001192
 20
237.01920009504369
 30
0.0
 11
129.75304886699999
 21
237.01920009504369
 31
0.0
  0
ARC
  5
3A1B
  8
0
 10
118.0
 20
233.01919990504371
 30
0.0
 40
4.0000000000000062
 50
241.0449756280982
 51
270.0
  0
ARC
  5
3A1C
  8
0
 10
118.0
 20
233.01919990504371
 30
0.0
 40
4.000000000000008
 50
181.04497562810019
 51
238.95502437190041
  0
ARC
  5
3A1D
  8
0
 10
118.0
 20
233.01919990504371
 30
0.0
 40
4.0000000000000302
 50
121.04497562809961
 51
178.95502437189981
  0
ARC
  5
3A1E
  8
0
 10
118.0
 20
233.01919990504371
 30
0.0
 40
4.0000000000000284
 50
90.0
 51
118.9550243719017
  0
LINE
  5
3A1F
  8
0
 10
123.99999923999999
 20
235.16919997814369
 30
0.0
 11
120.8001480997
 21
235.16919997814369
 31
0.0
  0
ARC
  5
3A20
  8
0
 10
124.0
 20
233.01919990504371
 30
0.0
 40
2.1500000000000061
 50
270.0
 51
90.0
  0
LINE
  5
3A21
  8
0
 10
120.8001480997
 20
230.86919983204371
 30
0.0
 11
123.99999923999999
 21
230.86919983204371
 31
0.0
  0
ARC
  5
3A22
  8
0
 10
129.753049234
 20
225.01919990504371
 30
0.0
 40
4.0000000000000062
 50
37.979872444899513
 51
90.0
  0
LINE
  5
3A23
  8
0
 10
129.75304886699999
 20
229.01919971504361
 30
0.0
 11
118.0000001192
 21
229.01919971504361
 31
0.0
  0
ARC
  5
3A26
  8
0
 10
140.0
 20
242.01919990504371
 30
0.0
 40
9.0
 50
32.208863796399832
 51
180.0
  0
ARC
  5
3A27
  8
0
 10
140.0
 20
233.01919990504371
 30
0.0
 40
11.35
 50
79.999999999998167
 51
100.0000000000018
  0
ARC
  5
3A28
  8
0
 10
142.34425039850001
 20
246.31410457074369
 30
0.0
 40
2.1500000000000181
 50
259.99999999999818
 51
79.999999999998167
  0
ARC
  5
3A29
  8
0
 10
140.0
 20
233.01919990504371
 30
0.0
 40
15.650000000000009
 50
79.999999999998167
 51
100.0000000000018
  0
ARC
  5
3A2A
  8
0
 10
137.65574960149999
 20
246.31410457074369
 30
0.0
 40
2.1500000000000181
 50
100.0000000000018
 51
279.99999999999858
  0
LINE
  5
3A2B
  8
0
 10
131.00000038740001
 20
237.2185268747437
 30
0.0
 11
131.00000038740001
 21
242.01919951764361
 31
0.0
  0
LINE
  5
3A2C
  8
0
 10
131.00000038740001
 20
224.0192002925437
 30
0.0
 11
131.00000038740001
 21
228.8198729354437
 31
0.0
  0
LINE
  5
3A2D
  8
0
 10
148.99999961259999
 20
235.8466978607789
 30
0.0
 11
148.99999961259999
 21
224.0192002925437
 31
0.0
  0
ARC
  5
3A2E
  8
0
 10
137.65574960149999
 20
219.72429523944371
 30
0.0
 40
2.1500000000000181
 50
79.999999999998167
 51
259.99999999999818
  0
ARC
  5
3A2F
  8
0
 10
140.0
 20
233.01919990504371
 30
0.0
 40
15.649999999999981
 50
259.99999999999818
 51
279.99999999999858
  0
ARC
  5
3A30
  8
0
 10
142.34425039850001
 20
219.72429523944371
 30
0.0
 40
2.1500000000000181
 50
279.99999999999858
 51
100.0000000000018
  0
ARC
  5
3A31
  8
0
 10
140.0
 20
233.01919990504371
 30
0.0
 40
11.34999999999998
 50
259.99999999999818
 51
279.99999999999858
  0
ARC
  5
3A32
  8
0
 10
140.0
 20
224.01919990504371
 30
0.0
 40
9.0
 50
180.0
 51
0.0
  0
LINE
  5
3B12
  8
0
 10
52.000000094950032
 20
144.8000008315
 30
0.0
 11
52.000000094950032
 21
147.60000069439999
 31
0.0
  0
LINE
  5
3B13
  8
0
 10
52.000000094950032
 20
162.39999976749991
 30
0.0
 11
52.000000094950032
 21
164.10000157350001
 31
0.0
  0
LINE
  5
3B14
  8
0
 10
47.999999904950037
 20
164.10000157350001
 30
0.0
 11
47.999999904950037
 21
162.39999976749991
 31
0.0
  0
LINE
  5
3B15
  8
0
 10
47.999999904950037
 20
147.60000069439999
 30
0.0
 11
47.999999904950037
 21
144.8000008315
 31
0.0
  0
LINE
  5
3B16
  8
0
 10
52.000000094950032
 20
164.10000157350001
 30
0.0
 11
51.300000003550032
 21
164.8000022471
 31
0.0
  0
LINE
  5
3B17
  8
0
 10
48.699999996450032
 20
164.8000022471
 30
0.0
 11
47.999999904950037
 21
164.10000157350001
 31
0.0
  0
LINE
  5
3B18
  8
0
 10
58.999999612599993
 20
160.25000062589999
 30
0.0
 11
58.999999612599993
 21
162.50000146030001
 31
0.0
  0
LINE
  5
3B19
  8
0
 10
41.000000387499988
 20
162.50000146030001
 30
0.0
 11
41.000000387499988
 21
160.25000062589999
 31
0.0
  0
LINE
  5
3B1A
  8
0
 10
41.000000387499988
 20
160.25000062589999
 30
0.0
 11
41.249999962800018
 21
160.0000001192
 31
0.0
  0
LINE
  5
3B1B
  8
0
 10
58.750000037300019
 20
160.0000001192
 30
0.0
 11
58.999999612599993
 21
160.25000062589999
 31
0.0
  0
LINE
  5
3B1C
  8
0
 10
58.999999612599993
 20
162.50000146030001
 30
0.0
 11
58.500000462000003
 21
162.99999874829999
 31
0.0
  0
LINE
  5
3B1D
  8
0
 10
41.499999538100042
 20
162.99999874829999
 30
0.0
 11
41.000000387499988
 21
162.50000146030001
 31
0.0
  0
LINE
  5
3B1E
  8
0
 10
41.249999962800018
 20
160.0000001192
 30
0.0
 11
41.000000387499988
 21
159.74999961259999
 31
0.0
  0
LINE
  5
3B1F
  8
0
 10
41.000000387499988
 20
159.74999961259999
 30
0.0
 11
41.000000387499988
 21
158.50000080469999
 31
0.0
  0
LINE
  5
3B20
  8
0
 10
58.999999612599993
 20
159.74999961259999
 30
0.0
 11
58.750000037300019
 21
160.0000001192
 31
0.0
  0
LINE
  5
3B21
  8
0
 10
58.999999612599993
 20
158.50000080469999
 30
0.0
 11
58.999999612599993
 21
159.74999961259999
 31
0.0
  0
ARC
  5
3B22
  8
0
 10
53.999998550397088
 20
173.51919944169649
 30
0.0
 40
1.5000014198043901
 50
0.0000804127739751
 51
89.999937371841668
  0
LINE
  5
3B23
  8
0
 10
55.499999970200008
 20
166.0192012489
 30
0.0
 11
55.499999970200008
 21
173.51920154690001
 31
0.0
  0
LINE
  5
3B24
  8
0
 10
44.500000029800042
 20
167.7476241887
 30
0.0
 11
44.500000029800042
 21
166.0192012489
 31
0.0
  0
ARC
  5
3B25
  8
0
 10
44.999999576735718
 20
166.01919978253761
 30
0.0
 40
0.4999995469378193
 50
179.99983196709189
 51
270.00006131390961
  0
ARC
  5
3B26
  8
0
 10
55.000000423263707
 20
166.0191997825381
 30
0.0
 40
0.4999995469383711
 50
269.99993869761983
 51
0.0001680328494333
  0
ARC
  5
3B27
  8
0
 10
44.06411649747011
 20
167.76859800456489
 30
0.0
 40
0.4363878489467373
 50
357.24517016207102
 51
57.501226843242229
  0
POLYLINE
  5
3B28
  8
0
 66
     1
 10
0.0
 20
0.0
 30
0.0
 70
   128
  0
VERTEX
  5
46DB
  8
0
 10
29.170020669750159
 20
170.5191991925652
 30
0.0
  0
VERTEX
  5
46DC
  8
0
 10
31.056252494500029
 20
170.40507119889989
 30
0.0
  0
VERTEX
  5
46DD
  8
0
 10
32.673799619100009
 20
170.2697463035999
 30
0.0
  0
VERTEX
  5
46DE
  8
0
 10
34.070425853200049
 20
170.12796920540001
 30
0.0
  0
VERTEX
  5
46DF
  8
0
 10
35.256262123600038
 20
169.99048364160001
 30
0.0
  0
VERTEX
  5
46E0
  8
0
 10
36.311514861900037
 20
169.85838857289991
 30
0.0
  0
VERTEX
  5
46E1
  8
0
 10
37.225172109900029
 20
169.7338968217
 30
0.0
  0
VERTEX
  5
46E2
  8
0
 10
38.017321564300012
 20
169.61829733850001
 30
0.0
  0
VERTEX
  5
46E3
  8
0
 10
38.64011745900001
 20
169.52235993740001
 30
0.0
  0
VERTEX
  5
46E4
  8
0
 10
39.363421686000038
 20
169.40530014039999
 30
0.0
  0
VERTEX
  5
46E5
  8
0
 10
40.185071714300022
 20
169.26487159729999
 30
0.0
  0
VERTEX
  5
46E6
  8
0
 10
41.093566641300008
 20
169.10023239259999
 30
0.0
  0
VERTEX
  5
46E7
  8
0
 10
41.919216699900012
 20
168.94197088480001
 30
0.0
  0
VERTEX
  5
46E8
  8
0
 10
42.747480981100011
 20
168.77599802610001
 30
0.0
  0
VERTEX
  5
46E9
  8
0
 10
43.349722121000013
 20
168.63660138849991
 30
0.0
  0
VERTEX
  5
46EA
  8
0
 10
43.661054410100007
 20
168.51830852029991
 30
0.0
  0
VERTEX
  5
46EB
  8
0
 10
44.105726946200029
 20
168.2779006362
 30
0.0
  0
VERTEX
  5
46EC
  8
0
 10
44.29857963697944
 20
168.13664880393881
 30
0.0
  0
SEQEND
  5
46ED
  8
0
  0
ARC
  5
3B29
  8
0
 10
29.281289561641021
 20
162.08764764437211
 30
0.0
 40
8.4322857088774761
 50
90.756072925416873
 51
118.5736317182419
  0
ARC
  5
3B2B
  8
0
 10
24.89770931513613
 20
172.51920042450561
 30
0.0
 40
4.5000003775362289
 50
180.00001151142911
 51
291.53416854452178
  0
ARC
  5
3B2C
  8
0
 10
25.388713267059359
 20
169.10108962877581
 30
0.0
 40
0.4162413327501242
 50
109.72480845469561
 51
143.4349067819166
  0
ARC
  5
3B2D
  8
0
 10
21.897709501458511
 20
173.51919943614001
 30
0.0
 40
1.500000563859988
 50
90.000008921274073
 51
179.9999193749407
  0
LINE
  5
3B2E
  8
0
 10
20.39770893759999
 20
173.51920154690001
 30
0.0
 11
20.39770893759999
 21
172.51919952039989
 31
0.0
  0
LINE
  5
3B2F
  8
0
 10
45.500000193800027
 20
165.51920023560001
 30
0.0
 11
45.500000193800012
 21
162.99999874829999
 31
0.0
  0
LINE
  5
3B30
  8
0
 10
54.499999806300032
 20
162.99999874829999
 30
0.0
 11
54.499999806300032
 21
165.51920023560001
 31
0.0
  0
ARC
  5
3B33
  8
0
 10
41.5
 20
131.0
 30
0.0
 40
0.5
 50
180.0
 51
270.0
  0
ARC
  5
3B34
  8
0
 10
58.5
 20
131.0
 30
0.0
 40
0.5
 50
270.0
 51
0.0
  0
LINE
  5
3B35
  8
0
 10
58.999999612599993
 20
131.0000000224
 30
0.0
 11
58.999999612599993
 21
157.9999997914
 31
0.0
  0
LINE
  5
3B36
  8
0
 10
41.000000387499988
 20
157.9999997914
 30
0.0
 11
41.000000387499988
 21
131.0000000224
 31
0.0
  0
LINE
  5
3B37
  8
0
 10
32.000000774900002
 20
120.5000000238
 30
0.0
 11
32.499999925499992
 21
120.0
 31
0.0
  0
ARC
  5
3B38
  8
0
 10
32.5
 20
125.5
 30
0.0
 40
0.5000000000000036
 50
90.0
 51
180.0
  0
LINE
  5
3B39
  8
0
 10
32.000000774900002
 20
125.49999997019989
 30
0.0
 11
32.000000774900002
 21
120.5000000238
 31
0.0
  0
LINE
  5
3B3A
  8
0
 10
58.999999612599993
 20
126.00000005219999
 30
0.0
 11
58.999999612599993
 21
127.49999983239999
 31
0.0
  0
LINE
  5
3B3B
  8
0
 10
41.000000387499988
 20
127.49999983239999
 30
0.0
 11
41.000000387499988
 21
126.00000005219999
 31
0.0
  0
LINE
  5
3B3C
  8
0
 10
58.999999612599993
 20
127.49999983239999
 30
0.0
 11
58.500000462000003
 21
128.00000037999999
 31
0.0
  0
LINE
  5
3B3D
  8
0
 10
41.499999538100042
 20
128.00000037999999
 30
0.0
 11
41.000000387499988
 21
127.49999983239999
 31
0.0
  0
ARC
  5
3B3E
  8
0
 10
67.5
 20
125.5
 30
0.0
 40
0.5
 50
0.0
 51
90.0
  0
LINE
  5
3B3F
  8
0
 10
67.999999225200042
 20
120.5000000238
 30
0.0
 11
67.999999225200042
 21
125.49999997019989
 31
0.0
  0
LINE
  5
3B40
  8
0
 10
67.500000074500008
 20
120.0
 30
0.0
 11
67.999999225200042
 21
120.5000000238
 31
0.0
  0
ARC
  5
3B41
  8
0
 10
43.0
 20
129.0
 30
0.0
 40
1.0
 50
270.0
 51
0.0
  0
ARC
  5
3B42
  8
0
 10
57.0
 20
129.0
 30
0.0
 40
1.0
 50
180.0
 51
270.0
  0
LINE
  5
3B43
  8
0
 10
56.000000052200001
 20
128.99999961259999
 30
0.0
 11
56.000000052199987
 21
130.4999999403999
 31
0.0
  0
LINE
  5
3B44
  8
0
 10
43.999999947899987
 20
130.4999999403999
 30
0.0
 11
43.999999947899987
 21
128.99999961259999
 31
0.0
  0
LINE
  5
3B9C
  8
0
 10
46.499999891999998
 20
162.39999976749999
 30
0.0
 11
46.499999891999998
 21
160.0000001192
 31
0.0
  0
LINE
  5
3B9E
  8
0
 10
50.0
 20
162.39999976749999
 30
0.0
 11
50.0
 21
160.0000001192
 31
0.0
  0
LINE
  5
3BA0
  8
0
 10
53.500000108100039
 20
162.39999976749999
 30
0.0
 11
53.500000108100039
 21
160.0000001192
 31
0.0
  0
LINE
  5
3BA2
  8
0
 10
46.499999891999998
 20
162.39999976749999
 30
0.0
 11
53.500000108100039
 21
162.39999976749999
 31
0.0
  0
LINE
  5
3BA3
  8
0
 10
46.499999891999998
 20
150.00000034269999
 30
0.0
 11
46.499999891999998
 21
147.60000069439999
 31
0.0
  0
LINE
  5
3BA5
  8
0
 10
50.0
 20
150.00000034269999
 30
0.0
 11
50.0
 21
147.60000069439999
 31
0.0
  0
LINE
  5
3BA7
  8
0
 10
53.500000108100039
 20
150.00000034269999
 30
0.0
 11
53.500000108100039
 21
147.60000069439999
 31
0.0
  0
LINE
  5
3BA8
  8
0
 10
46.499999891999998
 20
150.00000034269999
 30
0.0
 11
53.500000108100039
 21
150.00000034269999
 31
0.0
  0
LINE
  5
3BA9
  8
0
 10
46.499999891999998
 20
147.60000069439999
 30
0.0
 11
53.500000108100039
 21
147.60000069439999
 31
0.0
  0
LINE
  5
3BAA
  8
0
 10
49.999999999950013
 20
142.0
 30
0.0
 11
49.999999999950013
 21
144.8000008315
 31
0.0
  0
LINE
  5
3BAC
  8
0
 10
46.499999891950011
 20
142.0
 30
0.0
 11
46.499999891950011
 21
144.8000008315
 31
0.0
  0
LINE
  5
3BAE
  8
0
 10
53.500000108050038
 20
142.0
 30
0.0
 11
53.500000108050038
 21
144.8000008315
 31
0.0
  0
LINE
  5
3BAF
  8
0
 10
53.500000108050038
 20
142.0
 30
0.0
 11
46.499999891949948
 21
142.0
 31
0.0
  0
LINE
  5
3BB0
  8
0
 10
53.500000108050038
 20
144.8000008315
 30
0.0
 11
46.499999891949948
 21
144.8000008315
 31
0.0
  0
LINE
  5
3BB1
  8
0
 10
52.000000094950032
 20
164.10000157350001
 30
0.0
 11
47.999999904950037
 21
164.10000157350001
 31
0.0
  0
LINE
  5
3BB2
  8
0
 10
48.699999996450032
 20
164.8000022471
 30
0.0
 11
51.300000003550032
 21
164.8000022471
 31
0.0
  0
LINE
  5
3BBA
  8
0
 10
58.750000037300019
 20
160.0000001192
 30
0.0
 11
41.249999962800018
 21
160.0000001192
 31
0.0
  0
LINE
  5
3BBB
  8
0
 10
41.499999538100042
 20
162.99999874829999
 30
0.0
 11
47.986126924000011
 21
162.99999874829999
 31
0.0
  0
LINE
  5
3BBC
  8
0
 10
52.000000095000011
 20
162.99999874829999
 30
0.0
 11
58.500000462000003
 21
162.99999874829999
 31
0.0
  0
LINE
  5
3BBF
  8
0
 10
41.125880740599989
 20
158.50000080469999
 30
0.0
 11
41.000000387499988
 21
158.50000080469999
 31
0.0
  0
LINE
  5
3BC1
  8
0
 10
41.143364459300017
 20
158.50000080469999
 30
0.0
 11
41.125880740599989
 21
158.50000080469999
 31
0.0
  0
LINE
  5
3BC3
  8
0
 10
58.874119259500041
 20
158.50000080469999
 30
0.0
 11
58.856635540800028
 21
158.50000080469999
 31
0.0
  0
LINE
  5
3BC6
  8
0
 10
58.999999612599993
 20
158.50000080469999
 30
0.0
 11
58.874119259500041
 21
158.50000080469999
 31
0.0
  0
LINE
  5
3BC7
  8
0
 10
21.897709267900041
 20
175.01920000000001
 30
0.0
 11
54.00000019000003
 21
175.0192008615
 31
0.0
  0
LINE
  5
3BC8
  8
0
 10
54.99999988830001
 20
165.51920023560001
 30
0.0
 11
45.000000111800027
 21
165.51920023560001
 31
0.0
  0
LINE
  5
3BD0
  8
0
 10
55.03050861880002
 20
173.0051040351
 30
0.0
 11
55.03050861880002
 21
171.94822427630001
 31
0.0
  0
ARC
  5
3BD9
  8
0
 10
33.520835855600012
 20
159.76301162199991
 30
0.0
 40
10.80991761296657
 50
101.0557866529003
 51
113.9314234765981
  0
ARC
  5
3BDA
  8
0
 10
33.741896978647169
 20
158.0910316873306
 30
0.0
 40
12.436950862437049
 50
111.7372199555154
 51
121.4493218317607
  0
POLYLINE
  5
3BDB
  8
0
 66
     1
 10
0.0
 20
0.0
 30
0.0
 70
   128
  0
VERTEX
  5
46EE
  8
0
 10
27.252990007400001
 20
168.70101910829999
 30
0.0
  0
VERTEX
  5
46EF
  8
0
 10
26.80160775780001
 20
168.44606396559999
 30
0.0
  0
VERTEX
  5
46F0
  8
0
 10
26.54946154096416
 20
168.33330530132119
 30
0.0
  0
SEQEND
  5
46F1
  8
0
  0
LINE
  5
3BDF
  8
0
 10
45.9999998101
 20
160.0000001192
 30
0.0
 11
45.9999998101
 21
150.4999994934
 31
0.0
  0
LINE
  5
3BE1
  8
0
 10
54.00000019000003
 20
160.0000001192
 30
0.0
 11
54.00000019000003
 21
150.4999994934
 31
0.0
  0
ARC
  5
3BE2
  8
0
 10
46.5
 20
150.5
 30
0.0
 40
0.5
 50
180.0
 51
270.0
  0
ARC
  5
3BE3
  8
0
 10
53.5
 20
150.5
 30
0.0
 40
0.5
 50
270.0
 51
0.0
  0
LINE
  5
3BEA
  8
0
 10
58.500000462000003
 20
130.4999999403999
 30
0.0
 11
41.500000469399993
 21
130.4999999403999
 31
0.0
  0
LINE
  5
3BEB
  8
0
 10
58.856635540800028
 20
157.9999997914
 30
0.0
 11
58.999999612599993
 21
157.9999997914
 31
0.0
  0
LINE
  5
3BEC
  8
0
 10
41.000000387499988
 20
157.9999997914
 30
0.0
 11
41.143364459300017
 21
157.9999997914
 31
0.0
  0
LINE
  5
3BED
  8
0
 10
41.143364459300017
 20
159.49999910589989
 30
0.0
 11
41.143364459300017
 21
157.9999997914
 31
0.0
  0
LINE
  5
3BF0
  8
0
 10
58.856635540800028
 20
157.9999997914
 30
0.0
 11
58.856635540800028
 21
159.49999910589989
 31
0.0
  0
LINE
  5
3BF1
  8
0
 10
41.763495840199987
 20
160.0000001192
 30
0.0
 11
41.143364459300017
 21
159.49999910589989
 31
0.0
  0
LINE
  5
3BF2
  8
0
 10
58.856635540800028
 20
159.49999910589989
 30
0.0
 11
58.236504159900051
 21
160.0000001192
 31
0.0
  0
LINE
  5
3C00
  8
0
 10
41.499999538100042
 20
128.00000037999999
 30
0.0
 11
58.500000462000003
 21
128.00000037999999
 31
0.0
  0
LINE
  5
3C02
  8
0
 10
32.5
 20
126.0
 30
0.0
 11
67.500000074500008
 21
126.00000005219999
 31
0.0
  0
LINE
  5
3C04
  8
0
 10
67.500000074500008
 20
120.0
 30
0.0
 11
32.499999925500049
 21
120.0
 31
0.0
  0
ARC
  5
3C06
  8
0
 10
46.385573127000043
 20
173.52371347769991
 30
0.0
 40
1.560240197324539
 50
140.72759726110061
 51
180.16514199400001
  0
ARC
  5
3C07
  8
0
 10
46.25103496709999
 20
173.63128125779991
 30
0.0
 40
1.3879981420581311
 50
90.609517711198393
 51
140.64955183500021
  0
LINE
  5
3C09
  8
0
 10
55.069633014500027
 20
173.42630770799991
 30
0.0
 11
55.069633014500027
 21
166.0192012489
 31
0.0
  0
LINE
  5
3C0A
  8
0
 10
52.132796682500043
 20
173.42630770799991
 30
0.0
 11
55.069633014500027
 21
173.42630770799991
 31
0.0
  0
LINE
  5
3C0B
  8
0
 10
52.132796682500043
 20
166.0192012489
 30
0.0
 11
52.132796682500043
 21
173.42630770799991
 31
0.0
  0
POLYLINE
  5
3C0E
  8
0
 66
     1
 10
0.0
 20
0.0
 30
0.0
 70
   128
  0
VERTEX
  5
46F2
  8
0
 10
44.83341258020004
 20
168.51570081709991
 30
0.0
  0
VERTEX
  5
46F3
  8
0
 10
44.832308963000003
 20
168.48737370969991
 30
0.0
  0
VERTEX
  5
46F4
  8
0
 10
44.822029024400017
 20
168.40344291930001
 30
0.0
  0
VERTEX
  5
46F5
  8
0
 10
44.797575287600012
 20
168.31373047829999
 30
0.0
  0
VERTEX
  5
46F6
  8
0
 10
44.706030469400048
 20
168.1161485314
 30
0.0
  0
VERTEX
  5
46F7
  8
0
 10
44.532112032200018
 20
167.81231385469999
 30
0.0
  0
VERTEX
  5
46F8
  8
0
 10
44.500000029800042
 20
167.7476241887
 30
0.0
  0
SEQEND
  5
46F9
  8
0
  0
ARC
  5
3C10
  8
0
 10
54.588364476500033
 20
166.00040381100001
 30
0.0
 40
0.4816354943398846
 50
272.42667691999827
 51
2.2367277224000679
  0
POLYLINE
  5
3C11
  8
0
 66
     1
 10
0.0
 20
0.0
 30
0.0
 70
   128
  0
VERTEX
  5
46FA
  8
0
 10
51.938906149100028
 20
165.51920023560001
 30
0.0
  0
VERTEX
  5
46FB
  8
0
 10
51.976732397500022
 20
165.52880775930001
 30
0.0
  0
VERTEX
  5
46FC
  8
0
 10
52.013104967800018
 20
165.5572615266
 30
0.0
  0
VERTEX
  5
46FD
  8
0
 10
52.046626061200023
 20
165.60346630219999
 30
0.0
  0
VERTEX
  5
46FE
  8
0
 10
52.076007425800022
 20
165.6656451225
 30
0.0
  0
VERTEX
  5
46FF
  8
0
 10
52.100120298600018
 20
165.74141380189991
 30
0.0
  0
VERTEX
  5
4700
  8
0
 10
52.118037780800023
 20
165.82785916329999
 30
0.0
  0
VERTEX
  5
4701
  8
0
 10
52.129071159299997
 20
165.92165452239999
 30
0.0
  0
VERTEX
  5
4702
  8
0
 10
52.132796682500043
 20
166.0192012489
 30
0.0
  0
SEQEND
  5
4703
  8
0
  0
LINE
  5
3C15
  8
0
 10
52.736642025500032
 20
172.71919918059999
 30
0.0
 11
52.326687332300033
 21
173.0051040351
 31
0.0
  0
LINE
  5
3C16
  8
0
 10
54.03050845490003
 20
171.94822427630001
 30
0.0
 11
52.736642025500032
 21
172.71919918059999
 31
0.0
  0
POLYLINE
  5
3C24
  8
0
 66
     1
 10
0.0
 20
0.0
 30
0.0
 70
   128
  0
VERTEX
  5
4704
  8
0
 10
55.03050861880002
 20
171.94822427630001
 30
0.0
  0
VERTEX
  5
4705
  8
0
 10
54.987093154400043
 20
171.8663423955
 30
0.0
  0
VERTEX
  5
4706
  8
0
 10
54.875821061499998
 20
171.82335999610001
 30
0.0
  0
VERTEX
  5
4707
  8
0
 10
54.693659022500007
 20
171.81292918319991
 30
0.0
  0
VERTEX
  5
4708
  8
0
 10
54.489475395600039
 20
171.833842963
 30
0.0
  0
VERTEX
  5
4709
  8
0
 10
54.264038987500037
 20
171.8801855742999
 30
0.0
  0
VERTEX
  5
470A
  8
0
 10
54.03050845490003
 20
171.94822427630001
 30
0.0
  0
SEQEND
  5
470B
  8
0
  0
POLYLINE
  5
3C3A
  8
0
 66
     1
 10
0.0
 20
0.0
 30
0.0
 70
   128
  0
VERTEX
  5
470C
  8
0
 10
28.2211109996
 20
169.95260488989999
 30
0.0
  0
VERTEX
  5
470D
  8
0
 10
29.140730574800049
 20
170.35695162420001
 30
0.0
  0
VERTEX
  5
470E
  8
0
 10
29.571747256453818
 20
170.49489239806579
 30
0.0
  0
SEQEND
  5
470F
  8
0
  0
LINE
  5
3C4E
  8
0
 10
25.054396316500011
 20
169.3490594326999
 30
0.0
 11
25.07178410890003
 21
169.12525889279999
 31
0.0
  0
POLYLINE
  5
3C50
  8
0
 66
     1
 10
0.0
 20
0.0
 30
0.0
 70
   128
  0
VERTEX
  5
4710
  8
0
 10
25.07178410890003
 20
169.12525889279999
 30
0.0
  0
VERTEX
  5
4711
  8
0
 10
25.204201415200028
 20
168.86384782199991
 30
0.0
  0
VERTEX
  5
4712
  8
0
 10
25.392684340500011
 20
168.72974109649999
 30
0.0
  0
SEQEND
  5
4713
  8
0
  0
ARC
  5
3C54
  8
0
 10
25.95836967230003
 20
170.60703322879999
 30
0.0
 40
1.960669692871041
 50
253.2308450158007
 51
286.7691549841993
  0
ARC
  5
3C57
  8
0
 10
32.814044355700048
 20
162.5793243983
 30
0.0
 40
8.6867889361317872
 50
121.9194331409992
 51
131.10112016570039
  0
POLYLINE
  5
3C58
  8
0
 66
     1
 10
0.0
 20
0.0
 30
0.0
 70
   128
  0
VERTEX
  5
4714
  8
0
 10
26.524055004200019
 20
168.72974109649999
 30
0.0
  0
VERTEX
  5
4715
  8
0
 10
26.82021744550002
 20
168.89863458280001
 30
0.0
  0
VERTEX
  5
4716
  8
0
 10
27.103436365800011
 20
169.12525889279999
 30
0.0
  0
SEQEND
  5
4717
  8
0
  0
LINE
  5
3C5B
  8
0
 10
53.554108552700029
 20
149.82686933880001
 30
0.0
 11
53.500000108100039
 21
150.00000034269999
 31
0.0
  0
ARC
  5
3C5C
  8
0
 10
62.318384436000031
 20
153.86914806030001
 30
0.0
 40
9.6515568185100378
 50
204.76020107989879
 51
225.37454358399879
  0
LINE
  5
3C5D
  8
0
 10
55.538461729900007
 20
146.99999985100001
 30
0.0
 11
52.000000095000011
 21
146.99999985100001
 31
0.0
  0
LINE
  5
3C5E
  8
0
 10
47.999999905000038
 20
146.99999985100001
 30
0.0
 11
44.461538270200037
 21
146.99999985100001
 31
0.0
  0
ARC
  5
3C5F
  8
0
 10
36.295961179300043
 20
154.84182390999999
 30
0.0
 40
11.3212567234715
 50
316.15866113880003
 51
333.70659419729878
  0
LINE
  5
3C60
  8
0
 10
46.499999891999998
 20
150.00000034269999
 30
0.0
 11
46.445891447400022
 21
149.82686933880001
 31
0.0
  0
LINE
  5
3C65
  8
0
 10
44.461538270200037
 20
146.99999985100001
 30
0.0
 11
44.461538270200037
 21
160.0000001192
 31
0.0
  0
LINE
  5
3C68
  8
0
 10
55.53846172989995
 20
160.0000001192
 30
0.0
 11
55.538461729900007
 21
146.99999985100001
 31
0.0
  0
LINE
  5
3D25
  8
0
 10
221.00000038749999
 20
160.25000062589999
 30
0.0
 11
221.24999996279999
 21
160.0000001192
 31
0.0
  0
LINE
  5
3D26
  8
0
 10
238.7500000373
 20
160.0000001192
 30
0.0
 11
238.99999961259991
 21
160.25000062589999
 31
0.0
  0
LINE
  5
3D27
  8
0
 10
238.99999961259991
 20
162.50000146030001
 30
0.0
 11
238.50000046199989
 21
162.99999874829999
 31
0.0
  0
LINE
  5
3D28
  8
0
 10
221.4999995380999
 20
162.99999874829999
 30
0.0
 11
221.00000038749999
 21
162.50000146030001
 31
0.0
  0
LINE
  5
3D29
  8
0
 10
238.99999961259991
 20
160.25000062589999
 30
0.0
 11
238.99999961259991
 21
162.50000146030001
 31
0.0
  0
LINE
  5
3D2A
  8
0
 10
221.00000038749999
 20
162.50000146030001
 30
0.0
 11
221.00000038749999
 21
160.25000062589999
 31
0.0
  0
LINE
  5
3D2B
  8
0
 10
238.99999961259991
 20
159.74999961259999
 30
0.0
 11
238.7500000373
 21
160.0000001192
 31
0.0
  0
LINE
  5
3D2C
  8
0
 10
238.99999961259991
 20
158.50000080469999
 30
0.0
 11
238.99999961259991
 21
159.74999961259999
 31
0.0
  0
LINE
  5
3D2D
  8
0
 10
221.24999996279999
 20
160.0000001192
 30
0.0
 11
221.00000038749999
 21
159.74999961259999
 31
0.0
  0
LINE
  5
3D2E
  8
0
 10
221.00000038749999
 20
159.74999961259999
 30
0.0
 11
221.00000038749999
 21
158.50000080469999
 31
0.0
  0
ARC
  5
3D2F
  8
0
 10
258.10229049864148
 20
173.51919943614021
 30
0.0
 40
1.5000005638598921
 50
0.0000806250537998
 51
89.999991078732407
  0
LINE
  5
3D30
  8
0
 10
259.60229073219989
 20
172.51920000000001
 30
0.0
 11
259.60229106249989
 21
173.51920154690001
 31
0.0
  0
ARC
  5
3D31
  8
0
 10
255.10229073219989
 20
172.51920000000001
 30
0.0
 40
4.5
 50
248.4823061831996
 51
0.0
  0
ARC
  5
3D33
  8
0
 10
252.02462142609991
 20
69.523643143699999
 30
0.0
 40
101.1415034440906
 50
93.886968606399549
 51
101.09691856940169
  0
POLYLINE
  5
3D34
  8
0
 66
     1
 10
0.0
 20
0.0
 30
0.0
 70
   128
  0
VERTEX
  5
4718
  8
0
 10
235.70301804690001
 20
168.14215478299991
 30
0.0
  0
VERTEX
  5
4719
  8
0
 10
235.86617691449999
 20
168.2599261105
 30
0.0
  0
VERTEX
  5
471A
  8
0
 10
236.0578789562
 20
168.376747489
 30
0.0
  0
VERTEX
  5
471B
  8
0
 10
236.2553975731
 20
168.47978156810001
 30
0.0
  0
VERTEX
  5
471C
  8
0
 10
236.90226908779991
 20
168.70646548269991
 30
0.0
  0
VERTEX
  5
471D
  8
0
 10
237.75363389409989
 20
168.87859252099989
 30
0.0
  0
VERTEX
  5
471E
  8
0
 10
238.68525914849999
 20
169.05887794489999
 30
0.0
  0
VERTEX
  5
471F
  8
0
 10
239.6684321761
 20
169.23895475270001
 30
0.0
  0
VERTEX
  5
4720
  8
0
 10
240.7027608901999
 20
169.41625621919999
 30
0.0
  0
VERTEX
  5
4721
  8
0
 10
241.72244269399991
 20
169.578753382
 30
0.0
  0
VERTEX
  5
4722
  8
0
 10
242.40768563009999
 20
169.68121004100001
 30
0.0
  0
VERTEX
  5
4723
  8
0
 10
243.0256740376999
 20
169.76901885870001
 30
0.0
  0
VERTEX
  5
4724
  8
0
 10
243.57528846709999
 20
169.84346878529999
 30
0.0
  0
VERTEX
  5
4725
  8
0
 10
244.05661925679999
 20
169.90587112310001
 30
0.0
  0
VERTEX
  5
4726
  8
0
 10
244.6077526734
 20
169.97413706779989
 30
0.0
  0
VERTEX
  5
4727
  8
0
 10
245.312303789
 20
170.05822059510001
 30
0.0
  0
VERTEX
  5
4728
  8
0
 10
246.3395404815999
 20
170.1724081934
 30
0.0
  0
VERTEX
  5
4729
  8
0
 10
247.5929367542999
 20
170.29508572820001
 30
0.0
  0
VERTEX
  5
472A
  8
0
 10
248.5045205717839
 20
170.36926760055201
 30
0.0
  0
SEQEND
  5
472B
  8
0
  0
LINE
  5
3D35
  8
0
 10
235.49999997020001
 20
166.0192012489
 30
0.0
 11
235.49999997020001
 21
167.7476241887
 31
0.0
  0
LINE
  5
3D36
  8
0
 10
224.50000002979999
 20
173.51920154690001
 30
0.0
 11
224.50000002979999
 21
166.0192012489
 31
0.0
  0
ARC
  5
3D37
  8
0
 10
225.0
 20
166.01920000000001
 30
0.0
 40
0.5
 50
180.0
 51
270.0
  0
ARC
  5
3D38
  8
0
 10
235.0
 20
166.01920000000001
 30
0.0
 40
0.5
 50
270.0
 51
0.0
  0
ARC
  5
3D39
  8
0
 10
226.0000014496037
 20
173.5191994416958
 30
0.0
 40
1.5000014198050311
 50
90.000062628190236
 51
179.9999195872021
  0
ARC
  5
3D3A
  8
0
 10
235.97245700952479
 20
167.75400657131391
 30
0.0
 40
0.4725001468945735
 50
124.7670340646913
 51
180.77395681381199
  0
LINE
  5
3D3B
  8
0
 10
225.5000001937
 20
165.51920023560001
 30
0.0
 11
225.50000019369989
 21
162.99999874829999
 31
0.0
  0
LINE
  5
3D3C
  8
0
 10
234.49999980629991
 20
162.99999874829999
 30
0.0
 11
234.49999980629991
 21
165.51920023560001
 31
0.0
  0
LINE
  5
3D3F
  8
0
 10
238.99999961259991
 20
131.0000000224
 30
0.0
 11
238.99999961259991
 21
157.9999997914
 31
0.0
  0
LINE
  5
3D40
  8
0
 10
221.00000038749999
 20
157.9999997914
 30
0.0
 11
221.00000038749999
 21
131.0000000224
 31
0.0
  0
ARC
  5
3D41
  8
0
 10
221.5
 20
131.0
 30
0.0
 40
0.5
 50
180.0
 51
270.0
  0
ARC
  5
3D42
  8
0
 10
238.5
 20
131.0
 30
0.0
 40
0.5
 50
270.0
 51
0.0
  0
LINE
  5
3D43
  8
0
 10
247.99999922520001
 20
120.5000000238
 30
0.0
 11
247.99999922520001
 21
125.49999997019989
 31
0.0
  0
LINE
  5
3D44
  8
0
 10
247.50000007449989
 20
120.0
 30
0.0
 11
247.99999922520001
 21
120.5000000238
 31
0.0
  0
ARC
  5
3D45
  8
0
 10
247.5
 20
125.5
 30
0.0
 40
0.5
 50
0.0
 51
90.0
  0
LINE
  5
3D46
  8
0
 10
238.99999961259991
 20
126.00000005219999
 30
0.0
 11
238.99999961259991
 21
127.49999983239999
 31
0.0
  0
LINE
  5
3D47
  8
0
 10
221.00000038749999
 20
127.49999983239999
 30
0.0
 11
221.00000038749999
 21
126.00000005219999
 31
0.0
  0
LINE
  5
3D48
  8
0
 10
238.99999961259991
 20
127.49999983239999
 30
0.0
 11
238.50000046199989
 21
128.00000037999999
 31
0.0
  0
LINE
  5
3D49
  8
0
 10
221.4999995380999
 20
128.00000037999999
 30
0.0
 11
221.00000038749999
 21
127.49999983239999
 31
0.0
  0
ARC
  5
3D4A
  8
0
 10
212.5
 20
125.5
 30
0.0
 40
0.5
 50
90.0
 51
180.0
  0
LINE
  5
3D4B
  8
0
 10
212.00000077489989
 20
120.5000000238
 30
0.0
 11
212.49999992549999
 21
120.0
 31
0.0
  0
LINE
  5
3D4C
  8
0
 10
212.00000077489989
 20
125.49999997019989
 30
0.0
 11
212.00000077489989
 21
120.5000000238
 31
0.0
  0
ARC
  5
3D4D
  8
0
 10
223.0
 20
129.0
 30
0.0
 40
1.0
 50
270.0
 51
0.0
  0
ARC
  5
3D4E
  8
0
 10
237.0
 20
129.0
 30
0.0
 40
1.0
 50
180.0
 51
270.0
  0
LINE
  5
3D4F
  8
0
 10
236.00000005219999
 20
128.99999961259999
 30
0.0
 11
236.00000005219999
 21
130.4999999403999
 31
0.0
  0
LINE
  5
3D50
  8
0
 10
223.99999994789999
 20
130.4999999403999
 30
0.0
 11
223.99999994789999
 21
128.99999961259999
 31
0.0
  0
LINE
  5
3DAA
  8
0
 10
238.7500000373
 20
160.0000001192
 30
0.0
 11
221.24999996279999
 21
160.0000001192
 31
0.0
  0
LINE
  5
3DAD
  8
0
 10
221.4999995380999
 20
162.99999874829999
 30
0.0
 11
238.50000046199989
 21
162.99999874829999
 31
0.0
  0
LINE
  5
3DAF
  8
0
 10
238.8741192594
 20
158.50000080469999
 30
0.0
 11
238.8566355408
 21
158.50000080469999
 31
0.0
  0
LINE
  5
3DB2
  8
0
 10
238.99999961259991
 20
158.50000080469999
 30
0.0
 11
238.8741192594
 21
158.50000080469999
 31
0.0
  0
LINE
  5
3DB3
  8
0
 10
221.14336445929999
 20
158.50000080469999
 30
0.0
 11
221.1258807406
 21
158.50000080469999
 31
0.0
  0
LINE
  5
3DB7
  8
0
 10
221.1258807406
 20
158.50000080469999
 30
0.0
 11
221.00000038749999
 21
158.50000080469999
 31
0.0
  0
ARC
  5
3DBC
  8
0
 10
246.600078911
 20
159.5539539504
 30
0.0
 40
10.981707853994971
 50
63.81637341240004
 51
86.862336787798228
  0
ARC
  5
3DBD
  8
0
 10
230.2148875138181
 20
127.4177348211345
 30
0.0
 40
47.053123937320429
 50
60.406516162821852
 51
63.178624933969772
  0
LINE
  5
3DC2
  8
0
 10
245.16840327542701
 20
170.43249306084741
 30
0.0
 11
247.20116473735649
 21
170.5191991925206
 31
0.0
  0
LINE
  5
3DC4
  8
0
 10
234.9999998882999
 20
165.51920023560001
 30
0.0
 11
225.00000011180001
 21
165.51920023560001
 31
0.0
  0
LINE
  5
3DC5
  8
0
 10
225.99999980999999
 20
175.0192008615
 30
0.0
 11
258.10229073219989
 21
175.01920000000001
 31
0.0
  0
LINE
  5
3DC8
  8
0
 10
221.00000038749999
 20
157.9999997914
 30
0.0
 11
221.14336445929999
 21
157.9999997914
 31
0.0
  0
LINE
  5
3DC9
  8
0
 10
221.14336445929999
 20
159.49999910589989
 30
0.0
 11
221.14336445929999
 21
157.9999997914
 31
0.0
  0
LINE
  5
3DCB
  8
0
 10
238.8566355408
 20
157.9999997914
 30
0.0
 11
238.8566355408
 21
159.49999910589989
 31
0.0
  0
LINE
  5
3DCC
  8
0
 10
238.8566355408
 20
157.9999997914
 30
0.0
 11
238.99999961259991
 21
157.9999997914
 31
0.0
  0
LINE
  5
3DCD
  8
0
 10
234.00000018999989
 20
155.99999946359989
 30
0.0
 11
234.00000018999989
 21
153.99999913569991
 31
0.0
  0
ARC
  5
3DCE
  8
0
 10
232.99999686819999
 20
155.99999816830001
 30
0.0
 40
1.0000033217881561
 50
0.0000742106999287
 51
89.999819067700955
  0
LINE
  5
3DCF
  8
0
 10
226.99999997399991
 20
157.0000014901
 30
0.0
 11
233.0000000261
 21
157.0000014901
 31
0.0
  0
ARC
  5
3DD0
  8
0
 10
227.00020698610001
 20
155.99979431439999
 30
0.0
 40
1.000207197102978
 50
90.011858465600227
 51
179.9882482560003
  0
LINE
  5
3DD1
  8
0
 10
225.99999980999999
 20
155.99999946359989
 30
0.0
 11
225.99999980999999
 21
153.99999913569991
 31
0.0
  0
ARC
  5
3DD2
  8
0
 10
226.99999774939999
 20
153.99999877379989
 30
0.0
 40
0.9999979393326528
 50
179.99997926250009
 51
270.00012745929848
  0
LINE
  5
3DD3
  8
0
 10
233.0000000261
 20
153.00000083450001
 30
0.0
 11
226.99999997399991
 21
153.00000083450001
 31
0.0
  0
ARC
  5
3DD4
  8
0
 10
232.99979821319991
 20
154.00020281169989
 30
0.0
 40
1.000201997547369
 50
270.01156069209952
 51
359.98833258609972
  0
LINE
  5
3DD7
  8
0
 10
230.79999997979999
 20
154.24999964240001
 30
0.0
 11
230.79999997979999
 21
153.50000184769999
 31
0.0
  0
LINE
  5
3DD8
  8
0
 10
226.80000008089999
 20
154.24999964240001
 30
0.0
 11
230.79999997979999
 21
154.24999964240001
 31
0.0
  0
LINE
  5
3DD9
  8
0
 10
226.80000008089999
 20
155.7499989568999
 30
0.0
 11
226.80000008089999
 21
154.24999964240001
 31
0.0
  0
LINE
  5
3DDA
  8
0
 10
230.79999997979999
 20
155.7499989568999
 30
0.0
 11
226.80000008089999
 21
155.7499989568999
 31
0.0
  0
LINE
  5
3DDB
  8
0
 10
230.79999997979999
 20
156.50000047680001
 30
0.0
 11
230.79999997979999
 21
155.7499989568999
 31
0.0
  0
LINE
  5
3DDC
  8
0
 10
238.23650415989991
 20
160.0000001192
 30
0.0
 11
238.8566355408
 21
159.49999910589989
 31
0.0
  0
LINE
  5
3DDD
  8
0
 10
221.76349584019999
 20
160.0000001192
 30
0.0
 11
221.14336445929999
 21
159.49999910589989
 31
0.0
  0
LINE
  5
3DDE
  8
0
 10
238.49999953060001
 20
130.4999999403999
 30
0.0
 11
221.4999995380999
 21
130.4999999403999
 31
0.0
  0
LINE
  5
3DE0
  8
0
 10
247.50000007449989
 20
120.0
 30
0.0
 11
212.49999992549999
 21
120.0
 31
0.0
  0
LINE
  5
3DE1
  8
0
 10
212.5
 20
126.0
 30
0.0
 11
247.50000007449989
 21
126.00000005219999
 31
0.0
  0
LINE
  5
3DEC
  8
0
 10
221.4999995380999
 20
128.00000037999999
 30
0.0
 11
238.50000046199989
 21
128.00000037999999
 31
0.0
  0
ARC
  5
3E00
  8
0
 10
231.7982722807356
 20
173.55319427640421
 30
0.0
 40
3.659411459713962
 50
164.8209977598126
 51
180.5323519569256
  0
ARC
  5
3E01
  8
0
 10
228.94698139179991
 20
174.3945575601
 30
0.0
 40
0.6904016941875271
 50
115.2099052351999
 51
170.26030300529999
  0
ARC
  5
3E02
  8
0
 10
229.51138504400001
 20
174.40077327669999
 30
0.0
 40
6.295219049536934
 50
268.30101505669859
 51
290.00890616019939
  0
POLYLINE
  5
3E03
  8
0
 66
     1
 10
0.0
 20
0.0
 30
0.0
 70
   128
  0
VERTEX
  5
472C
  8
0
 10
228.1586668873999
 20
168.5191988647
 30
0.0
  0
VERTEX
  5
472D
  8
0
 10
228.15865070559991
 20
168.50734499099991
 30
0.0
  0
VERTEX
  5
472E
  8
0
 10
228.16686264239999
 20
168.4651933312
 30
0.0
  0
VERTEX
  5
472F
  8
0
 10
228.17406886730001
 20
168.44961789249999
 30
0.0
  0
VERTEX
  5
4730
  8
0
 10
228.2122661313
 20
168.40461266040001
 30
0.0
  0
VERTEX
  5
4731
  8
0
 10
228.4111572848999
 20
168.29626631740001
 30
0.0
  0
VERTEX
  5
4732
  8
0
 10
228.76790773129991
 20
168.18799820539999
 30
0.0
  0
VERTEX
  5
4733
  8
0
 10
229.23561816110001
 20
168.1153252423
 30
0.0
  0
VERTEX
  5
4734
  8
0
 10
229.3247410166
 20
168.10832169650001
 30
0.0
  0
SEQEND
  5
4735
  8
0
  0
POLYLINE
  5
3E04
  8
0
 66
     1
 10
0.0
 20
0.0
 30
0.0
 70
   128
  0
VERTEX
  5
4736
  8
0
 10
228.15963779110001
 20
168.53255403039989
 30
0.0
  0
VERTEX
  5
4737
  8
0
 10
228.1586668873999
 20
168.5191988647
 30
0.0
  0
SEQEND
  5
4738
  8
0
  0
LINE
  5
3E33
  8
0
 10
328.99999961265002
 20
160.25000062589999
 30
0.0
 11
328.99999961265002
 21
162.50000146030001
 31
0.0
  0
LINE
  5
3E34
  8
0
 10
311.00000038744997
 20
162.50000146030001
 30
0.0
 11
311.00000038744997
 21
160.25000062589999
 31
0.0
  0
LINE
  5
3E35
  8
0
 10
311.00000038744997
 20
160.25000062589999
 30
0.0
 11
311.24999996275
 21
160.0000001192
 31
0.0
  0
LINE
  5
3E36
  8
0
 10
328.75000003724989
 20
160.0000001192
 30
0.0
 11
328.99999961265002
 21
160.25000062589999
 31
0.0
  0
LINE
  5
3E37
  8
0
 10
328.99999961265002
 20
162.50000146030001
 30
0.0
 11
328.50000046194998
 21
162.99999874829999
 31
0.0
  0
LINE
  5
3E38
  8
0
 10
311.49999953804991
 20
162.99999874829999
 30
0.0
 11
311.00000038744997
 21
162.50000146030001
 31
0.0
  0
ARC
  5
3E39
  8
0
 10
291.8977109722523
 20
173.5191988267955
 30
0.0
 40
1.500002034704738
 50
90.000032754131695
 51
179.99989609980341
  0
LINE
  5
3E3A
  8
0
 10
290.39770893755002
 20
173.51920154690001
 30
0.0
 11
290.39770893755002
 21
172.51919952039989
 31
0.0
  0
ARC
  5
3E3B
  8
0
 10
294.89770931630721
 20
172.51920042559351
 30
0.0
 40
4.5000003787573402
 50
180.00001152528139
 51
291.35684990647229
  0
ARC
  5
3E3D
  8
0
 10
297.72147132511247
 20
67.102614750513339
 30
0.0
 40
103.56982023195479
 50
79.158314817927135
 51
86.882871645095506
  0
POLYLINE
  5
3E3E
  8
0
 66
     1
 10
0.0
 20
0.0
 30
0.0
 70
   128
  0
VERTEX
  5
4739
  8
0
 10
301.63588150128072
 20
170.35786987713121
 30
0.0
  0
VERTEX
  5
473A
  8
0
 10
302.53889940685002
 20
170.2839918137
 30
0.0
  0
VERTEX
  5
473B
  8
0
 10
303.87836478654992
 20
170.15082013610001
 30
0.0
  0
VERTEX
  5
473C
  8
0
 10
305.00105738644987
 20
170.02279308440001
 30
0.0
  0
VERTEX
  5
473D
  8
0
 10
305.93139741574998
 20
169.90874704719999
 30
0.0
  0
VERTEX
  5
473E
  8
0
 10
306.50700040164998
 20
169.83352226019991
 30
0.0
  0
VERTEX
  5
473F
  8
0
 10
306.9667394087499
 20
169.77067661289999
 30
0.0
  0
VERTEX
  5
4740
  8
0
 10
307.43809387095001
 20
169.7036735415
 30
0.0
  0
VERTEX
  5
4741
  8
0
 10
307.94036079204989
 20
169.62939497830001
 30
0.0
  0
VERTEX
  5
4742
  8
0
 10
308.47310151904992
 20
169.5473491848
 30
0.0
  0
VERTEX
  5
4743
  8
0
 10
309.56373613334989
 20
169.36878484490001
 30
0.0
  0
VERTEX
  5
4744
  8
0
 10
310.63565488904999
 20
169.17921972280001
 30
0.0
  0
VERTEX
  5
4745
  8
0
 10
311.5752075612499
 20
169.00178787109991
 30
0.0
  0
VERTEX
  5
4746
  8
0
 10
311.99605826294999
 20
168.91920563580001
 30
0.0
  0
VERTEX
  5
4747
  8
0
 10
312.45455721395001
 20
168.82821914549999
 30
0.0
  0
VERTEX
  5
4748
  8
0
 10
313.05047141394988
 20
168.7097884417
 30
0.0
  0
VERTEX
  5
4749
  8
0
 10
313.57015406714987
 20
168.5401163697
 30
0.0
  0
VERTEX
  5
474A
  8
0
 10
314.12462860344999
 20
168.24327033759999
 30
0.0
  0
VERTEX
  5
474B
  8
0
 10
314.29157795392013
 20
168.1191846430751
 30
0.0
  0
SEQEND
  5
474C
  8
0
  0
LINE
  5
3E3F
  8
0
 10
325.49999997024997
 20
166.0192012489
 30
0.0
 11
325.49999997024997
 21
173.51920154690001
 31
0.0
  0
LINE
  5
3E40
  8
0
 10
314.5000000298499
 20
167.72955653069999
 30
0.0
 11
314.5000000298499
 21
166.0192012489
 31
0.0
  0
ARC
  5
3E41
  8
0
 10
314.99999957678642
 20
166.01919978253829
 30
0.0
 40
0.4999995469386151
 50
179.99983196717659
 51
270.00006130236062
  0
ARC
  5
3E42
  8
0
 10
325.00000042331442
 20
166.01919978253721
 30
0.0
 40
0.4999995469374901
 50
269.99993868607089
 51
0.0001680329503968
  0
ARC
  5
3E43
  8
0
 10
324.00000002112142
 20
173.51920005087061
 30
0.0
 40
1.4999999491292959
 50
0.0000571441123762
 51
90.000000804868222
  0
ARC
  5
3E44
  8
0
 10
314.05976145194921
 20
167.74462083265109
 30
0.0
 40
0.4404962413748756
 50
358.04018928547907
 51
58.246750059345757
  0
LINE
  5
3E45
  8
0
 10
315.50000019375011
 20
165.51920023560001
 30
0.0
 11
315.50000019374988
 21
162.99999874829999
 31
0.0
  0
LINE
  5
3E46
  8
0
 10
324.49999980634988
 20
162.99999874829999
 30
0.0
 11
324.49999980634988
 21
165.51920023560001
 31
0.0
  0
LINE
  5
3E49
  8
0
 10
328.99999961265002
 20
131.0000000224
 30
0.0
 11
328.99999961265002
 21
146.99999985100001
 31
0.0
  0
LINE
  5
3E4A
  8
0
 10
311.00000038744997
 20
153.00000083450001
 30
0.0
 11
311.00000038744997
 21
131.0000000224
 31
0.0
  0
LINE
  5
3E4B
  8
0
 10
311.00000038744997
 20
159.49999910589989
 30
0.0
 11
311.00000038744997
 21
157.0000014901
 31
0.0
  0
ARC
  5
3E4C
  8
0
 10
311.50000000004991
 20
131.0
 30
0.0
 40
0.5
 50
180.0
 51
270.0
  0
ARC
  5
3E4D
  8
0
 10
328.50000000005002
 20
131.0
 30
0.0
 40
0.5
 50
270.0
 51
0.0
  0
LINE
  5
3E4E
  8
0
 10
311.49999953804991
 20
160.0000001192
 30
0.0
 11
311.00000038744997
 21
159.49999910589989
 31
0.0
  0
ARC
  5
3E4F
  8
0
 10
332.00000058507572
 20
146.99999975767449
 30
0.0
 40
3.00000058502556
 50
90.000011173164637
 51
179.99999537192451
  0
LINE
  5
3E50
  8
0
 10
311.29999987784993
 20
153.50000184769999
 30
0.0
 11
311.29999987784993
 21
153.00000083450001
 31
0.0
  0
LINE
  5
3E51
  8
0
 10
311.29999987784993
 20
157.0000014901
 30
0.0
 11
311.29999987784993
 21
156.50000047680001
 31
0.0
  0
ARC
  5
3E52
  8
0
 10
345.50000000005002
 20
150.5
 30
0.0
 40
0.5
 50
270.0
 51
0.0
  0
LINE
  5
3E53
  8
0
 10
346.00000053644999
 20
159.49999910589989
 30
0.0
 11
345.49999952314988
 21
160.0000001192
 31
0.0
  0
LINE
  5
3E54
  8
0
 10
346.00000053644999
 20
150.4999994934
 30
0.0
 11
346.00000053644999
 21
159.49999910589989
 31
0.0
  0
LINE
  5
3E55
  8
0
 10
311.00000038744997
 20
155.7499989568999
 30
0.0
 11
311.00000038744997
 21
154.24999964240001
 31
0.0
  0
LINE
  5
3E58
  8
0
 10
328.99999961265002
 20
127.49999983239999
 30
0.0
 11
328.50000046194998
 21
128.00000037999999
 31
0.0
  0
LINE
  5
3E59
  8
0
 10
311.49999953804991
 20
128.00000037999999
 30
0.0
 11
311.00000038744997
 21
127.49999983239999
 31
0.0
  0
ARC
  5
3E5A
  8
0
 10
313.00000000004991
 20
129.0
 30
0.0
 40
1.0
 50
270.0
 51
0.0
  0
ARC
  5
3E5B
  8
0
 10
327.00000000005002
 20
129.0
 30
0.0
 40
1.0
 50
180.0
 51
270.0
  0
LINE
  5
3E5C
  8
0
 10
326.00000005215003
 20
128.99999961259999
 30
0.0
 11
326.00000005215003
 21
130.4999999403999
 31
0.0
  0
LINE
  5
3E5D
  8
0
 10
313.99999994784997
 20
130.4999999403999
 30
0.0
 11
313.99999994784997
 21
128.99999961259999
 31
0.0
  0
LINE
  5
3E5E
  8
0
 10
344.0207258612499
 20
162.39999976749999
 30
0.0
 11
344.0207258612499
 21
160.0000001192
 31
0.0
  0
LINE
  5
3E60
  8
0
 10
346.04145184164997
 20
162.39999976749999
 30
0.0
 11
346.04145184164997
 21
160.0000001192
 31
0.0
  0
LINE
  5
3E61
  8
0
 10
311.24999996275
 20
160.0000001192
 30
0.0
 11
346.04145184164997
 21
160.0000001192
 31
0.0
  0
LINE
  5
3E62
  8
0
 10
339.97927390044993
 20
162.39999976749999
 30
0.0
 11
339.97927390044993
 21
160.0000001192
 31
0.0
  0
LINE
  5
3E65
  8
0
 10
337.95854792005002
 20
162.39999976749999
 30
0.0
 11
337.95854792005002
 21
160.0000001192
 31
0.0
  0
LINE
  5
3E66
  8
0
 10
337.95854792005002
 20
162.39999976749999
 30
0.0
 11
346.04145184164997
 21
162.39999976749999
 31
0.0
  0
LINE
  5
3E67
  8
0
 10
339.97927390044993
 20
150.00000034269999
 30
0.0
 11
339.97927390044993
 21
147.60000069439999
 31
0.0
  0
LINE
  5
3E69
  8
0
 10
344.0207258612499
 20
150.00000034269999
 30
0.0
 11
344.0207258612499
 21
147.60000069439999
 31
0.0
  0
LINE
  5
3E6B
  8
0
 10
346.04145184164997
 20
150.00000034269999
 30
0.0
 11
346.04145184164997
 21
147.60000069439999
 31
0.0
  0
LINE
  5
3E6E
  8
0
 10
337.95854792005002
 20
150.00000034269999
 30
0.0
 11
337.95854792005002
 21
147.60000069439999
 31
0.0
  0
LINE
  5
3E6F
  8
0
 10
337.95854792005002
 20
147.60000069439999
 30
0.0
 11
346.04145184164997
 21
147.60000069439999
 31
0.0
  0
LINE
  5
3E82
  8
0
 10
311.49999953804991
 20
162.99999874829999
 30
0.0
 11
328.50000046194998
 21
162.99999874829999
 31
0.0
  0
LINE
  5
3E83
  8
0
 10
321.50000001305
 20
158.50000080469999
 30
0.0
 11
318.49999998695
 21
158.50000080469999
 31
0.0
  0
LINE
  5
3E84
  8
0
 10
318.49999998695
 20
157.9999997914
 30
0.0
 11
318.49999998695
 21
160.0000001192
 31
0.0
  0
LINE
  5
3E86
  8
0
 10
321.50000001305
 20
157.9999997914
 30
0.0
 11
321.50000001305
 21
160.0000001192
 31
0.0
  0
LINE
  5
3E8B
  8
0
 10
291.89771011475
 20
175.0192008615
 30
0.0
 11
324.00000000005002
 21
175.01920000000001
 31
0.0
  0
POLYLINE
  5
3E8C
  8
0
 66
     1
 10
0.0
 20
0.0
 30
0.0
 70
   128
  0
VERTEX
  5
474D
  8
0
 10
296.53649916987081
 20
168.32821352216931
 30
0.0
  0
VERTEX
  5
474E
  8
0
 10
296.71958990395001
 20
168.40692606569999
 30
0.0
  0
VERTEX
  5
474F
  8
0
 10
297.25299000745002
 20
168.70101910829999
 30
0.0
  0
SEQEND
  5
4750
  8
0
  0
ARC
  5
3E8F
  8
0
 10
304.04419612467092
 20
157.26964567414811
 30
0.0
 40
13.30795221334917
 50
95.369607348089204
 51
114.2375599916553
  0
ARC
  5
3E90
  8
0
 10
302.94381920634999
 20
159.5634981325
 30
0.0
 40
10.76474925648861
 50
113.9091274316005
 51
121.91456512920109
  0
LINE
  5
3E92
  8
0
 10
303.3533205092499
 20
170.5191991925
 30
0.0
 11
302.79883526265002
 21
170.5191991925
 31
0.0
  0
LINE
  5
3E98
  8
0
 10
324.99999988824987
 20
165.51920023560001
 30
0.0
 11
315.00000011175001
 21
165.51920023560001
 31
0.0
  0
LINE
  5
3E9C
  8
0
 10
318.40000004044998
 20
157.9999997914
 30
0.0
 11
318.40000004044998
 21
159.49999910589989
 31
0.0
  0
LINE
  5
3E9D
  8
0
 10
318.40000004044998
 20
157.9999997914
 30
0.0
 11
321.59999995964989
 21
157.9999997914
 31
0.0
  0
LINE
  5
3E9E
  8
0
 10
321.59999995964989
 20
159.49999910589989
 30
0.0
 11
321.59999995964989
 21
157.9999997914
 31
0.0
  0
LINE
  5
3EA0
  8
0
 10
311.93774256854999
 20
155.99999946359989
 30
0.0
 11
311.93774256854999
 21
153.99999913569991
 31
0.0
  0
POLYLINE
  5
3EA1
  8
0
 66
     1
 10
0.0
 20
0.0
 30
0.0
 70
   128
  0
VERTEX
  5
4751
  8
0
 10
311.51471909134989
 20
157.0000014901
 30
0.0
  0
VERTEX
  5
4752
  8
0
 10
311.64707493044989
 20
156.93640705940001
 30
0.0
  0
VERTEX
  5
4753
  8
0
 10
311.77687801424997
 20
156.75310042500001
 30
0.0
  0
VERTEX
  5
4754
  8
0
 10
311.88097473235001
 20
156.4684658944999
 30
0.0
  0
VERTEX
  5
4755
  8
0
 10
311.93288851534999
 20
156.13964569570001
 30
0.0
  0
VERTEX
  5
4756
  8
0
 10
311.93774256854999
 20
155.99999946359989
 30
0.0
  0
SEQEND
  5
4757
  8
0
  0
LINE
  5
3EA2
  8
0
 10
311.00000038744997
 20
157.0000014901
 30
0.0
 11
311.51471909134989
 21
157.0000014901
 31
0.0
  0
LINE
  5
3EA3
  8
0
 10
311.51471909134989
 20
153.00000083450001
 30
0.0
 11
311.00000038744997
 21
153.00000083450001
 31
0.0
  0
POLYLINE
  5
3EA4
  8
0
 66
     1
 10
0.0
 20
0.0
 30
0.0
 70
   128
  0
VERTEX
  5
4758
  8
0
 10
311.93774256854999
 20
153.99999913569991
 30
0.0
  0
VERTEX
  5
4759
  8
0
 10
311.92745704204992
 20
153.79754450920001
 30
0.0
  0
VERTEX
  5
475A
  8
0
 10
311.89778231085
 20
153.60454839469989
 30
0.0
  0
VERTEX
  5
475B
  8
0
 10
311.85192678124997
 20
153.4307487010999
 30
0.0
  0
VERTEX
  5
475C
  8
0
 10
311.79369024934999
 20
153.28152474759989
 30
0.0
  0
VERTEX
  5
475D
  8
0
 10
311.65667034684998
 20
153.07290849090001
 30
0.0
  0
VERTEX
  5
475E
  8
0
 10
311.51471909134989
 20
153.00000083450001
 30
0.0
  0
SEQEND
  5
475F
  8
0
  0
LINE
  5
3EA5
  8
0
 10
328.50000046194998
 20
130.4999999403999
 30
0.0
 11
311.49999953804991
 21
130.4999999403999
 31
0.0
  0
LINE
  5
3EA6
  8
0
 10
322.09999992514997
 20
160.0000001192
 30
0.0
 11
321.59999995964989
 21
159.49999910589989
 31
0.0
  0
LINE
  5
3EA7
  8
0
 10
317.90000007495001
 20
160.0000001192
 30
0.0
 11
318.40000004044998
 21
159.49999910589989
 31
0.0
  0
POLYLINE
  5
3EAB
  8
0
 66
     1
 10
0.0
 20
0.0
 30
0.0
 70
   128
  0
VERTEX
  5
4760
  8
0
 10
311.33562576025002
 20
153.50000184769999
 30
0.0
  0
VERTEX
  5
4761
  8
0
 10
311.55387841164998
 20
154.26359322670001
 30
0.0
  0
VERTEX
  5
4762
  8
0
 10
311.93774256854999
 20
154.94925898310001
 30
0.0
  0
SEQEND
  5
4763
  8
0
  0
POLYLINE
  5
3EAC
  8
0
 66
     1
 10
0.0
 20
0.0
 30
0.0
 70
   128
  0
VERTEX
  5
4764
  8
0
 10
311.93774256854999
 20
155.05073961619991
 30
0.0
  0
VERTEX
  5
4765
  8
0
 10
311.55387841164998
 20
155.73640909790001
 30
0.0
  0
VERTEX
  5
4766
  8
0
 10
311.33562576025002
 20
156.50000047680001
 30
0.0
  0
SEQEND
  5
4767
  8
0
  0
LINE
  5
3EB0
  8
0
 10
346.04145184164997
 20
150.00000034269999
 30
0.0
 11
332.00000058507572
 21
150.00000034269999
 31
0.0
  0
LINE
  5
3EB1
  8
0
 10
311.93774256854999
 20
155.00000116230001
 30
0.0
 11
311.66614841674988
 21
155.00000116230001
 31
0.0
  0
LINE
  5
3EB2
  8
0
 10
311.33562576025002
 20
153.50000184769999
 30
0.0
 11
311.03562626994989
 21
153.50000184769999
 31
0.0
  0
ARC
  5
3EB3
  8
0
 10
314.53031213665002
 20
152.91353573009991
 30
0.0
 40
3.5435535574436621
 50
143.92767922959899
 51
170.47358706620011
  0
LINE
  5
3EB4
  8
0
 10
311.33562576025002
 20
156.50000047680001
 30
0.0
 11
311.03562626994989
 21
156.50000047680001
 31
0.0
  0
ARC
  5
3EB5
  8
0
 10
314.53027442615002
 20
157.086450743
 30
0.0
 40
3.5435137435284032
 50
189.52626107629979
 51
216.07247262780061
  0
LINE
  5
3EB6
  8
0
 10
311.03562626994989
 20
154.24999964240001
 30
0.0
 11
311.03562626994989
 21
153.50000184769999
 31
0.0
  0
LINE
  5
3EB7
  8
0
 10
311.00000038744997
 20
154.24999964240001
 30
0.0
 11
311.03562626994989
 21
154.24999964240001
 31
0.0
  0
LINE
  5
3EB8
  8
0
 10
311.03562626994989
 20
155.7499989568999
 30
0.0
 11
311.00000038744997
 21
155.7499989568999
 31
0.0
  0
LINE
  5
3EB9
  8
0
 10
311.03562626994989
 20
156.50000047680001
 30
0.0
 11
311.03562626994989
 21
155.7499989568999
 31
0.0
  0
LINE
  5
3EBA
  8
0
 10
328.99999961265002
 20
127.49999983239999
 30
0.0
 11
328.99999961265002
 21
120.5000000238
 31
0.0
  0
LINE
  5
3EBC
  8
0
 10
311.00000038744997
 20
127.49999983239999
 30
0.0
 11
311.00000038744997
 21
120.5000000238
 31
0.0
  0
LINE
  5
3EBD
  8
0
 10
328.50000046194998
 20
120.0
 30
0.0
 11
328.99999961265002
 21
120.5000000238
 31
0.0
  0
LINE
  5
3EBE
  8
0
 10
328.50000046194998
 20
120.0
 30
0.0
 11
311.49999953804991
 21
120.0
 31
0.0
  0
LINE
  5
3EBF
  8
0
 10
311.00000038744997
 20
120.5000000238
 30
0.0
 11
311.49999953804991
 21
120.0
 31
0.0
  0
LINE
  5
3EC0
  8
0
 10
311.00000038744992
 20
126.00000005219999
 30
0.0
 11
328.99999961265007
 21
126.00000005219999
 31
0.0
  0
LINE
  5
3EC6
  8
0
 10
311.49999953804991
 20
128.00000037999999
 30
0.0
 11
328.50000046194998
 21
128.00000037999999
 31
0.0
  0
ARC
  5
3ED7
  8
0
 10
321.04392730846979
 20
174.39232152239299
 30
0.0
 40
0.6995398525262883
 50
9.7973620007858031
 51
63.65407315973394
  0
ARC
  5
3ED9
  8
0
 10
318.20320370125
 20
173.553186834
 30
0.0
 40
3.6577895189852021
 50
359.46787869830001
 51
15.186015851599009
  0
POLYLINE
  5
3EDC
  8
0
 66
     1
 10
0.0
 20
0.0
 30
0.0
 70
   128
  0
VERTEX
  5
4768
  8
0
 10
320.69421686934987
 20
168.1322678626
 30
0.0
  0
VERTEX
  5
4769
  8
0
 10
321.4398292405499
 20
168.24504730109999
 30
0.0
  0
VERTEX
  5
476A
  8
0
 10
321.74341083044987
 20
168.3667562604
 30
0.0
  0
VERTEX
  5
476B
  8
0
 10
321.8132852856499
 20
168.43131926660001
 30
0.0
  0
VERTEX
  5
476C
  8
0
 10
321.83279532944988
 20
168.47261783479999
 30
0.0
  0
VERTEX
  5
476D
  8
0
 10
321.83791853494989
 20
168.5191988647
 30
0.0
  0
SEQEND
  5
476E
  8
0
  0
ARC
  5
3EDD
  8
0
 10
320.23306983635001
 20
173.11080023429989
 30
0.0
 40
4.9998441137837011
 50
247.7301544332006
 51
275.2920417175003
  0
LINE
  5
3EDE
  8
0
 10
321.86083535665
 20
173.5191940963
 30
0.0
 11
321.86083547304997
 21
173.5192164481
 31
0.0
  0
POLYLINE
  5
3F06
  8
0
 66
     1
 10
0.0
 20
0.0
 30
0.0
 70
   128
  0
VERTEX
  5
476F
  8
0
 10
161.92031033340001
 20
46.443650580899991
 30
0.0
  0
VERTEX
  5
4770
  8
0
 10
160.63599228859999
 20
47.738504677999991
 30
0.0
  0
VERTEX
  5
4771
  8
0
 10
159.36390809709991
 20
49.023993395199987
 30
0.0
  0
VERTEX
  5
4772
  8
0
 10
158.12890917059991
 20
50.273219205400011
 30
0.0
  0
VERTEX
  5
4773
  8
0
 10
157.07693375650001
 20
51.340292289800011
 30
0.0
  0
VERTEX
  5
4774
  8
0
 10
156.23256504540001
 20
52.201348438800011
 30
0.0
  0
VERTEX
  5
4775
  8
0
 10
155.69594815369999
 20
52.72221573440001
 30
0.0
  0
VERTEX
  5
4776
  8
0
 10
155.1919741184
 20
53.165281273400012
 30
0.0
  0
VERTEX
  5
4777
  8
0
 10
154.72042500969991
 20
53.581837646600007
 30
0.0
  0
VERTEX
  5
4778
  8
0
 10
154.2653873189999
 20
53.988280787999997
 30
0.0
  0
VERTEX
  5
4779
  8
0
 10
153.69913015509991
 20
54.502836976200001
 30
0.0
  0
VERTEX
  5
477A
  8
0
 10
152.89365533739999
 20
55.25172137460001
 30
0.0
  0
VERTEX
  5
477B
  8
0
 10
151.92238461229999
 20
56.181703310399989
 30
0.0
  0
VERTEX
  5
477C
  8
0
 10
150.90472284699999
 20
57.188896544199999
 30
0.0
  0
VERTEX
  5
477D
  8
0
 10
149.9650677294
 20
58.150209335599989
 30
0.0
  0
VERTEX
  5
477E
  8
0
 10
149.10101085900001
 20
59.062356444000002
 30
0.0
  0
VERTEX
  5
477F
  8
0
 10
148.99999961259999
 20
59.171958675600003
 30
0.0
  0
SEQEND
  5
4780
  8
0
  0
ARC
  5
3F07
  8
0
 10
283.72564707420003
 20
173.61963834380001
 30
0.0
 40
185.09534503638639
 50
222.65954798288371
 51
226.17562698289851
  0
LINE
  5
3F08
  8
0
 10
115.97927413879999
 20
65.500000108000009
 30
0.0
 11
113.95854815840001
 21
62.0
 31
0.0
  0
LINE
  5
3F09
  8
0
 10
120.0207260996
 20
65.500000108000009
 30
0.0
 11
115.97927413879999
 21
65.500000108000009
 31
0.0
  0
LINE
  5
3F0A
  8
0
 10
122.04145208
 20
62.0
 30
0.0
 11
120.0207260996
 21
65.500000108000009
 31
0.0
  0
LINE
  5
3F0B
  8
0
 10
120.0207260996
 20
58.499999891899989
 30
0.0
 11
122.04145208
 21
62.0
 31
0.0
  0
LINE
  5
3F0C
  8
0
 10
115.97927413879999
 20
58.499999891899989
 30
0.0
 11
120.0207260996
 21
58.499999891899989
 31
0.0
  0
LINE
  5
3F0D
  8
0
 10
113.95854815840001
 20
62.0
 30
0.0
 11
115.97927413879999
 21
58.499999891899989
 31
0.0
  0
CIRCLE
  5
3F0E
  8
0
 10
140.0
 20
62.0
 30
0.0
 40
2.2500000000000089
  0
CIRCLE
  5
3F17
  8
0
 10
140.0
 20
62.0
 30
0.0
 40
4.0000000000000071
  0
ARC
  5
3F1F
  8
0
 10
165.10229073209999
 20
36.897709267800003
 30
0.0
 40
4.4999999999999911
 50
224.99999999999969
 51
44.999999999999737
  0
POLYLINE
  5
3F22
  8
0
 66
     1
 10
0.0
 20
0.0
 30
0.0
 70
   128
  0
VERTEX
  5
4781
  8
0
 10
164.60731565949999
 20
38.524055004099999
 30
0.0
  0
VERTEX
  5
4782
  8
0
 10
164.8241014779
 20
38.820217445400012
 30
0.0
  0
VERTEX
  5
4783
  8
0
 10
164.92821589110011
 20
39.103436365699991
 30
0.0
  0
SEQEND
  5
4784
  8
0
  0
POLYLINE
  5
3F23
  8
0
 66
     1
 10
0.0
 20
0.0
 30
0.0
 70
   128
  0
VERTEX
  5
4785
  8
0
 10
162.89656363430001
 20
37.071784108800003
 30
0.0
  0
VERTEX
  5
4786
  8
0
 10
163.2312455773
 20
37.204201415100002
 30
0.0
  0
VERTEX
  5
4787
  8
0
 10
163.47594499589999
 20
37.392684340399988
 30
0.0
  0
SEQEND
  5
4788
  8
0
  0
LINE
  5
3F25
  8
0
 10
161.92031033340001
 20
46.443650580899991
 30
0.0
 11
168.28427031640001
 21
40.079689666599997
 31
0.0
  0
LINE
  5
3F26
  8
0
 10
155.5563494191
 20
40.079689666599997
 30
0.0
 11
161.92031033340001
 21
33.71572968360001
 31
0.0
  0
ARC
  5
3F27
  8
0
 10
163.75879228669999
 20
39.372583090700012
 30
0.0
 40
1.1999964692920091
 50
347.03889253360001
 51
45.000153141598823
  0
ARC
  5
3F28
  8
0
 10
162.62741851690001
 20
38.241213312600003
 30
0.0
 40
1.2000015653722309
 50
224.9999816251015
 51
282.96097269970011
  0
ARC
  5
3F2D
  8
0
 10
129.84204292839999
 20
54.738244112500013
 30
0.0
 40
3.26296953295599
 50
69.214007040700864
 51
91.562875914600326
  0
ARC
  5
3F2E
  8
0
 10
129.84204292839999
 20
69.2617558874
 30
0.0
 40
3.2629695329560109
 50
268.43712408539972
 51
290.78599295929922
  0
LINE
  5
3F31
  8
0
 10
129.75304886701011
 20
57.999999809978952
 30
0.0
 11
118.0000001192
 21
57.999999809999998
 31
0.0
  0
ARC
  5
3F32
  8
0
 10
118.0
 20
62.0
 30
0.0
 40
4.0000000000000071
 50
241.0449756280982
 51
270.0
  0
ARC
  5
3F33
  8
0
 10
118.0
 20
62.0
 30
0.0
 40
4.0000000000000089
 50
181.04497562810019
 51
238.95502437190041
  0
ARC
  5
3F34
  8
0
 10
118.0
 20
62.0
 30
0.0
 40
4.0000000000000089
 50
121.04497562809961
 51
178.95502437189981
  0
ARC
  5
3F35
  8
0
 10
118.0
 20
62.0
 30
0.0
 40
3.9999999999999898
 50
90.0
 51
118.9550243719017
  0
ARC
  5
3F36
  8
0
 10
124.0
 20
62.0
 30
0.0
 40
2.1500000000000061
 50
270.0
 51
90.0
  0
LINE
  5
3F37
  8
0
 10
120.8001480997
 20
59.84999992689999
 30
0.0
 11
123.99999923999999
 21
59.84999992689999
 31
0.0
  0
LINE
  5
3F38
  8
0
 10
123.99999923999999
 20
64.150000073000001
 30
0.0
 11
120.8001480997
 21
64.150000073000001
 31
0.0
  0
LINE
  5
3F39
  8
0
 10
118.0000001192
 20
66.000000189900007
 30
0.0
 11
129.75304886701011
 21
66.000000189921039
 31
0.0
  0
ARC
  5
3F3A
  8
0
 10
140.0
 20
53.0
 30
0.0
 40
9.0
 50
180.0
 51
0.0
  0
ARC
  5
3F4D
  8
0
 10
140.0
 20
62.0
 30
0.0
 40
15.65
 50
259.99999999999818
 51
279.99999999999858
  0
ARC
  5
3F4E
  8
0
 10
137.65574960149999
 20
48.70509533429999
 30
0.0
 40
2.150000000000003
 50
79.999999999998167
 51
259.99999999999818
  0
ARC
  5
3F4F
  8
0
 10
142.34425039850001
 20
48.70509533429999
 30
0.0
 40
2.150000000000003
 50
279.99999999999858
 51
100.0000000000018
  0
ARC
  5
3F50
  8
0
 10
140.0
 20
62.0
 30
0.0
 40
11.35
 50
259.99999999999818
 51
279.99999999999858
  0
LINE
  5
3F51
  8
0
 10
131.00000038740001
 20
53.000000387400007
 30
0.0
 11
131.00000038740001
 21
70.999999612500005
 31
0.0
  0
LINE
  5
3F52
  8
0
 10
148.99999961259999
 20
70.999999612500005
 30
0.0
 11
148.99999961259999
 21
53.000000387400007
 31
0.0
  0
LINE
  5
3F54
  8
0
 10
140.0
 20
56.226497132299997
 30
0.0
 11
144.99999988819999
 21
59.113248566099998
 31
0.0
  0
LINE
  5
3F57
  8
0
 10
135.00000011180001
 20
59.113248566099998
 30
0.0
 11
140.0
 21
56.226497132299997
 31
0.0
  0
LINE
  5
3F58
  8
0
 10
135.00000011180001
 20
64.886751433800001
 30
0.0
 11
135.00000011180001
 21
59.113248566099998
 31
0.0
  0
LINE
  5
3F5A
  8
0
 10
144.99999988819999
 20
59.113248566099998
 30
0.0
 11
144.99999988819999
 21
64.886751433800001
 31
0.0
  0
LINE
  5
3F5C
  8
0
 10
144.99999988819999
 20
64.886751433800001
 30
0.0
 11
140.0
 21
67.773502867600001
 31
0.0
  0
LINE
  5
3F5E
  8
0
 10
140.0
 20
67.773502867600001
 30
0.0
 11
135.00000011180001
 21
64.886751433800001
 31
0.0
  0
ARC
  5
3F5F
  8
0
 10
140.0
 20
71.0
 30
0.0
 40
9.0
 50
0.0
 51
180.0
  0
ARC
  5
3F60
  8
0
 10
137.65574960149999
 20
75.294904665600001
 30
0.0
 40
2.150000000000003
 50
100.0000000000018
 51
279.99999999999858
  0
ARC
  5
3F61
  8
0
 10
142.34425039850001
 20
75.294904665600001
 30
0.0
 40
2.150000000000003
 50
259.99999999999818
 51
79.999999999998167
  0
ARC
  5
3F62
  8
0
 10
140.0
 20
62.0
 30
0.0
 40
11.35
 50
79.999999999998167
 51
100.0000000000018
  0
ARC
  5
3F63
  8
0
 10
140.0
 20
62.0
 30
0.0
 40
15.65
 50
79.999999999998167
 51
100.0000000000018
  0
LINE
  5
4038
  8
0
 10
232.1422789431999
 20
168.66359484200001
 30
0.0
 11
232.5579980575009
 21
168.77410557867361
 31
0.0
  0
LINE
  5
4039
  8
0
 10
231.66539626659991
 20
168.48553714159999
 30
0.0
 11
231.66544958489999
 21
168.4855594933
 31
0.0
  0
LINE
  5
403A
  8
0
 10
231.66544958489999
 20
168.4855594933
 30
0.0
 11
232.1422789431999
 21
168.66359484200001
 31
0.0
  0
LINE
  5
403F
  8
0
 10
317.2025321331418
 20
168.82378232478621
 30
0.0
 11
318.33828303964992
 21
168.4838980138
 31
0.0
  0
LINE
  5
4040
  8
0
 10
55.069633014500027
 20
173.42630770799991
 30
0.0
 11
55.03050861880002
 21
173.0051040351
 31
0.0
  0
LINE
  5
410A
  8
0
 10
145.17470855262951
 20
173.5192127227466
 30
0.0
 11
145.16789499668471
 21
168.5168258547757
 31
0.0
  0
LINE
  5
410B
  8
0
 10
138.84529946162081
 20
61.999999797699402
 30
0.0
 11
139.42264973081029
 21
62.999999797699353
 31
0.0
  0
LINE
  5
410C
  8
0
 10
139.42264973081029
 20
62.999999797699353
 30
0.0
 11
140.57735026918959
 21
62.999999797699353
 31
0.0
  0
LINE
  5
410D
  8
0
 10
140.57735026918959
 20
62.999999797699353
 30
0.0
 11
141.15470053837919
 21
61.999999797699402
 31
0.0
  0
LINE
  5
410E
  8
0
 10
141.15470053837919
 20
61.999999797699402
 30
0.0
 11
140.57735026918951
 21
60.99999979769936
 31
0.0
  0
LINE
  5
410F
  8
0
 10
140.57735026918951
 20
60.99999979769936
 30
0.0
 11
139.42264973081041
 21
60.99999979769936
 31
0.0
  0
LINE
  5
4110
  8
0
 10
138.84529946162081
 20
61.999999797699402
 30
0.0
 11
139.42264973081041
 21
60.99999979769936
 31
0.0
  0
LINE
  5
4111
  8
0
 10
228.13901877500001
 20
173.5191940963
 30
0.0
 11
228.15963779110001
 21
168.53255403039989
 31
0.0
  0
LINE
  5
4112
  8
0
 10
321.83791853494989
 20
168.5191988647
 30
0.0
 11
321.86083535665
 21
173.5191940963
 31
0.0
  0
LINE
  5
415F
  8
0
 10
44.825339410510303
 20
173.51921644802789
 30
0.0
 11
44.83341258020004
 21
168.51570081709991
 31
0.0
  0
LINE
  5
41AE
  8
3
 10
51.620999999998418
 20
144.80000083149989
 30
0.0
 11
51.620999999998418
 21
147.60000069439999
 31
0.0
  0
LINE
  5
41AF
  8
3
 10
48.379000000001128
 20
144.80000083149989
 30
0.0
 11
48.379000000001128
 21
147.60000069439999
 31
0.0
  0
LINE
  5
41B0
  8
3
 10
51.620999999998418
 20
162.39999976749991
 30
0.0
 11
51.620999999998467
 21
164.4790019837672
 31
0.0
  0
LINE
  5
41B1
  8
3
 10
48.37900000000112
 20
162.39999976749991
 30
0.0
 11
48.379000000001128
 21
164.47900198371261
 31
0.0
  0
LINE
  5
41B2
  8
3
 10
119.6210001191984
 20
144.8000008315
 30
0.0
 11
119.6210001191984
 21
147.60000036659989
 31
0.0
  0
LINE
  5
41B3
  8
3
 10
116.37900011920119
 20
144.8000008315
 30
0.0
 11
116.37900011920119
 21
147.60000036659989
 31
0.0
  0
LINE
  5
41B4
  8
3
 10
119.62100011914831
 20
162.39999976749999
 30
0.0
 11
119.62100011914841
 21
164.4790019837672
 31
0.0
  0
LINE
  5
41B5
  8
3
 10
116.3790001191511
 20
162.39999976749991
 30
0.0
 11
116.379000119151
 21
164.47900198371261
 31
0.0
  0
ARC
  5
420E
  8
1
 10
139.99999944419341
 20
233.01919990504439
 30
0.0
 40
13.499999999999989
 50
60.165902085964341
 51
119.8340979140356
  0
ARC
  5
420F
  8
1
 10
139.99999944419341
 20
233.01919990504439
 30
0.0
 40
13.499999999999989
 50
240.16590208596429
 51
299.83409791403568
  0
LINE
  5
4210
  8
1
 10
139.99999944419341
 20
212.0192001073444
 30
0.0
 11
139.99999944419341
 21
254.01920010734429
 31
0.0
  0
LINE
  5
4211
  8
1
 10
123.9999994441938
 20
229.3692000343444
 30
0.0
 11
123.9999994441938
 21
236.66920018034429
 31
0.0
  0
LINE
  5
4212
  8
1
 10
110.99999999995001
 20
233.01919990504371
 30
0.0
 11
151.9999994441938
 21
233.01919990504371
 31
0.0
  0
LINE
  5
4213
  8
1
 10
117.9999994441939
 20
228.01919999934441
 30
0.0
 11
117.9999994441939
 21
238.01920021544441
 31
0.0
  0
LINE
  5
4214
  8
1
 10
139.99999944419341
 20
61.999999797700021
 30
0.0
 11
170.40519367473121
 21
31.594806485359442
 31
0.0
  0
LINE
  5
4215
  8
1
 10
140.0
 20
117.0
 30
0.0
 11
140.0
 21
178.01920010734429
 31
0.0
  0
LINE
  5
4217
  8
1
 10
230.0
 20
117.0
 30
0.0
 11
230.0
 21
178.01920010734429
 31
0.0
  0
LINE
  5
4218
  8
1
 10
320.0
 20
117.0
 30
0.0
 11
320.0
 21
178.01920010734429
 31
0.0
  0
LINE
  5
4219
  8
1
 10
118.0000001191499
 20
166.3000022471
 30
0.0
 11
118.0000001191499
 21
140.5
 31
0.0
  0
LINE
  5
421A
  8
1
 10
63.50000001704597
 20
118.5
 30
0.0
 11
63.50000001704597
 21
127.50000004623421
 31
0.0
  0
LINE
  5
421B
  8
1
 10
36.500000000000057
 20
118.5
 30
0.0
 11
36.5
 21
127.5000000059657
 31
0.0
  0
ARC
  5
421C
  8
1
 10
140.0
 20
62.0
 30
0.0
 40
13.499999999999989
 50
240.16590208596429
 51
299.83409791403568
  0
ARC
  5
421D
  8
1
 10
140.0
 20
62.0
 30
0.0
 40
13.499999999999989
 50
60.165902085964341
 51
119.8340979140356
  0
LINE
  5
421E
  8
1
 10
243.50000001704601
 20
118.5
 30
0.0
 11
243.50000001704601
 21
127.50000004623421
 31
0.0
  0
LINE
  5
421F
  8
1
 10
216.5
 20
118.5
 30
0.0
 11
216.5
 21
127.5000000059657
 31
0.0
  0
ARC
  5
4221
  8
1
 10
140.0
 20
62.000000000000682
 30
0.0
 40
13.499999999999989
 50
60.165902085964333
 51
119.8340979140356
  0
LINE
  5
4222
  8
1
 10
140.0
 20
41.000000202300669
 30
0.0
 11
140.0
 21
83.000000202300626
 31
0.0
  0
LINE
  5
4223
  8
1
 10
124.0000000000003
 20
58.35000012930066
 30
0.0
 11
124.0000000000003
 21
65.650000275300613
 31
0.0
  0
LINE
  5
4224
  8
1
 10
111.0000005557565
 20
62.0
 30
0.0
 11
152.00000000000031
 21
62.0
 31
0.0
  0
LINE
  5
4225
  8
1
 10
118.0000000000004
 20
57.000000094300667
 30
0.0
 11
118.0000000000004
 21
67.000000310400651
 31
0.0
  0
LINE
  5
4226
  8
1
 10
139.99999944419341
 20
233.019199905043
 30
0.0
 11
170.40519367473121
 21
263.42439321738362
 31
0.0
  0
LINE
  5
42C8
  8
0
 10
52.326687332300033
 20
173.0051040351
 30
0.0
 11
52.132796682500043
 21
173.42630770799991
 31
0.0
  0
LINE
  5
42C9
  8
0
 10
137.8672033176
 20
173.42630770799991
 30
0.0
 11
137.67331266779999
 21
173.0051040351
 31
0.0
  0
LINE
  5
4366
  8
0
 10
233.39807616549999
 20
155.00000116230001
 30
0.0
 11
230.79999997979999
 21
156.50000047680001
 31
0.0
  0
LINE
  5
4367
  8
0
 10
230.79999997979999
 20
153.50000184769999
 30
0.0
 11
233.39807616549999
 21
155.00000116230001
 31
0.0
  0
LINE
  5
444E
  8
0
 10
163.47594499589999
 20
37.392684340399988
 30
0.0
 11
164.60731565949999
 21
38.524055004099999
 31
0.0
  0
LINE
  5
444F
  8
0
 10
148.65156789368859
 20
50.520005447406128
 30
0.0
 11
161.7788890004
 21
37.392684340399988
 31
0.0
  0
LINE
  5
4450
  8
0
 10
164.60731565949999
 20
40.221110999499999
 30
0.0
 11
148.99999961259999
 21
55.828427046750122
 31
0.0
  0
LINE
  5
4534
  8
0
 10
344.00000020865002
 20
144.8000008315
 30
0.0
 11
344.00000020865002
 21
147.60000069439999
 31
0.0
  0
LINE
  5
4535
  8
0
 10
344.00000020859989
 20
162.39999976749999
 30
0.0
 11
344.00000020859989
 21
164.10000157350001
 31
0.0
  0
LINE
  5
4536
  8
0
 10
339.9999995529999
 20
164.10000157350001
 30
0.0
 11
339.9999995529999
 21
162.39999976749991
 31
0.0
  0
LINE
  5
4537
  8
0
 10
339.99999955304997
 20
147.60000069439999
 30
0.0
 11
339.99999955304997
 21
144.8000008315
 31
0.0
  0
LINE
  5
4538
  8
0
 10
344.00000020859989
 20
164.10000157350001
 30
0.0
 11
343.29999953509991
 21
164.8000022471
 31
0.0
  0
LINE
  5
4539
  8
0
 10
340.70000022649992
 20
164.8000022471
 30
0.0
 11
339.9999995529999
 21
164.10000157350001
 31
0.0
  0
LINE
  5
453A
  8
0
 10
344.02072586119988
 20
142.0
 30
0.0
 11
344.02072586119988
 21
144.8000008315
 31
0.0
  0
LINE
  5
453B
  8
0
 10
339.9792739003999
 20
142.0
 30
0.0
 11
339.9792739003999
 21
144.8000008315
 31
0.0
  0
LINE
  5
453C
  8
0
 10
337.95854791999989
 20
142.0
 30
0.0
 11
337.95854791999989
 21
144.8000008315
 31
0.0
  0
LINE
  5
453D
  8
0
 10
346.04145184159978
 20
142.0
 30
0.0
 11
346.04145184159978
 21
144.8000008315
 31
0.0
  0
LINE
  5
453E
  8
0
 10
346.04145184159978
 20
144.8000008315
 30
0.0
 11
337.95854792
 21
144.8000008315
 31
0.0
  0
LINE
  5
453F
  8
0
 10
346.04145184159978
 20
142.0
 30
0.0
 11
337.95854792
 21
142.0
 31
0.0
  0
LINE
  5
4540
  8
0
 10
344.00000020859989
 20
164.10000157350001
 30
0.0
 11
339.9999995529999
 21
164.10000157350001
 31
0.0
  0
LINE
  5
4541
  8
0
 10
340.70000022649992
 20
164.8000022471
 30
0.0
 11
343.29999953509991
 21
164.8000022471
 31
0.0
  0
LINE
  5
4542
  8
3
 10
343.6209998808485
 20
144.8000008315
 30
0.0
 11
343.6209998808485
 21
147.60000036659989
 31
0.0
  0
LINE
  5
4543
  8
3
 10
340.37899988085121
 20
144.8000008315
 30
0.0
 11
340.37899988085121
 21
147.60000036659989
 31
0.0
  0
LINE
  5
4544
  8
3
 10
343.62099988079831
 20
162.39999976749999
 30
0.0
 11
343.62099988079842
 21
164.4790019837672
 31
0.0
  0
LINE
  5
4545
  8
3
 10
340.37899988080108
 20
162.39999976749991
 30
0.0
 11
340.37899988080108
 21
164.47900198371261
 31
0.0
  0
LINE
  5
4546
  8
1
 10
341.99999988079992
 20
166.3000022471
 30
0.0
 11
341.99999988079992
 21
140.5
 31
0.0
  0
ENDSEC
  0
EOF
