  0
SECTION
  2
HEADER
  9
$ACADVER
  1
AC1009
  9
$INSBASE
 10
0.0
 20
0.0
 30
0.0
  9
$EXTMIN
 10
0.0
 20
-2.960436562073669
 30
0.0
  9
$EXTMAX
 10
476.01391929260888
 20
321.13627993254818
 30
0.0
  9
$LIMMIN
 10
0.0
 20
0.0
  9
$LIMMAX
 10
0.0
 20
0.0
  9
$ORTHOMODE
 70
     0
  9
$REGENMODE
 70
     1
  9
$FILLMODE
 70
     1
  9
$QTEXTMODE
 70
     0
  9
$MIRRTEXT
 70
     1
  9
$DRAGMODE
 70
     2
  9
$LTSCALE
 40
5.0
  9
$OSMODE
 70
  3071
  9
$ATTMODE
 70
     1
  9
$TEXTSIZE
 40
0.0
  9
$TRACEWID
 40
0.05
  9
$TEXTSTYLE
  7
STANDARD
  9
$CLAYER
  8
0
  9
$CELTYPE
  6
BYLAYER
  9
$CECOLOR
 62
   256
  9
$DIMSCALE
 40
1.0
  9
$DIMASZ
 40
0.0
  9
$DIMEXO
 40
0.0
  9
$DIMDLI
 40
0.38
  9
$DIMRND
 40
0.0
  9
$DIMDLE
 40
0.0
  9
$DIMEXE
 40
0.18
  9
$DIMTP
 40
0.0
  9
$DIMTM
 40
0.0
  9
$DIMTXT
 40
3.5
  9
$DIMCEN
 40
0.09
  9
$DIMTSZ
 40
0.0
  9
$DIMTOL
 70
     0
  9
$DIMLIM
 70
     0
  9
$DIMTIH
 70
     1
  9
$DIMTOH
 70
     1
  9
$DIMSE1
 70
     0
  9
$DIMSE2
 70
     0
  9
$DIMTAD
 70
     1
  9
$DIMZIN
 70
     0
  9
$DIMBLK
  1

  9
$DIMASO
 70
     1
  9
$DIMSHO
 70
     1
  9
$DIMPOST
  1

  9
$DIMAPOST
  1

  9
$DIMALT
 70
     0
  9
$DIMALTD
 70
     2
  9
$DIMALTF
 40
0.0394
  9
$DIMLFAC
 40
1.0
  9
$DIMTOFL
 70
     0
  9
$DIMTVP
 40
0.0
  9
$DIMTIX
 70
     0
  9
$DIMSOXD
 70
     0
  9
$DIMSAH
 70
     0
  9
$DIMBLK1
  1

  9
$DIMBLK2
  1

  9
$DIMSTYLE
  2
STANDARD
  9
$DIMCLRD
 70
     0
  9
$DIMCLRE
 70
     0
  9
$DIMCLRT
 70
     0
  9
$DIMTFAC
 40
1.0
  9
$DIMGAP
 40
0.0
  9
$LUNITS
 70
     2
  9
$LUPREC
 70
     2
  9
$SKETCHINC
 40
0.1
  9
$FILLETRAD
 40
0.0
  9
$AUNITS
 70
     0
  9
$AUPREC
 70
     2
  9
$MENU
  1
acad
  9
$ELEVATION
 40
0.0
  9
$PELEVATION
 40
0.0
  9
$THICKNESS
 40
0.0
  9
$LIMCHECK
 70
     0
  9
$BLIPMODE
 70
     0
  9
$CHAMFERA
 40
0.0
  9
$CHAMFERB
 40
0.0
  9
$SKPOLY
 70
     0
  9
$TDCREATE
 40
2444972.375
  9
$TDUPDATE
 40
2456598.4304132871
  9
$TDINDWG
 40
0.0160137963
  9
$TDUSRTIMER
 40
0.0160137963
  9
$USRTIMER
 70
     1
  9
$ANGBASE
 50
0.0
  9
$ANGDIR
 70
     0
  9
$PDMODE
 70
     0
  9
$PDSIZE
 40
-1.0
  9
$PLINEWID
 40
0.0
  9
$COORDS
 70
     1
  9
$SPLFRAME
 70
     0
  9
$SPLINETYPE
 70
     6
  9
$SPLINESEGS
 70
     8
  9
$ATTDIA
 70
     0
  9
$ATTREQ
 70
     1
  9
$HANDLING
 70
     1
  9
$HANDSEED
  5
6EC
  9
$SURFTAB1
 70
     6
  9
$SURFTAB2
 70
     6
  9
$SURFTYPE
 70
     6
  9
$SURFU
 70
     6
  9
$SURFV
 70
     6
  9
$UCSNAME
  2

  9
$UCSORG
 10
0.0
 20
0.0
 30
0.0
  9
$UCSXDIR
 10
1.0
 20
0.0
 30
0.0
  9
$UCSYDIR
 10
0.0
 20
1.0
 30
0.0
  9
$PUCSNAME
  2

  9
$PUCSORG
 10
0.0
 20
0.0
 30
0.0
  9
$PUCSXDIR
 10
1.0
 20
0.0
 30
0.0
  9
$PUCSYDIR
 10
0.0
 20
1.0
 30
0.0
  9
$USERI1
 70
     0
  9
$USERI2
 70
     0
  9
$USERI3
 70
     0
  9
$USERI4
 70
     0
  9
$USERI5
 70
     0
  9
$USERR1
 40
0.0
  9
$USERR2
 40
0.0
  9
$USERR3
 40
0.0
  9
$USERR4
 40
0.0
  9
$USERR5
 40
0.0
  9
$WORLDVIEW
 70
     1
  9
$SHADEDGE
 70
     3
  9
$SHADEDIF
 70
    70
  9
$TILEMODE
 70
     1
  9
$MAXACTVP
 70
    16
  9
$PLIMCHECK
 70
     0
  9
$PEXTMIN
 10
1.0000000000000000E+020
 20
1.0000000000000000E+020
 30
1.0000000000000000E+020
  9
$PEXTMAX
 10
-1.0000000000000000E+020
 20
-1.0000000000000000E+020
 30
-1.0000000000000000E+020
  9
$PLIMMIN
 10
0.0
 20
0.0
  9
$PLIMMAX
 10
12.0
 20
9.0
  9
$UNITMODE
 70
     0
  9
$VISRETAIN
 70
     0
  9
$PLINEGEN
 70
     1
  9
$PSLTSCALE
 70
     1
  0
ENDSEC
  0
SECTION
  2
TABLES
  0
TABLE
  2
VPORT
 70
     1
  0
VPORT
  2
*ACTIVE
 70
     0
 10
0.0
 20
0.0
 11
1.0
 21
1.0
 12
238.0069607546107
 22
177.92046448387529
 13
0.0
 23
0.0
 14
1.0
 24
1.0
 15
0.0
 25
0.0
 16
0.0
 26
0.0
 36
1.0
 17
0.0
 27
0.0
 37
0.0
 40
366.33345542784122
 41
2.304913294797688
 42
50.0
 43
0.0
 44
0.0
 50
0.0
 51
0.0
 71
     0
 72
  2000
 73
     1
 74
     1
 75
     0
 76
     0
 77
     0
 78
     0
  0
ENDTAB
  0
TABLE
  2
LTYPE
 70
     3
  0
LTYPE
  2
CONTINUOUS
 70
     0
  3
Solid line
 72
    65
 73
     0
 40
0.0
  0
LTYPE
  2
CENTER
 70
     0
  3
Center ____ _ ____ _ ____ _ ____ _ ____ _ ____
 72
    65
 73
     4
 40
2.0
 49
1.25
 49
-0.25
 49
0.25
 49
-0.25
  0
LTYPE
  2
PHANTOM2
 70
     0
  3
___ _ _ ___ _ _ ___ _ _ ___ _ _
 72
    65
 73
     6
 40
1.25
 49
0.625
 49
-0.125
 49
0.125
 49
-0.125
 49
0.125
 49
-0.125
  0
ENDTAB
  0
TABLE
  2
LAYER
 70
     4
  0
LAYER
  2
0
 70
     0
 62
     7
  6
CONTINUOUS
  0
LAYER
  2
DEFPOINTS
 70
     0
 62
     7
  6
CONTINUOUS
  0
LAYER
  2
1
 70
     0
 62
     1
  6
CENTER
  0
LAYER
  2
3
 70
     0
 62
     3
  6
CONTINUOUS
  0
ENDTAB
  0
TABLE
  2
STYLE
 70
     2
  0
STYLE
  2
STANDARD
 70
     0
 40
0.0
 41
1.0
 50
0.0
 71
     0
 42
0.0
  3
ＭＳ ゴシック
  4

  0
STYLE
  2
STANDARD1
 70
     0
 40
0.0
 41
1.0
 50
0.0
 71
     0
 42
3.0
  3
txt
  4

  0
ENDTAB
  0
TABLE
  2
VIEW
 70
     0
  0
ENDTAB
  0
TABLE
  2
UCS
 70
     0
  0
ENDTAB
  0
TABLE
  2
APPID
 70
     3
  0
APPID
  2
ACAD
 70
     0
  0
APPID
  2
ACAD_MLEADERVER
 70
     0
  0
APPID
  2
ACAD_NAV_VCDISPLAY
 70
     0
  0
ENDTAB
  0
TABLE
  2
DIMSTYLE
 70
     1
  0
DIMSTYLE
  2
STANDARD
 70
     0
  3

  4

  5

  6

  7

 40
1.0
 41
0.18
 42
0.0625
 43
0.38
 44
0.18
 45
0.0
 46
0.0
 47
0.0
 48
0.0
140
0.18
141
0.09
142
0.0
143
25.399999999999999
144
1.0
145
0.0
146
1.0
147
0.09
 71
     0
 72
     0
 73
     1
 74
     1
 75
     0
 76
     0
 77
     0
 78
     0
170
     0
171
     2
172
     0
173
     0
174
     0
175
     0
176
     0
177
     0
178
     0
  0
ENDTAB
  0
ENDSEC
  0
SECTION
  2
BLOCKS
  0
BLOCK
  8
0
  2
$MODEL_SPACE
 70
     0
 10
0.0
 20
0.0
 30
0.0
  3
$MODEL_SPACE
  1

  0
ENDBLK
  5
E
  8
0
  0
BLOCK
 67
     1
  8
0
  2
$PAPER_SPACE
 70
     0
 10
0.0
 20
0.0
 30
0.0
  3
$PAPER_SPACE
  1

  0
ENDBLK
  5
10
 67
     1
  8
0
  0
ENDSEC
  0
SECTION
  2
ENTITIES
  0
LINE
  5
2E6
  8
1
 10
134.54083450165771
 20
62.801160202360848
 30
0.0
 11
242.54083450165439
 21
62.801160202361018
 31
0.0
  0
LINE
  5
33C
  8
0
 10
237.54083450165621
 20
211.25947755013351
 30
0.0
 11
237.54083450165621
 21
215.42304672088051
 31
0.0
  0
LINE
  5
33D
  8
0
 10
186.0408345016578
 20
195.3237653976116
 30
0.0
 11
186.0408345016578
 21
198.3237653976116
 31
0.0
  0
LINE
  5
33E
  8
0
 10
163.0408345016578
 20
198.3237653976116
 30
0.0
 11
163.0408345016578
 21
195.3237653976116
 31
0.0
  0
LINE
  5
33F
  8
0
 10
186.0408345016578
 20
155.3237653976116
 30
0.0
 11
186.0408345016578
 21
195.3237653976116
 31
0.0
  0
LINE
  5
340
  8
0
 10
163.0408345016578
 20
181.3237653976116
 30
0.0
 11
163.0408345016578
 21
155.3237653976116
 31
0.0
  0
LINE
  5
341
  8
0
 10
139.54083450165771
 20
195.3237653976116
 30
0.0
 11
139.54083450165771
 21
181.3237653976116
 31
0.0
  0
LINE
  5
342
  8
0
 10
186.0408345016578
 20
149.3237653976116
 30
0.0
 11
186.0408345016578
 21
152.3237653976116
 31
0.0
  0
LINE
  5
343
  8
0
 10
163.0408345016578
 20
152.3237653976116
 30
0.0
 11
163.0408345016578
 21
149.3237653976116
 31
0.0
  0
LINE
  5
344
  8
0
 10
182.54083450165771
 20
152.3237653976116
 30
0.0
 11
182.54083450165771
 21
155.3237653976116
 31
0.0
  0
LINE
  5
345
  8
0
 10
166.5408345016578
 20
155.3237653976116
 30
0.0
 11
166.5408345016578
 21
152.3237653976116
 31
0.0
  0
LINE
  5
346
  8
0
 10
174.94907438508099
 20
210.3808920248716
 30
0.0
 11
173.80953734485831
 21
210.19437482112409
 31
0.0
  0
LINE
  5
347
  8
0
 10
174.13259461823449
 20
208.22063877035171
 30
0.0
 11
175.2721316584572
 21
208.4071559740992
 31
0.0
  0
LINE
  5
348
  8
0
 10
175.2721316584572
 20
208.4071559740992
 30
0.0
 11
175.6803715418805
 21
209.48728260135911
 31
0.0
  0
LINE
  5
349
  8
0
 10
173.80953734485831
 20
210.19437482112409
 30
0.0
 11
173.40129746143501
 21
209.1142481938642
 31
0.0
  0
LINE
  5
34A
  8
0
 10
175.6803715418805
 20
209.48728260135911
 30
0.0
 11
174.94907438508099
 21
210.3808920248716
 31
0.0
  0
CIRCLE
  5
34B
  8
0
 10
174.5408345016578
 20
209.30076539761171
 30
0.0
 40
2.0000000000000182
  0
LINE
  5
34C
  8
0
 10
173.40129746143501
 20
209.1142481938642
 30
0.0
 11
174.13259461823449
 21
208.22063877035171
 31
0.0
  0
CIRCLE
  5
34D
  8
0
 10
174.5408345016578
 20
209.30076539761171
 30
0.0
 40
6.0000000000000284
  0
ARC
  5
34E
  8
0
 10
199.54083450165851
 20
374.81212903397358
 30
0.0
 40
156.51136363636209
 50
272.56341955505661
 51
279.68130778359767
  0
POLYLINE
  5
34F
  8
0
 66
     1
 10
0.0
 20
0.0
 30
0.0
 70
   128
  0
VERTEX
  5
61C
  8
0
 10
225.86100525939531
 20
210.79610958727909
 30
0.0
  0
VERTEX
  5
61D
  8
0
 10
223.07661335893141
 20
211.53876248916509
 30
0.0
  0
VERTEX
  5
61E
  8
0
 10
220.10349153782499
 20
211.80076539761151
 30
0.0
  0
SEQEND
  5
61F
  8
0
  0
LINE
  5
350
  8
0
 10
220.10349153782499
 20
211.80076539761151
 30
0.0
 11
194.95839545289181
 21
211.8007653976116
 31
0.0
  0
ARC
  5
351
  8
0
 10
232.54083450165899
 20
213.55076539760151
 30
0.0
 40
5.4999999999923634
 50
236.44269023801229
 51
335.38002267140871
  0
ARC
  5
352
  8
0
 10
229.54083450165891
 20
212.5507653976133
 30
0.0
 40
8.4999999999983782
 50
19.749922795632379
 51
100.4749521336343
  0
ARC
  5
353
  8
0
 10
220.10349153783901
 20
194.80076539763959
 30
0.0
 40
16.99999999996885
 50
56.442690238066
 51
70.203692837033927
  0
POLYLINE
  5
354
  8
0
 66
     1
 10
0.0
 20
0.0
 30
0.0
 70
   128
  0
VERTEX
  5
620
  8
0
 10
225.8610052593952
 20
220.52974002408979
 30
0.0
  0
VERTEX
  5
621
  8
0
 10
226.9151797989899
 20
220.71329008034621
 30
0.0
  0
VERTEX
  5
622
  8
0
 10
227.9954863851369
 20
220.90910848693031
 30
0.0
  0
SEQEND
  5
623
  8
0
  0
ARC
  5
355
  8
0
 10
194.95839545289181
 20
201.80076539761171
 30
0.0
 40
9.999999999999801
 50
89.999999999995325
 51
158.1893927085693
  0
ARC
  5
356
  8
0
 10
175.1038693892414
 20
209.68015111456211
 30
0.0
 40
11.36095132877721
 50
299.82287912929189
 51
338.49899234457592
  0
POLYLINE
  5
357
  8
0
 66
     1
 10
0.0
 20
0.0
 30
0.0
 70
   128
  0
VERTEX
  5
624
  8
0
 10
169.72323691053029
 20
199.8237653976116
 30
0.0
  0
VERTEX
  5
625
  8
0
 10
168.64877611017269
 20
200.4823973362499
 30
0.0
  0
VERTEX
  5
626
  8
0
 10
167.1284108911745
 20
201.8883417871283
 30
0.0
  0
VERTEX
  5
627
  8
0
 10
165.92810322703801
 20
203.54573557734491
 30
0.0
  0
VERTEX
  5
628
  8
0
 10
165.08435006169731
 20
205.3837612902112
 30
0.0
  0
VERTEX
  5
629
  8
0
 10
164.62371538336319
 20
207.32796942158049
 30
0.0
  0
VERTEX
  5
62A
  8
0
 10
164.5523345016579
 20
209.30076539761319
 30
0.0
  0
VERTEX
  5
62B
  8
0
 10
164.8660163816543
 20
211.2250480392039
 30
0.0
  0
VERTEX
  5
62C
  8
0
 10
165.54097752064061
 20
213.02862821856709
 30
0.0
  0
VERTEX
  5
62D
  8
0
 10
166.544323381157
 20
214.64367653778791
 30
0.0
  0
VERTEX
  5
62E
  8
0
 10
167.8273859443774
 20
216.01421395489189
 30
0.0
  0
VERTEX
  5
62F
  8
0
 10
169.33495193269971
 20
217.09163973137069
 30
0.0
  0
VERTEX
  5
630
  8
0
 10
171.00211296714869
 20
217.84399491968509
 30
0.0
  0
VERTEX
  5
631
  8
0
 10
172.76087339640239
 20
218.248438154588
 30
0.0
  0
VERTEX
  5
632
  8
0
 10
174.54083450165771
 20
218.3007653976116
 30
0.0
  0
SEQEND
  5
633
  8
0
  0
LINE
  5
358
  8
0
 10
174.54083450165771
 20
218.3007653976116
 30
0.0
 11
199.5408345016578
 21
218.30076539761151
 31
0.0
  0
ARC
  5
359
  8
0
 10
199.54083450165831
 20
374.81212903397449
 30
0.0
 40
156.511363636363
 50
270.00000000000063
 51
272.56341955505661
  0
LINE
  5
35A
  8
0
 10
176.5408345016578
 20
193.8237653976116
 30
0.0
 11
176.5408345016578
 21
195.3237653976116
 31
0.0
  0
LINE
  5
35B
  8
0
 10
176.5408345016578
 20
193.8237653976116
 30
0.0
 11
172.54083450165771
 21
193.8237653976116
 31
0.0
  0
LINE
  5
35C
  8
0
 10
172.54083450165771
 20
193.8237653976116
 30
0.0
 11
172.54083450165771
 21
195.3237653976116
 31
0.0
  0
LINE
  5
35D
  8
0
 10
186.0408345016578
 20
195.3237653976116
 30
0.0
 11
176.5408345016578
 21
195.3237653976116
 31
0.0
  0
LINE
  5
35E
  8
0
 10
165.4166907062104
 20
199.8237653976116
 30
0.0
 11
165.4166907062104
 21
198.3237653976116
 31
0.0
  0
LINE
  5
35F
  8
0
 10
183.66497829710511
 20
199.8237653976116
 30
0.0
 11
183.66497829710511
 21
198.3237653976116
 31
0.0
  0
LINE
  5
360
  8
0
 10
186.0408345016578
 20
198.3237653976116
 30
0.0
 11
183.66497829710511
 21
198.3237653976116
 31
0.0
  0
LINE
  5
361
  8
0
 10
165.4166907062104
 20
198.3237653976116
 30
0.0
 11
163.0408345016578
 21
198.3237653976116
 31
0.0
  0
LINE
  5
362
  8
0
 10
165.4166907062104
 20
199.8237653976116
 30
0.0
 11
183.66497829710511
 21
199.8237653976116
 31
0.0
  0
LINE
  5
363
  8
0
 10
163.0408345016578
 20
155.3237653976116
 30
0.0
 11
186.0408345016578
 21
155.3237653976116
 31
0.0
  0
LINE
  5
364
  8
0
 10
172.44083450165769
 20
193.3237653976116
 30
0.0
 11
172.44083450165769
 21
195.3237653976116
 31
0.0
  0
LINE
  5
365
  8
0
 10
176.64083450165771
 20
195.3237653976116
 30
0.0
 11
176.64083450165771
 21
193.3237653976116
 31
0.0
  0
LINE
  5
366
  8
0
 10
176.64083450165771
 20
195.3237653976116
 30
0.0
 11
186.0408345016578
 21
195.3237653976116
 31
0.0
  0
LINE
  5
367
  8
0
 10
172.44083450165769
 20
193.3237653976116
 30
0.0
 11
176.64083450165771
 21
193.3237653976116
 31
0.0
  0
LINE
  5
368
  8
0
 10
139.54083450165771
 20
195.3237653976116
 30
0.0
 11
172.54083450165771
 21
195.3237653976116
 31
0.0
  0
LINE
  5
369
  8
0
 10
163.0408345016578
 20
149.3237653976116
 30
0.0
 11
163.0408345016578
 21
141.3237653976116
 31
0.0
  0
LINE
  5
36A
  8
0
 10
186.0408345016578
 20
149.3237653976116
 30
0.0
 11
186.0408345016578
 21
141.3237653976116
 31
0.0
  0
LINE
  5
36B
  8
0
 10
163.0408345016578
 20
149.3237653976116
 30
0.0
 11
186.0408345016578
 21
149.3237653976116
 31
0.0
  0
LINE
  5
36C
  8
0
 10
163.0408345016578
 20
141.3237653976116
 30
0.0
 11
186.0408345016578
 21
141.3237653976116
 31
0.0
  0
LINE
  5
36D
  8
0
 10
186.0408345016578
 20
152.3237653976116
 30
0.0
 11
163.0408345016578
 21
152.3237653976116
 31
0.0
  0
LINE
  5
36E
  8
0
 10
180.5408345016335
 20
288.13627993254812
 30
0.0
 11
180.5408345016335
 21
289.13627993254812
 31
0.0
  0
LINE
  5
36F
  8
0
 10
180.5408345016335
 20
292.88627993254801
 30
0.0
 11
180.5408345016335
 21
299.38627993254801
 31
0.0
  0
LINE
  5
370
  8
0
 10
180.5408345016335
 20
303.13627993254812
 30
0.0
 11
180.5408345016335
 21
304.13627993254812
 31
0.0
  0
LINE
  5
371
  8
0
 10
168.54083450163341
 20
304.13627993254812
 30
0.0
 11
168.54083450163341
 21
303.13627993254818
 31
0.0
  0
LINE
  5
372
  8
0
 10
168.54083450163341
 20
299.38627993254801
 30
0.0
 11
168.54083450163341
 21
292.88627993254801
 31
0.0
  0
LINE
  5
373
  8
0
 10
168.54083450163341
 20
289.13627993254818
 30
0.0
 11
168.54083450163341
 21
288.13627993254812
 31
0.0
  0
LINE
  5
374
  8
0
 10
172.54083450163341
 20
288.13627993254812
 30
0.0
 11
172.54083450163341
 21
286.63627993254801
 31
0.0
  0
LINE
  5
375
  8
0
 10
176.54083450163341
 20
286.63627993254801
 30
0.0
 11
176.54083450163341
 21
288.13627993254812
 31
0.0
  0
LINE
  5
376
  8
0
 10
164.53276570627929
 20
303.13627993254812
 30
0.0
 11
164.53276570627929
 21
299.38627993254801
 31
0.0
  0
LINE
  5
377
  8
0
 10
164.53276570627929
 20
292.88627993254801
 30
0.0
 11
164.53276570627929
 21
289.13627993254812
 31
0.0
  0
LINE
  5
378
  8
0
 10
144.54083450163341
 20
291.51747777903108
 30
0.0
 11
148.54083450163341
 21
293.82687885578957
 31
0.0
  0
LINE
  5
379
  8
0
 10
140.54083450163341
 20
293.82687885578957
 30
0.0
 11
144.54083450163341
 21
291.51747777903108
 31
0.0
  0
LINE
  5
37A
  8
0
 10
140.5408345016335
 20
298.44568100930661
 30
0.0
 11
140.54083450163341
 21
293.82687885578957
 31
0.0
  0
LINE
  5
37B
  8
0
 10
144.54083450163341
 20
300.75508208606522
 30
0.0
 11
140.5408345016335
 21
298.44568100930661
 31
0.0
  0
LINE
  5
37C
  8
0
 10
148.54083450163341
 20
293.82687885578957
 30
0.0
 11
148.54083450163341
 21
298.44568100930661
 31
0.0
  0
CIRCLE
  5
37D
  8
0
 10
144.54083450163341
 20
296.13627993254812
 30
0.0
 40
2.100000000000021
  0
LINE
  5
37E
  8
0
 10
148.54083450163341
 20
298.44568100930661
 30
0.0
 11
144.54083450163341
 21
300.75508208606522
 31
0.0
  0
CIRCLE
  5
37F
  8
0
 10
144.54083450163341
 20
296.13627993254812
 30
0.0
 40
1.50000000000004
  0
LINE
  5
380
  8
0
 10
168.54083450163341
 20
288.13627993254812
 30
0.0
 11
180.5408345016335
 21
288.13627993254812
 31
0.0
  0
LINE
  5
381
  8
0
 10
168.54083450163341
 20
304.13627993254812
 30
0.0
 11
180.5408345016335
 21
304.13627993254812
 31
0.0
  0
LINE
  5
382
  8
0
 10
172.54083450163341
 20
286.63627993254801
 30
0.0
 11
176.54083450163341
 21
286.63627993254801
 31
0.0
  0
POLYLINE
  5
383
  8
0
 66
     1
 10
0.0
 20
0.0
 30
0.0
 70
   128
  0
VERTEX
  5
634
  8
0
 10
225.8610052593709
 20
286.88974844908978
 30
0.0
  0
VERTEX
  5
635
  8
0
 10
226.9151797989656
 20
286.703205063219
 30
0.0
  0
VERTEX
  5
636
  8
0
 10
227.9954863851126
 20
286.6363881674626
 30
0.0
  0
SEQEND
  5
637
  8
0
  0
ARC
  5
384
  8
0
 10
206.5408345016294
 20
204.9362799325358
 30
0.0
 40
84.200000000012324
 50
76.73497076972221
 51
89.999999999997144
  0
LINE
  5
385
  8
0
 10
164.53276570627929
 20
289.13627993254818
 30
0.0
 11
206.5408345016335
 21
289.13627993254818
 31
0.0
  0
LINE
  5
386
  8
0
 10
164.53276570627929
 20
303.13627993254818
 30
0.0
 11
206.5408345016335
 21
303.13627993254818
 31
0.0
  0
ARC
  5
387
  8
0
 10
206.5408345016323
 20
387.33627993258011
 30
0.0
 40
84.200000000031835
 50
270.00000000000171
 51
283.26502923027363
  0
POLYLINE
  5
388
  8
0
 66
     1
 10
0.0
 20
0.0
 30
0.0
 70
   128
  0
VERTEX
  5
638
  8
0
 10
225.8610052593709
 20
305.38281141600538
 30
0.0
  0
VERTEX
  5
639
  8
0
 10
226.9151797989656
 20
305.5693548018769
 30
0.0
  0
VERTEX
  5
63A
  8
0
 10
227.9954863851126
 20
305.63617169763262
 30
0.0
  0
SEQEND
  5
63B
  8
0
  0
ARC
  5
389
  8
0
 10
228.0408345016335
 20
296.13627993254761
 30
0.0
 40
9.5000000000000462
 50
269.72649836284302
 51
90.273501637157807
  0
LINE
  5
38A
  8
0
 10
184.5408345016335
 20
299.38627993254801
 30
0.0
 11
164.5523345016336
 21
299.38627993254801
 31
0.0
  0
LINE
  5
38B
  8
0
 10
184.5408345016335
 20
292.88627993254801
 30
0.0
 11
164.5523345016336
 21
292.88627993254801
 31
0.0
  0
LINE
  5
38C
  8
0
 10
184.54083450163341
 20
299.38627993254801
 30
0.0
 11
184.54083450163341
 21
292.88627993254801
 31
0.0
  0
ARC
  5
38D
  8
0
 10
174.54083450163341
 20
296.13627993254812
 30
0.0
 40
11.500000000000011
 50
37.495249764559631
 51
142.50475023544041
  0
ARC
  5
38E
  8
0
 10
174.54083450163341
 20
296.13627993254812
 30
0.0
 40
11.500000000000011
 50
217.4952497645599
 51
322.50475023544323
  0
ARC
  5
38F
  8
0
 10
174.54083450163341
 20
296.13627993254812
 30
0.0
 40
11.5
 50
150.4896642138562
 51
209.51033578614391
  0
LINE
  5
390
  8
0
 10
147.95089986157589
 20
293.48627993254809
 30
0.0
 11
152.54083450163341
 21
293.48627993254809
 31
0.0
  0
ARC
  5
391
  8
0
 10
152.54083450163341
 20
296.13627993254812
 30
0.0
 40
2.6500000000000048
 50
270.0000000000008
 51
90.0
  0
LINE
  5
392
  8
0
 10
152.54083450163341
 20
298.78627993254798
 30
0.0
 11
147.95089986157589
 21
298.78627993254798
 31
0.0
  0
ARC
  5
393
  8
0
 10
161.41642975322671
 20
286.13627993254818
 30
0.0
 40
5.0000000000000053
 50
51.444883431490922
 51
90.0
  0
LINE
  5
394
  8
0
 10
144.54083450163341
 20
291.13627993254818
 30
0.0
 11
161.41642975322671
 21
291.13627993254818
 31
0.0
  0
ARC
  5
395
  8
0
 10
144.54083450163341
 20
296.13627993254812
 30
0.0
 40
5.0
 50
90.0
 51
270.0000000000008
  0
LINE
  5
396
  8
0
 10
161.41642975322671
 20
301.13627993254812
 30
0.0
 11
144.54083450163341
 21
301.13627993254812
 31
0.0
  0
ARC
  5
397
  8
0
 10
161.41642975322671
 20
306.13627993254812
 30
0.0
 40
5.0000000000000053
 50
270.0000000000008
 51
308.55511656850962
  0
ARC
  5
398
  8
0
 10
174.54083450163341
 20
296.13627993254829
 30
0.0
 40
14.350000000000019
 50
79.999999999999986
 51
100.0
  0
ARC
  5
399
  8
0
 10
177.49285352197131
 20
312.87801173375578
 30
0.0
 40
2.650000000000019
 50
260.0000000000004
 51
80.000000000000185
  0
ARC
  5
39A
  8
0
 10
174.54083450163341
 20
296.13627993254829
 30
0.0
 40
19.64999999999997
 50
79.999999999999986
 51
100.0
  0
ARC
  5
39B
  8
0
 10
171.5888154812956
 20
312.87801173375578
 30
0.0
 40
2.650000000000019
 50
99.999999999999815
 51
280.00000000000119
  0
LINE
  5
39C
  8
0
 10
163.04083450163341
 20
307.13627993254829
 30
0.0
 11
163.04083450163341
 21
301.40750533299757
 31
0.0
  0
LINE
  5
39D
  8
0
 10
186.04083450163341
 20
303.13627993254818
 30
0.0
 11
186.04083450163341
 21
307.13627993254829
 31
0.0
  0
ARC
  5
39E
  8
0
 10
174.54083450163341
 20
307.13627993254829
 30
0.0
 40
11.5
 50
0.0
 51
180.0
  0
ARC
  5
39F
  8
0
 10
171.5888154812956
 20
279.39454813134068
 30
0.0
 40
2.649999999999991
 50
79.999999999999588
 51
260.00000000000102
  0
ARC
  5
3A0
  8
0
 10
174.54083450163341
 20
296.13627993254829
 30
0.0
 40
19.649999999999999
 50
260.0000000000008
 51
280.0000000000008
  0
ARC
  5
3A1
  8
0
 10
177.49285352197131
 20
279.39454813134068
 30
0.0
 40
2.649999999999991
 50
280.00000000000063
 51
100.0000000000004
  0
ARC
  5
3A2
  8
0
 10
174.54083450163341
 20
296.13627993254829
 30
0.0
 40
14.350000000000019
 50
260.0000000000008
 51
280.0000000000008
  0
ARC
  5
3A3
  8
0
 10
174.54083450163341
 20
285.13627993254818
 30
0.0
 40
11.5
 50
180.0
 51
0.0
  0
LINE
  5
3A4
  8
0
 10
186.04083450163341
 20
285.13627993254818
 30
0.0
 11
186.04083450163341
 21
289.13627993254818
 31
0.0
  0
LINE
  5
3A5
  8
0
 10
163.04083450163341
 20
290.86505453209861
 30
0.0
 11
163.04083450163341
 21
285.13627993254818
 31
0.0
  0
LINE
  5
3A6
  8
0
 10
322.13488195615531
 20
198.3237653976116
 30
0.0
 11
322.13488195615531
 21
203.30076539761171
 31
0.0
  0
LINE
  5
3A7
  8
0
 10
316.13488195615531
 20
203.30076539761171
 30
0.0
 11
316.13488195615531
 21
198.3237653976116
 31
0.0
  0
LINE
  5
3A8
  8
0
 10
322.13488195615531
 20
203.30076539761171
 30
0.0
 11
322.38488195615531
 21
203.30076539761171
 31
0.0
  0
LINE
  5
3A9
  8
0
 10
326.13488195615543
 20
203.30076539761171
 30
0.0
 11
327.13488195615531
 21
203.30076539761171
 31
0.0
  0
LINE
  5
3AA
  8
0
 10
311.13488195615531
 20
203.30076539761171
 30
0.0
 11
312.13488195615548
 21
203.30076539761171
 31
0.0
  0
LINE
  5
3AB
  8
0
 10
315.88488195615531
 20
203.30076539761171
 30
0.0
 11
316.13488195615531
 21
203.30076539761171
 31
0.0
  0
LINE
  5
3AC
  8
0
 10
309.63488195615531
 20
207.30076539761171
 30
0.0
 11
311.13488195615531
 21
207.30076539761171
 31
0.0
  0
LINE
  5
3AD
  8
0
 10
328.43488195615521
 20
221.05076539761151
 30
0.0
 11
309.83488195615507
 21
221.05076539761151
 31
0.0
  0
LINE
  5
3AE
  8
0
 10
309.63488195615508
 20
220.8507653976115
 30
0.0
 11
309.63488195615531
 21
209.8296179341834
 31
0.0
  0
LINE
  5
3AF
  8
0
 10
328.63488195615508
 20
209.8296179341834
 30
0.0
 11
328.63488195615508
 21
220.8507653976115
 31
0.0
  0
LINE
  5
3B0
  8
0
 10
310.76938934474771
 20
208.05076539761151
 30
0.0
 11
327.50115008512392
 21
208.05076539761151
 31
0.0
  0
LINE
  5
3B1
  8
0
 10
330.63488195615531
 20
193.8237653976116
 30
0.0
 11
330.63488195615531
 21
199.8237653976116
 31
0.0
  0
LINE
  5
3B2
  8
0
 10
307.63488195615531
 20
199.8237653976116
 30
0.0
 11
307.63488195615531
 21
193.8237653976116
 31
0.0
  0
LINE
  5
3B3
  8
0
 10
330.63488195615531
 20
155.3237653976116
 30
0.0
 11
330.63488195615531
 21
193.3237653976116
 31
0.0
  0
LINE
  5
3B4
  8
0
 10
307.63488195615531
 20
193.3237653976116
 30
0.0
 11
307.63488195615531
 21
155.3237653976116
 31
0.0
  0
LINE
  5
3B5
  8
0
 10
341.63488195615543
 20
141.3237653976116
 30
0.0
 11
341.63488195615543
 21
149.3237653976116
 31
0.0
  0
LINE
  5
3B6
  8
0
 10
330.63488195615531
 20
149.3237653976116
 30
0.0
 11
330.63488195615531
 21
152.3237653976116
 31
0.0
  0
LINE
  5
3B7
  8
0
 10
307.63488195615531
 20
152.3237653976116
 30
0.0
 11
307.63488195615531
 21
149.3237653976116
 31
0.0
  0
LINE
  5
3B8
  8
0
 10
296.63488195615531
 20
149.3237653976116
 30
0.0
 11
296.63488195615531
 21
141.3237653976116
 31
0.0
  0
LINE
  5
3B9
  8
0
 10
327.13488195615531
 20
152.3237653976116
 30
0.0
 11
327.13488195615531
 21
155.3237653976116
 31
0.0
  0
LINE
  5
3BA
  8
0
 10
311.13488195615531
 20
155.3237653976116
 30
0.0
 11
311.13488195615531
 21
152.3237653976116
 31
0.0
  0
LINE
  5
3BB
  8
0
 10
322.13488195615531
 20
198.5237653976117
 30
0.0
 11
322.38488195615543
 21
198.5237653976117
 31
0.0
  0
LINE
  5
3BC
  8
0
 10
315.88488195615531
 20
198.5237653976117
 30
0.0
 11
316.13488195615531
 21
198.5237653976117
 31
0.0
  0
LINE
  5
3BD
  8
0
 10
311.13488195615531
 20
208.05076539761151
 30
0.0
 11
311.13488195615531
 21
203.30076539761171
 31
0.0
  0
LINE
  5
3BE
  8
0
 10
327.1348819561552
 20
208.05076539761151
 30
0.0
 11
327.13488195615531
 21
203.30076539761171
 31
0.0
  0
ARC
  5
3BF
  8
0
 10
319.15449733245441
 20
198.09681190200209
 30
0.0
 40
5.9960576447622556
 50
60.342774938938511
 51
115.8851600465518
  0
POLYLINE
  5
3C0
  8
0
 66
     1
 10
0.0
 20
0.0
 30
0.0
 70
   128
  0
VERTEX
  5
63C
  8
0
 10
316.17133068736177
 20
203.31887258619071
 30
0.0
  0
VERTEX
  5
63D
  8
0
 10
316.1543682880897
 20
203.3104847927045
 30
0.0
  0
VERTEX
  5
63E
  8
0
 10
316.38949154092188
 20
203.42393219153419
 30
0.0
  0
VERTEX
  5
63F
  8
0
 10
316.536805744802
 20
203.4912903783005
 30
0.0
  0
SEQEND
  5
640
  8
0
  0
LINE
  5
3C1
  8
0
 10
309.63488195615531
 20
209.8296179341834
 30
0.0
 11
309.63488195615531
 21
207.30076539761171
 31
0.0
  0
POLYLINE
  5
3C2
  8
0
 66
     1
 10
0.0
 20
0.0
 30
0.0
 70
   128
  0
VERTEX
  5
641
  8
0
 10
309.75512530420252
 20
221.03417443901711
 30
0.0
  0
VERTEX
  5
642
  8
0
 10
309.89481057348911
 20
221.0213070997961
 30
0.0
  0
VERTEX
  5
643
  8
0
 10
310.21526792493819
 20
220.86451346032069
 30
0.0
  0
VERTEX
  5
644
  8
0
 10
310.65963858321822
 20
220.57917718107311
 30
0.0
  0
VERTEX
  5
645
  8
0
 10
311.3739049945118
 20
220.0620342574002
 30
0.0
  0
VERTEX
  5
646
  8
0
 10
312.24146742194011
 20
219.3976487896486
 30
0.0
  0
VERTEX
  5
647
  8
0
 10
313.55130703422071
 20
218.380356490146
 30
0.0
  0
VERTEX
  5
648
  8
0
 10
315.05122797954363
 20
217.2580763029041
 30
0.0
  0
VERTEX
  5
649
  8
0
 10
315.91955023449981
 20
216.66249880530501
 30
0.0
  0
VERTEX
  5
64A
  8
0
 10
316.85224480144529
 20
216.10400371911081
 30
0.0
  0
VERTEX
  5
64B
  8
0
 10
317.52503628491593
 20
215.7802269649676
 30
0.0
  0
VERTEX
  5
64C
  8
0
 10
318.25128549209819
 20
215.53525861706069
 30
0.0
  0
VERTEX
  5
64D
  8
0
 10
319.13488195615508
 20
215.42304672088051
 30
0.0
  0
VERTEX
  5
64E
  8
0
 10
319.84891163617129
 20
215.49681759901381
 30
0.0
  0
VERTEX
  5
64F
  8
0
 10
320.56294131618739
 20
215.7075850701751
 30
0.0
  0
VERTEX
  5
650
  8
0
 10
321.61707583546769
 20
216.21426863288499
 30
0.0
  0
VERTEX
  5
651
  8
0
 10
322.61140011167299
 20
216.8355372925144
 30
0.0
  0
VERTEX
  5
652
  8
0
 10
324.26219948729153
 20
218.03091131071849
 30
0.0
  0
VERTEX
  5
653
  8
0
 10
325.78211721944899
 20
219.2063596089921
 30
0.0
  0
VERTEX
  5
654
  8
0
 10
326.65549671194259
 20
219.88034000619609
 30
0.0
  0
VERTEX
  5
655
  8
0
 10
327.42704395212678
 20
220.45121848248601
 30
0.0
  0
VERTEX
  5
656
  8
0
 10
327.92542235062399
 20
220.7866886258841
 30
0.0
  0
VERTEX
  5
657
  8
0
 10
328.31180333545041
 20
220.9967831629468
 30
0.0
  0
VERTEX
  5
658
  8
0
 10
328.5074476894182
 20
221.03713657123009
 30
0.0
  0
SEQEND
  5
659
  8
0
  0
POLYLINE
  5
3C3
  8
0
 66
     1
 10
0.0
 20
0.0
 30
0.0
 70
   128
  0
VERTEX
  5
65A
  8
0
 10
309.74770458673908
 20
208.96743206427811
 30
0.0
  0
VERTEX
  5
65B
  8
0
 10
309.63515843459419
 20
209.79552359090829
 30
0.0
  0
VERTEX
  5
65C
  8
0
 10
309.6403296184921
 20
209.8296179341834
 30
0.0
  0
SEQEND
  5
65D
  8
0
  0
POLYLINE
  5
3C4
  8
0
 66
     1
 10
0.0
 20
0.0
 30
0.0
 70
   128
  0
VERTEX
  5
65E
  8
0
 10
328.52205932557121
 20
208.96743206427811
 30
0.0
  0
VERTEX
  5
65F
  8
0
 10
328.63460547771609
 20
209.79552359090809
 30
0.0
  0
VERTEX
  5
660
  8
0
 10
328.62943429381812
 20
209.8296179341834
 30
0.0
  0
SEQEND
  5
661
  8
0
  0
POLYLINE
  5
3C5
  8
0
 66
     1
 10
0.0
 20
0.0
 30
0.0
 70
   128
  0
VERTEX
  5
662
  8
0
 10
328.52205932557121
 20
208.96743206427811
 30
0.0
  0
VERTEX
  5
663
  8
0
 10
328.38118489257232
 20
208.56365157225059
 30
0.0
  0
VERTEX
  5
664
  8
0
 10
328.16112724421629
 20
208.2700128079189
 30
0.0
  0
VERTEX
  5
665
  8
0
 10
327.8713360122689
 20
208.1047149884653
 30
0.0
  0
VERTEX
  5
666
  8
0
 10
327.49844822234923
 20
208.0507682856969
 30
0.0
  0
VERTEX
  5
667
  8
0
 10
327.04924910841157
 20
208.1028028702751
 30
0.0
  0
VERTEX
  5
668
  8
0
 10
326.52848368046051
 20
208.249545454052
 30
0.0
  0
VERTEX
  5
669
  8
0
 10
325.63581185007217
 20
208.61537628302631
 30
0.0
  0
VERTEX
  5
66A
  8
0
 10
324.62267421129383
 20
209.117093484555
 30
0.0
  0
VERTEX
  5
66B
  8
0
 10
323.14674348361763
 20
209.89741304231961
 30
0.0
  0
VERTEX
  5
66C
  8
0
 10
321.49361902521258
 20
210.69834304645971
 30
0.0
  0
VERTEX
  5
66D
  8
0
 10
320.67095888575398
 20
211.00430573496649
 30
0.0
  0
VERTEX
  5
66E
  8
0
 10
319.7884130901146
 20
211.21098953287139
 30
0.0
  0
VERTEX
  5
66F
  8
0
 10
319.13488195615508
 20
211.25947755013351
 30
0.0
  0
VERTEX
  5
670
  8
0
 10
318.19362721825649
 20
211.16010440796819
 30
0.0
  0
VERTEX
  5
671
  8
0
 10
317.25237248035779
 20
210.88648889655599
 30
0.0
  0
VERTEX
  5
672
  8
0
 10
315.83158412352537
 20
210.2603881508642
 30
0.0
  0
VERTEX
  5
673
  8
0
 10
314.48290110340719
 20
209.5584651754653
 30
0.0
  0
VERTEX
  5
674
  8
0
 10
313.1503050776688
 20
208.86385454661851
 30
0.0
  0
VERTEX
  5
675
  8
0
 10
311.91202690233229
 20
208.31072758889471
 30
0.0
  0
VERTEX
  5
676
  8
0
 10
311.31186932625133
 20
208.12322741364369
 30
0.0
  0
VERTEX
  5
677
  8
0
 10
310.77704685931508
 20
208.05078942900761
 30
0.0
  0
VERTEX
  5
678
  8
0
 10
310.34794055630431
 20
208.1230805631626
 30
0.0
  0
VERTEX
  5
679
  8
0
 10
310.01322562424951
 20
208.369699364246
 30
0.0
  0
VERTEX
  5
67A
  8
0
 10
309.74770458673908
 20
208.96743206427811
 30
0.0
  0
SEQEND
  5
67B
  8
0
  0
LINE
  5
3C6
  8
0
 10
322.38488195615531
 20
208.05076539761151
 30
0.0
 11
322.38488195615503
 21
198.3237653976116
 31
0.0
  0
LINE
  5
3C7
  8
0
 10
326.13488195615531
 20
208.05076539761151
 30
0.0
 11
326.13488195615548
 21
205.51616261532999
 31
0.0
  0
LINE
  5
3C8
  8
0
 10
315.88488195615491
 20
198.3237653976116
 30
0.0
 11
315.88488195615531
 21
208.05076539761151
 31
0.0
  0
LINE
  5
3C9
  8
0
 10
312.13488195615531
 20
208.05076539761151
 30
0.0
 11
312.13488195615548
 21
205.51616261532999
 31
0.0
  0
LINE
  5
3CA
  8
0
 10
326.13488195615548
 20
205.51616261532999
 30
0.0
 11
326.13488195615531
 21
199.89174936314851
 31
0.0
  0
LINE
  5
3CB
  8
0
 10
312.13488195615548
 20
205.51616261532999
 30
0.0
 11
312.13488195615531
 21
199.89174936314851
 31
0.0
  0
LINE
  5
3CC
  8
0
 10
307.8101303032492
 20
193.8237653976116
 30
0.0
 11
307.8101303032492
 21
195.3237653976116
 31
0.0
  0
LINE
  5
3CD
  8
0
 10
307.8101303032492
 20
193.8237653976116
 30
0.0
 11
307.63488195615531
 21
193.8237653976116
 31
0.0
  0
LINE
  5
3CE
  8
0
 10
330.63488195615531
 20
193.8237653976116
 30
0.0
 11
330.45963360906143
 21
193.8237653976116
 31
0.0
  0
LINE
  5
3CF
  8
0
 10
330.45963360906143
 20
193.8237653976116
 30
0.0
 11
330.45963360906143
 21
195.3237653976116
 31
0.0
  0
LINE
  5
3D0
  8
0
 10
330.45963360906143
 20
195.3237653976116
 30
0.0
 11
307.8101303032492
 21
195.3237653976116
 31
0.0
  0
LINE
  5
3D1
  8
0
 10
307.63488195615531
 20
199.8237653976116
 30
0.0
 11
312.13488195615531
 21
199.8237653976116
 31
0.0
  0
LINE
  5
3D2
  8
0
 10
312.13488195615531
 20
199.8237653976116
 30
0.0
 11
312.13488195615531
 21
198.3237653976116
 31
0.0
  0
LINE
  5
3D3
  8
0
 10
326.13488195615531
 20
198.3237653976116
 30
0.0
 11
312.13488195615531
 21
198.3237653976116
 31
0.0
  0
LINE
  5
3D4
  8
0
 10
326.13488195615531
 20
199.8237653976116
 30
0.0
 11
326.13488195615531
 21
198.3237653976116
 31
0.0
  0
LINE
  5
3D5
  8
0
 10
326.13488195615531
 20
199.8237653976116
 30
0.0
 11
330.63488195615531
 21
199.8237653976116
 31
0.0
  0
LINE
  5
3D6
  8
0
 10
330.45963360906143
 20
193.8237653976116
 30
0.0
 11
330.44151717623743
 21
193.8237653976116
 31
0.0
  0
LINE
  5
3D7
  8
0
 10
307.8282467360732
 20
193.8237653976116
 30
0.0
 11
307.8101303032492
 21
193.8237653976116
 31
0.0
  0
LINE
  5
3D8
  8
0
 10
307.63488195615531
 20
193.3237653976116
 30
0.0
 11
307.8282467360732
 21
193.3237653976116
 31
0.0
  0
LINE
  5
3D9
  8
0
 10
307.8282467360732
 20
195.3237653976116
 30
0.0
 11
307.8282467360732
 21
193.3237653976116
 31
0.0
  0
LINE
  5
3DA
  8
0
 10
330.44151717623743
 20
193.3237653976116
 30
0.0
 11
330.44151717623743
 21
195.3237653976116
 31
0.0
  0
LINE
  5
3DB
  8
0
 10
330.44151717623743
 20
193.3237653976116
 30
0.0
 11
330.63488195615531
 21
193.3237653976116
 31
0.0
  0
LINE
  5
3DC
  8
0
 10
307.8282467360732
 20
195.3237653976116
 30
0.0
 11
330.44151717623743
 21
195.3237653976116
 31
0.0
  0
LINE
  5
3DD
  8
0
 10
307.63488195615531
 20
155.3237653976116
 30
0.0
 11
330.63488195615531
 21
155.3237653976116
 31
0.0
  0
LINE
  5
3DE
  8
0
 10
296.63488195615531
 20
141.3237653976116
 30
0.0
 11
341.63488195615543
 21
141.3237653976116
 31
0.0
  0
LINE
  5
3DF
  8
0
 10
330.63488195615531
 20
152.3237653976116
 30
0.0
 11
307.63488195615531
 21
152.3237653976116
 31
0.0
  0
LINE
  5
3E0
  8
0
 10
69.9836121416526
 20
198.5237653976117
 30
0.0
 11
69.9836121416526
 21
203.30076539761171
 31
0.0
  0
LINE
  5
3E1
  8
0
 10
63.9836121416526
 20
203.30076539761171
 30
0.0
 11
63.9836121416526
 21
198.5237653976117
 31
0.0
  0
LINE
  5
3E2
  8
0
 10
64.483612141652586
 20
215.30076539761171
 30
0.0
 11
63.7336121416526
 21
215.30076539761171
 31
0.0
  0
LINE
  5
3E3
  8
0
 10
59.983612141652543
 20
215.30076539761171
 30
0.0
 11
58.9836121416526
 21
215.30076539761171
 31
0.0
  0
LINE
  5
3E4
  8
0
 10
74.9836121416526
 20
215.30076539761171
 30
0.0
 11
73.983612141652543
 21
215.30076539761171
 31
0.0
  0
LINE
  5
3E5
  8
0
 10
70.2336121416526
 20
215.30076539761171
 30
0.0
 11
69.450764495936824
 21
215.30076539761171
 31
0.0
  0
LINE
  5
3E6
  8
0
 10
69.9836121416526
 20
203.30076539761171
 30
0.0
 11
70.2336121416526
 21
203.30076539761171
 31
0.0
  0
LINE
  5
3E7
  8
0
 10
73.983612141652429
 20
203.30076539761171
 30
0.0
 11
74.9836121416526
 21
203.30076539761171
 31
0.0
  0
LINE
  5
3E8
  8
0
 10
58.9836121416526
 20
203.30076539761171
 30
0.0
 11
59.983612141652422
 21
203.30076539761171
 31
0.0
  0
LINE
  5
3E9
  8
0
 10
63.7336121416526
 20
203.30076539761171
 30
0.0
 11
63.9836121416526
 21
203.30076539761171
 31
0.0
  0
LINE
  5
3EA
  8
0
 10
74.9836121416526
 20
207.30076539761171
 30
0.0
 11
76.4836121416526
 21
207.30076539761171
 31
0.0
  0
LINE
  5
3EB
  8
0
 10
76.4836121416526
 20
211.30076539761171
 30
0.0
 11
74.9836121416526
 21
211.30076539761171
 31
0.0
  0
LINE
  5
3EC
  8
0
 10
73.983612141652429
 20
218.3224727884986
 30
0.0
 11
59.983612141652422
 21
218.3224727884986
 31
0.0
  0
LINE
  5
3ED
  8
0
 10
57.4836121416526
 20
220.8507653976115
 30
0.0
 11
57.4836121416526
 21
209.8296179341834
 31
0.0
  0
LINE
  5
3EE
  8
0
 10
76.4836121416526
 20
207.30076539761171
 30
0.0
 11
76.4836121416526
 21
220.8507653976115
 31
0.0
  0
LINE
  5
3EF
  8
0
 10
76.283612141652611
 20
221.05076539761151
 30
0.0
 11
57.683612141652588
 21
221.05076539761151
 31
0.0
  0
LINE
  5
3F0
  8
0
 10
58.617344012683823
 20
208.05076539761151
 30
0.0
 11
58.9836121416526
 21
208.05076539761151
 31
0.0
  0
LINE
  5
3F1
  8
0
 10
78.4836121416526
 20
193.8237653976116
 30
0.0
 11
78.4836121416526
 21
199.8237653976116
 31
0.0
  0
LINE
  5
3F2
  8
0
 10
55.4836121416526
 20
199.8237653976116
 30
0.0
 11
55.4836121416526
 21
193.8237653976116
 31
0.0
  0
LINE
  5
3F3
  8
0
 10
78.4836121416526
 20
155.3237653976116
 30
0.0
 11
78.4836121416526
 21
193.3237653976116
 31
0.0
  0
LINE
  5
3F4
  8
0
 10
55.4836121416526
 20
193.3237653976116
 30
0.0
 11
55.4836121416526
 21
155.3237653976116
 31
0.0
  0
LINE
  5
3F5
  8
0
 10
78.4836121416526
 20
149.3237653976116
 30
0.0
 11
78.4836121416526
 21
152.3237653976116
 31
0.0
  0
LINE
  5
3F6
  8
0
 10
55.4836121416526
 20
152.3237653976116
 30
0.0
 11
55.4836121416526
 21
149.3237653976116
 31
0.0
  0
LINE
  5
3F7
  8
0
 10
89.483612141652586
 20
141.3237653976116
 30
0.0
 11
89.483612141652586
 21
149.3237653976116
 31
0.0
  0
LINE
  5
3F8
  8
0
 10
44.483612141652593
 20
149.3237653976116
 30
0.0
 11
44.483612141652593
 21
141.3237653976116
 31
0.0
  0
LINE
  5
3F9
  8
0
 10
74.9836121416526
 20
152.3237653976116
 30
0.0
 11
74.9836121416526
 21
155.3237653976116
 31
0.0
  0
LINE
  5
3FA
  8
0
 10
58.9836121416526
 20
155.3237653976116
 30
0.0
 11
58.9836121416526
 21
152.3237653976116
 31
0.0
  0
LINE
  5
3FB
  8
0
 10
65.11184052096803
 20
214.8237653976116
 30
0.0
 11
68.855383762337169
 21
214.8237653976116
 31
0.0
  0
LINE
  5
3FC
  8
0
 10
74.9836121416526
 20
203.3007653976116
 30
0.0
 11
74.9836121416526
 21
215.30076539761171
 31
0.0
  0
LINE
  5
3FD
  8
0
 10
58.9836121416526
 20
203.3007653976116
 30
0.0
 11
58.9836121416526
 21
215.30076539761171
 31
0.0
  0
POLYLINE
  5
3FE
  8
0
 66
     1
 10
0.0
 20
0.0
 30
0.0
 70
   128
  0
VERTEX
  5
67C
  8
0
 10
69.450764495936852
 20
215.28716080213999
 30
0.0
  0
VERTEX
  5
67D
  8
0
 10
69.459628157277734
 20
215.29081175049009
 30
0.0
  0
VERTEX
  5
67E
  8
0
 10
69.235938095873792
 20
215.2018646345384
 30
0.0
  0
VERTEX
  5
67F
  8
0
 10
68.787171153874624
 20
215.0455739331999
 30
0.0
  0
VERTEX
  5
680
  8
0
 10
68.110628025169746
 20
214.87034031870749
 30
0.0
  0
VERTEX
  5
681
  8
0
 10
67.851672623416434
 20
214.8237653976116
 30
0.0
  0
SEQEND
  5
682
  8
0
  0
ARC
  5
3FF
  8
0
 10
67.406944944698807
 20
222.27209565056
 30
0.0
 40
7.5594523725623217
 50
247.2499202236431
 51
260.16382690849218
  0
ARC
  5
400
  8
0
 10
66.983612141652202
 20
220.08745631012229
 30
0.0
 40
5.5865884958934107
 50
250.4245832503841
 51
289.57541674962579
  0
POLYLINE
  5
401
  8
0
 66
     1
 10
0.0
 20
0.0
 30
0.0
 70
   128
  0
VERTEX
  5
683
  8
0
 10
63.997087231415399
 20
203.30739297293201
 30
0.0
  0
VERTEX
  5
684
  8
0
 10
63.984886004198358
 20
203.30140222745339
 30
0.0
  0
VERTEX
  5
685
  8
0
 10
64.149929353127874
 20
203.3821711265046
 30
0.0
  0
VERTEX
  5
686
  8
0
 10
64.56966538063007
 20
203.57126812777619
 30
0.0
  0
VERTEX
  5
687
  8
0
 10
65.264473812891538
 20
203.82760939824379
 30
0.0
  0
VERTEX
  5
688
  8
0
 10
66.219303987032276
 20
204.0487022834422
 30
0.0
  0
VERTEX
  5
689
  8
0
 10
67.216987718563715
 20
204.09937479894481
 30
0.0
  0
VERTEX
  5
68A
  8
0
 10
68.074776075150709
 20
203.99127966641629
 30
0.0
  0
VERTEX
  5
68B
  8
0
 10
68.846587172785007
 20
203.7807404006916
 30
0.0
  0
VERTEX
  5
68C
  8
0
 10
69.514476914361353
 20
203.5210356030851
 30
0.0
  0
VERTEX
  5
68D
  8
0
 10
69.915521246461878
 20
203.33451942557329
 30
0.0
  0
VERTEX
  5
68E
  8
0
 10
69.94716341044618
 20
203.31887258619071
 30
0.0
  0
SEQEND
  5
68F
  8
0
  0
LINE
  5
402
  8
0
 10
70.2336121416526
 20
218.28247416996209
 30
0.0
 11
70.2336121416526
 21
198.5237653976117
 31
0.0
  0
LINE
  5
403
  8
0
 10
73.9836121416526
 20
198.3237653976116
 30
0.0
 11
73.983612141652429
 21
218.28247416996209
 31
0.0
  0
LINE
  5
404
  8
0
 10
63.7336121416526
 20
198.5237653976117
 30
0.0
 11
63.7336121416526
 21
218.28247416996209
 31
0.0
  0
LINE
  5
405
  8
0
 10
59.983612141652657
 20
198.3237653976116
 30
0.0
 11
59.983612141652422
 21
218.28247416996209
 31
0.0
  0
POLYLINE
  5
406
  8
0
 66
     1
 10
0.0
 20
0.0
 30
0.0
 70
   128
  0
VERTEX
  5
690
  8
0
 10
76.230143625110856
 20
220.52974002408979
 30
0.0
  0
VERTEX
  5
691
  8
0
 10
76.416687010981562
 20
220.71329008034621
 30
0.0
  0
VERTEX
  5
692
  8
0
 10
76.478671339262533
 20
220.8949458166652
 30
0.0
  0
SEQEND
  5
693
  8
0
  0
ARC
  5
407
  8
0
 10
79.145350529925395
 20
215.115670923159
 30
0.0
 40
6.1490304542692886
 50
118.3002547200376
 51
147.08096810544069
  0
ARC
  5
408
  8
0
 10
54.821873753389347
 20
215.11567092317139
 30
0.0
 40
6.1490304542542367
 50
32.919031894512557
 51
61.699745279978231
  0
POLYLINE
  5
409
  8
0
 66
     1
 10
0.0
 20
0.0
 30
0.0
 70
   128
  0
VERTEX
  5
694
  8
0
 10
57.737080658195168
 20
220.52974002408979
 30
0.0
  0
VERTEX
  5
695
  8
0
 10
57.55053727232368
 20
220.71329008034601
 30
0.0
  0
VERTEX
  5
696
  8
0
 10
57.488552944042972
 20
220.89494581666651
 30
0.0
  0
SEQEND
  5
697
  8
0
  0
LINE
  5
40A
  8
0
 10
59.983612141652422
 20
218.30076539761151
 30
0.0
 11
59.983612141652422
 21
218.45738191284019
 31
0.0
  0
LINE
  5
40B
  8
0
 10
73.983612141652429
 20
218.30076539761151
 30
0.0
 11
73.983612141652429
 21
218.45738191284019
 31
0.0
  0
POLYLINE
  5
40C
  8
0
 66
     1
 10
0.0
 20
0.0
 30
0.0
 70
   128
  0
VERTEX
  5
698
  8
0
 10
57.737080658194763
 20
210.79610958727909
 30
0.0
  0
VERTEX
  5
699
  8
0
 10
58.343941704847133
 20
211.53876248916529
 30
0.0
  0
VERTEX
  5
69A
  8
0
 10
58.884119565610611
 20
211.80076539761151
 30
0.0
  0
SEQEND
  5
69B
  8
0
  0
LINE
  5
40D
  8
0
 10
58.884119565610611
 20
211.80076539761151
 30
0.0
 11
58.9836121416526
 21
211.80076539761151
 31
0.0
  0
POLYLINE
  5
40E
  8
0
 66
     1
 10
0.0
 20
0.0
 30
0.0
 70
   128
  0
VERTEX
  5
69C
  8
0
 10
75.817762615785881
 20
211.30076539761171
 30
0.0
  0
VERTEX
  5
69D
  8
0
 10
75.623282578458102
 20
211.53876248916509
 30
0.0
  0
VERTEX
  5
69E
  8
0
 10
75.083104717694596
 20
211.80076539761151
 30
0.0
  0
SEQEND
  5
69F
  8
0
  0
LINE
  5
40F
  8
0
 10
75.083104717694596
 20
211.80076539761151
 30
0.0
 11
74.983612141652657
 21
211.80076539761151
 31
0.0
  0
ARC
  5
410
  8
0
 10
59.480308890100332
 20
209.74228832625931
 30
0.0
 40
2.0370036619235381
 50
148.84608025265661
 51
202.35785559581839
  0
ARC
  5
411
  8
0
 10
58.57650081994467
 20
209.03253563692121
 30
0.0
 40
0.9822260091450562
 50
183.80044570427481
 51
272.3831760244185
  0
LINE
  5
412
  8
0
 10
78.4836121416526
 20
193.8237653976116
 30
0.0
 11
78.308363794558716
 21
193.8237653976116
 31
0.0
  0
LINE
  5
413
  8
0
 10
78.308363794558716
 20
193.8237653976116
 30
0.0
 11
78.308363794558716
 21
195.3237653976116
 31
0.0
  0
LINE
  5
414
  8
0
 10
78.290247361734643
 20
195.3237653976116
 30
0.0
 11
55.658860488746491
 21
195.3237653976116
 31
0.0
  0
LINE
  5
415
  8
0
 10
55.658860488746491
 20
193.8237653976116
 30
0.0
 11
55.658860488746491
 21
195.3237653976116
 31
0.0
  0
LINE
  5
416
  8
0
 10
55.658860488746491
 20
193.8237653976116
 30
0.0
 11
55.4836121416526
 21
193.8237653976116
 31
0.0
  0
LINE
  5
417
  8
0
 10
73.9836121416526
 20
199.8237653976116
 30
0.0
 11
78.4836121416526
 21
199.8237653976116
 31
0.0
  0
LINE
  5
418
  8
0
 10
55.4836121416526
 20
199.8237653976116
 30
0.0
 11
59.9836121416526
 21
199.8237653976116
 31
0.0
  0
LINE
  5
419
  8
0
 10
73.9836121416526
 20
198.3237653976116
 30
0.0
 11
71.230022303168312
 21
198.3237653976116
 31
0.0
  0
LINE
  5
41A
  8
0
 10
62.737201980137172
 20
198.3237653976116
 30
0.0
 11
59.9836121416526
 21
198.3237653976116
 31
0.0
  0
LINE
  5
41B
  8
0
 10
55.676976921570542
 20
193.8237653976116
 30
0.0
 11
55.658860488746491
 21
193.8237653976116
 31
0.0
  0
LINE
  5
41C
  8
0
 10
78.308363794558716
 20
193.8237653976116
 30
0.0
 11
78.290247361734643
 21
193.8237653976116
 31
0.0
  0
LINE
  5
41D
  8
0
 10
78.290247361734643
 20
193.3237653976116
 30
0.0
 11
78.290247361734643
 21
195.3237653976116
 31
0.0
  0
LINE
  5
41E
  8
0
 10
78.290247361734643
 20
193.3237653976116
 30
0.0
 11
78.4836121416526
 21
193.3237653976116
 31
0.0
  0
LINE
  5
41F
  8
0
 10
55.4836121416526
 20
193.3237653976116
 30
0.0
 11
55.676976921570542
 21
193.3237653976116
 31
0.0
  0
LINE
  5
420
  8
0
 10
55.676976921570542
 20
195.3237653976116
 30
0.0
 11
55.676976921570542
 21
193.3237653976116
 31
0.0
  0
LINE
  5
421
  8
0
 10
55.4836121416526
 20
155.3237653976116
 30
0.0
 11
78.4836121416526
 21
155.3237653976116
 31
0.0
  0
LINE
  5
422
  8
0
 10
78.4836121416526
 20
152.3237653976116
 30
0.0
 11
55.4836121416526
 21
152.3237653976116
 31
0.0
  0
LINE
  5
423
  8
0
 10
44.483612141652593
 20
149.3237653976116
 30
0.0
 11
89.483612141652586
 21
149.3237653976116
 31
0.0
  0
LINE
  5
424
  8
0
 10
44.483612141652593
 20
141.3237653976116
 30
0.0
 11
89.483612141652657
 21
141.3237653976116
 31
0.0
  0
LINE
  5
425
  8
0
 10
142.23143342489959
 20
58.80116020236084
 30
0.0
 11
146.85023557841629
 21
58.801160202360911
 31
0.0
  0
LINE
  5
426
  8
0
 10
139.92203234814019
 20
62.801160202360848
 30
0.0
 11
142.23143342489959
 21
58.80116020236084
 31
0.0
  0
LINE
  5
427
  8
0
 10
142.23143342489919
 20
66.801160202360961
 30
0.0
 11
139.92203234814019
 21
62.801160202360848
 31
0.0
  0
LINE
  5
428
  8
0
 10
146.85023557841629
 20
66.801160202361018
 30
0.0
 11
142.23143342489919
 21
66.801160202360961
 31
0.0
  0
LINE
  5
429
  8
0
 10
149.15963665517469
 20
62.801160202360961
 30
0.0
 11
146.85023557841629
 21
66.801160202361018
 31
0.0
  0
LINE
  5
42A
  8
0
 10
146.85023557841629
 20
58.801160202360911
 30
0.0
 11
149.15963665517469
 21
62.801160202360961
 31
0.0
  0
LINE
  5
42B
  8
0
 10
194.95839545289269
 20
59.551160202360897
 30
0.0
 11
186.0408345016578
 21
59.551160202360897
 31
0.0
  0
LINE
  5
42C
  8
0
 10
186.0408345016578
 20
66.051160202360904
 30
0.0
 11
194.95839545289269
 21
66.051160202360904
 31
0.0
  0
ARC
  5
42D
  8
0
 10
228.0408345016543
 20
62.801160202360897
 30
0.0
 40
9.5000000000005347
 50
278.83903159827889
 51
81.160968401721874
  0
ARC
  5
42E
  8
0
 10
206.540834501565
 20
-28.3988397981052
 30
0.0
 40
84.200000000474944
 50
76.73497076973446
 51
80.730603507434935
  0
ARC
  5
42F
  8
0
 10
206.5408345015654
 20
154.00116020282391
 30
0.0
 40
84.200000000471903
 50
279.26939649256587
 51
283.26502923026652
  0
ARC
  5
430
  8
0
 10
228.0408345016566
 20
62.801160202383237
 30
0.0
 40
9.4999999999780762
 50
81.160968401714854
 51
103.2650292303012
  0
ARC
  5
431
  8
0
 10
228.04083450165649
 20
62.801160202340498
 30
0.0
 40
9.4999999999800462
 50
256.73497076970312
 51
278.83903159828441
  0
ARC
  5
432
  8
0
 10
206.5408345016578
 20
-28.398839797639091
 30
0.0
 40
84.199999999999989
 50
80.730603507446517
 51
90.0
  0
ARC
  5
433
  8
0
 10
206.5408345016578
 20
154.00116020236089
 30
0.0
 40
84.199999999999989
 50
270.0000000000008
 51
279.26939649255428
  0
LINE
  5
434
  8
0
 10
206.5408345016578
 20
69.801160202360904
 30
0.0
 11
186.0408345016578
 21
69.801160202360904
 31
0.0
  0
LINE
  5
435
  8
0
 10
206.5408345016578
 20
55.801160202360897
 30
0.0
 11
186.0408345016578
 21
55.801160202360897
 31
0.0
  0
LINE
  5
436
  8
0
 10
147.6296584418223
 20
60.15116020236087
 30
0.0
 11
152.5408345016578
 21
60.15116020236087
 31
0.0
  0
LINE
  5
437
  8
0
 10
161.41642975325109
 20
57.801160202360897
 30
0.0
 11
144.5408345016578
 21
57.801160202360897
 31
0.0
  0
ARC
  5
438
  8
0
 10
161.41642975325109
 20
72.801160202360904
 30
0.0
 40
5.0000000000000071
 50
270.0000000000008
 51
288.95836251956649
  0
ARC
  5
439
  8
0
 10
152.5408345016578
 20
62.801160202360897
 30
0.0
 40
2.6500000000000048
 50
270.0000000000008
 51
90.0
  0
ARC
  5
43A
  8
0
 10
161.41642975325109
 20
52.801160202360897
 30
0.0
 40
5.0000000000000071
 50
71.041637480434275
 51
90.0
  0
LINE
  5
43B
  8
0
 10
152.5408345016578
 20
65.451160202360882
 30
0.0
 11
147.6296584418223
 21
65.451160202360882
 31
0.0
  0
LINE
  5
43C
  8
0
 10
144.5408345016578
 20
67.801160202360904
 30
0.0
 11
161.41642975325109
 21
67.801160202360904
 31
0.0
  0
ARC
  5
43D
  8
0
 10
144.5408345016578
 20
62.801160202360897
 30
0.0
 40
5.0000000000000071
 50
90.0
 51
270.0000000000008
  0
LINE
  5
43E
  8
0
 10
163.0408345016578
 20
51.801160202360897
 30
0.0
 11
163.0408345016578
 21
73.801160202360904
 31
0.0
  0
ARC
  5
43F
  8
0
 10
174.5408345016578
 20
51.801160202360897
 30
0.0
 40
11.5
 50
180.0
 51
0.0
  0
ARC
  5
440
  8
0
 10
174.5408345016578
 20
62.801160202360897
 30
0.0
 40
19.650000000000009
 50
260.0000000000008
 51
280.0000000000008
  0
LINE
  5
441
  8
0
 10
186.0408345016578
 20
73.801160202360904
 30
0.0
 11
186.0408345016578
 21
51.801160202360897
 31
0.0
  0
ARC
  5
442
  8
0
 10
174.5408345016578
 20
73.801160202360904
 30
0.0
 40
11.5
 50
0.0
 51
180.0
  0
ARC
  5
443
  8
0
 10
174.5408345016578
 20
62.801160202360897
 30
0.0
 40
19.649999999999999
 50
79.999999999999986
 51
100.0
  0
ARC
  5
444
  8
0
 10
171.5888154813199
 20
79.542892003568454
 30
0.0
 40
2.6500000000000039
 50
99.999999999999815
 51
280.00000000000119
  0
ARC
  5
445
  8
0
 10
174.5408345016578
 20
62.801160202360897
 30
0.0
 40
14.35000000000001
 50
79.999999999999986
 51
100.0
  0
ARC
  5
446
  8
0
 10
177.49285352199561
 20
79.542892003568454
 30
0.0
 40
2.6500000000000039
 50
260.0000000000004
 51
80.000000000000185
  0
ARC
  5
447
  8
0
 10
177.49285352199561
 20
46.059428401153347
 30
0.0
 40
2.6500000000000039
 50
280.00000000000063
 51
100.0000000000004
  0
ARC
  5
448
  8
0
 10
174.5408345016578
 20
62.801160202360897
 30
0.0
 40
14.350000000000019
 50
260.0000000000008
 51
280.0000000000008
  0
ARC
  5
449
  8
0
 10
171.5888154813199
 20
46.059428401153347
 30
0.0
 40
2.6500000000000039
 50
79.999999999999588
 51
260.00000000000102
  0
LINE
  5
44A
  8
0
 10
378.01391929261058
 20
215.42304672088051
 30
0.0
 11
378.01391929261058
 21
211.25947755013351
 31
0.0
  0
LINE
  5
44B
  8
0
 10
452.51391929260888
 20
195.3237653976116
 30
0.0
 11
452.51391929260888
 21
198.3237653976116
 31
0.0
  0
LINE
  5
44C
  8
0
 10
429.51391929260888
 20
198.3237653976116
 30
0.0
 11
429.51391929260888
 21
195.3237653976116
 31
0.0
  0
LINE
  5
44D
  8
0
 10
452.51391929260888
 20
155.3237653976116
 30
0.0
 11
452.51391929260888
 21
181.3237653976116
 31
0.0
  0
LINE
  5
44E
  8
0
 10
429.51391929260888
 20
195.3237653976116
 30
0.0
 11
429.51391929260888
 21
155.3237653976116
 31
0.0
  0
LINE
  5
44F
  8
0
 10
452.51391929260888
 20
149.3237653976116
 30
0.0
 11
452.51391929260888
 21
152.3237653976116
 31
0.0
  0
LINE
  5
450
  8
0
 10
429.51391929260888
 20
152.3237653976116
 30
0.0
 11
429.51391929260888
 21
149.3237653976116
 31
0.0
  0
LINE
  5
451
  8
0
 10
449.01391929260888
 20
152.3237653976116
 30
0.0
 11
449.01391929260888
 21
155.3237653976116
 31
0.0
  0
LINE
  5
452
  8
0
 10
433.01391929260888
 20
155.3237653976116
 30
0.0
 11
433.01391929260888
 21
152.3237653976116
 31
0.0
  0
CIRCLE
  5
453
  8
0
 10
441.01391929260882
 20
209.30076539761171
 30
0.0
 40
6.000000000000056
  0
ARC
  5
454
  8
0
 10
395.45126225644242
 20
194.80076539761029
 30
0.0
 40
17.000000000001322
 50
90.000000000002444
 51
109.7963071629801
  0
ARC
  5
455
  8
0
 10
416.0139192926087
 20
374.81212903397892
 30
0.0
 40
156.51136363636729
 50
260.3186922164038
 51
267.43658044494481
  0
ARC
  5
456
  8
0
 10
386.0139192926074
 20
212.55076539761399
 30
0.0
 40
8.4999999999978009
 50
79.525047866362129
 51
160.25007720437111
  0
ARC
  5
457
  8
0
 10
383.01391929260762
 20
213.5507653976012
 30
0.0
 40
5.4999999999921583
 50
204.61997732859459
 51
303.55730976199288
  0
ARC
  5
458
  8
0
 10
395.45126225642241
 20
194.80076539765091
 30
0.0
 40
16.99999999995644
 50
109.7963071629628
 51
123.5573097619402
  0
POLYLINE
  5
459
  8
0
 66
     1
 10
0.0
 20
0.0
 30
0.0
 70
   128
  0
VERTEX
  5
6A0
  8
0
 10
389.69374853487147
 20
220.52974002408979
 30
0.0
  0
VERTEX
  5
6A1
  8
0
 10
388.63957399527692
 20
220.71329008034601
 30
0.0
  0
VERTEX
  5
6A2
  8
0
 10
387.55926740912969
 20
220.90910848693031
 30
0.0
  0
SEQEND
  5
6A3
  8
0
  0
LINE
  5
45A
  8
0
 10
441.01391929260888
 20
218.3007653976116
 30
0.0
 11
416.01391929260882
 21
218.30076539761151
 31
0.0
  0
ARC
  5
45B
  8
0
 10
420.59635834137481
 20
201.80076539761171
 30
0.0
 40
10.0
 50
21.810607291434181
 51
90.000000000005286
  0
ARC
  5
45C
  8
0
 10
440.45088440501388
 20
209.6801511145529
 30
0.0
 40
11.36095132876363
 50
201.50100765540671
 51
240.1771208707373
  0
POLYLINE
  5
45D
  8
0
 66
     1
 10
0.0
 20
0.0
 30
0.0
 70
   128
  0
VERTEX
  5
6A4
  8
0
 10
445.83151688373641
 20
199.8237653976116
 30
0.0
  0
VERTEX
  5
6A5
  8
0
 10
446.90597768409401
 20
200.4823973362499
 30
0.0
  0
VERTEX
  5
6A6
  8
0
 10
448.42634290309212
 20
201.8883417871283
 30
0.0
  0
VERTEX
  5
6A7
  8
0
 10
449.62665056722852
 20
203.54573557734469
 30
0.0
  0
VERTEX
  5
6A8
  8
0
 10
450.47040373256931
 20
205.38376129020969
 30
0.0
  0
VERTEX
  5
6A9
  8
0
 10
450.9310384109034
 20
207.3279694215789
 30
0.0
  0
VERTEX
  5
6AA
  8
0
 10
451.00241929260869
 20
209.30076539761151
 30
0.0
  0
VERTEX
  5
6AB
  8
0
 10
450.68873741261223
 20
211.22504803920251
 30
0.0
  0
VERTEX
  5
6AC
  8
0
 10
450.01377627362609
 20
213.02862821856709
 30
0.0
  0
VERTEX
  5
6AD
  8
0
 10
449.01043041310959
 20
214.64367653778791
 30
0.0
  0
VERTEX
  5
6AE
  8
0
 10
447.72736784988922
 20
216.01421395489189
 30
0.0
  0
VERTEX
  5
6AF
  8
0
 10
446.21980186156679
 20
217.09163973137069
 30
0.0
  0
VERTEX
  5
6B0
  8
0
 10
444.55264082711778
 20
217.84399491968509
 30
0.0
  0
VERTEX
  5
6B1
  8
0
 10
442.79388039786409
 20
218.248438154588
 30
0.0
  0
VERTEX
  5
6B2
  8
0
 10
441.01391929260888
 20
218.3007653976116
 30
0.0
  0
SEQEND
  5
6B3
  8
0
  0
LINE
  5
45E
  8
0
 10
395.45126225644202
 20
211.80076539761129
 30
0.0
 11
420.5963583413739
 21
211.80076539761171
 31
0.0
  0
ARC
  5
45F
  8
0
 10
416.01391929260831
 20
374.81212903397449
 30
0.0
 40
156.511363636363
 50
267.43658044494498
 51
270.00000000000102
  0
LINE
  5
460
  8
0
 10
443.01391929260882
 20
193.8237653976116
 30
0.0
 11
443.01391929260882
 21
195.3237653976116
 31
0.0
  0
LINE
  5
461
  8
0
 10
439.01391929260882
 20
193.8237653976116
 30
0.0
 11
439.01391929260882
 21
195.3237653976116
 31
0.0
  0
LINE
  5
462
  8
0
 10
439.01391929260882
 20
195.3237653976116
 30
0.0
 11
429.51391929260888
 21
195.3237653976116
 31
0.0
  0
LINE
  5
463
  8
0
 10
431.88977549716162
 20
198.3237653976116
 30
0.0
 11
429.51391929260888
 21
198.3237653976116
 31
0.0
  0
LINE
  5
464
  8
0
 10
431.88977549716162
 20
199.8237653976116
 30
0.0
 11
431.88977549716162
 21
198.3237653976116
 31
0.0
  0
LINE
  5
465
  8
0
 10
450.13806308805619
 20
199.8237653976116
 30
0.0
 11
450.13806308805619
 21
198.3237653976116
 31
0.0
  0
LINE
  5
466
  8
0
 10
452.51391929260888
 20
198.3237653976116
 30
0.0
 11
450.13806308805619
 21
198.3237653976116
 31
0.0
  0
LINE
  5
467
  8
0
 10
443.01391929260882
 20
193.8237653976116
 30
0.0
 11
439.01391929260882
 21
193.8237653976116
 31
0.0
  0
LINE
  5
468
  8
0
 10
431.88977549716162
 20
199.8237653976116
 30
0.0
 11
450.13806308805619
 21
199.8237653976116
 31
0.0
  0
LINE
  5
469
  8
0
 10
438.91391929260891
 20
193.3237653976116
 30
0.0
 11
438.91391929260891
 21
195.3237653976116
 31
0.0
  0
LINE
  5
46A
  8
0
 10
443.1139192926089
 20
195.3237653976116
 30
0.0
 11
443.1139192926089
 21
193.3237653976116
 31
0.0
  0
LINE
  5
46B
  8
0
 10
438.91391929260891
 20
193.3237653976116
 30
0.0
 11
443.1139192926089
 21
193.3237653976116
 31
0.0
  0
LINE
  5
46C
  8
0
 10
429.51391929260888
 20
155.3237653976116
 30
0.0
 11
452.51391929260888
 21
155.3237653976116
 31
0.0
  0
LINE
  5
46D
  8
0
 10
452.51391929260888
 20
181.3237653976116
 30
0.0
 11
476.01391929260888
 21
181.3237653976116
 31
0.0
  0
LINE
  5
46E
  8
0
 10
443.01391929260882
 20
195.3237653976116
 30
0.0
 11
476.01391929260888
 21
195.3237653976116
 31
0.0
  0
LINE
  5
46F
  8
0
 10
429.51391929260888
 20
149.3237653976116
 30
0.0
 11
429.51391929260888
 21
141.3237653976116
 31
0.0
  0
LINE
  5
470
  8
0
 10
429.51391929260888
 20
149.3237653976116
 30
0.0
 11
452.51391929260888
 21
149.3237653976116
 31
0.0
  0
LINE
  5
471
  8
0
 10
452.51391929260888
 20
149.3237653976116
 30
0.0
 11
452.51391929260888
 21
141.3237653976116
 31
0.0
  0
LINE
  5
472
  8
0
 10
429.51391929260888
 20
141.3237653976116
 30
0.0
 11
452.51391929260888
 21
141.3237653976116
 31
0.0
  0
LINE
  5
473
  8
0
 10
452.51391929260888
 20
152.3237653976116
 30
0.0
 11
429.51391929260888
 21
152.3237653976116
 31
0.0
  0
LINE
  5
475
  8
1
 10
174.54083450165771
 20
87.801160202360904
 30
0.0
 11
174.5408345016578
 21
37.801160202360911
 31
0.0
  0
ARC
  5
476
  8
1
 10
174.5408345016578
 20
62.801160202360848
 30
0.0
 40
17.000000000000039
 50
62.57568216497409
 51
117.4243178350259
  0
ARC
  5
477
  8
1
 10
174.5408345016578
 20
62.801160202360961
 30
0.0
 40
17.000000000000039
 50
242.57568216497401
 51
297.42431783502587
  0
LINE
  5
478
  8
1
 10
144.5408345016576
 20
170.12376539761149
 30
0.0
 11
144.5408345016576
 21
203.91566615406381
 31
0.0
  0
LINE
  5
479
  8
1
 10
144.5408345016578
 20
55.301160202360897
 30
0.0
 11
144.5408345016578
 21
70.301160202360904
 31
0.0
  0
LINE
  5
47A
  8
1
 10
66.983612141652586
 20
136.3237653976116
 30
0.0
 11
66.983612141652586
 21
226.05076539761151
 31
0.0
  0
LINE
  5
47B
  8
1
 10
83.983612141652614
 20
151.8237653976116
 30
0.0
 11
83.983612141652614
 21
138.8237653976116
 31
0.0
  0
LINE
  5
47C
  8
1
 10
49.983612141652657
 20
151.8237653976116
 30
0.0
 11
49.983612141652657
 21
138.8237653976116
 31
0.0
  0
LINE
  5
47D
  8
1
 10
174.5408345016578
 20
136.3237653976116
 30
0.0
 11
174.540834501658
 21
223.3007653976116
 31
0.0
  0
LINE
  5
47E
  8
1
 10
183.0408345016578
 20
209.30076539761171
 30
0.0
 11
166.04083450165771
 21
209.30076539761171
 31
0.0
  0
LINE
  5
47F
  8
1
 10
137.04083450163341
 20
296.13627993254812
 30
0.0
 11
240.04083450163051
 21
296.13627993254812
 31
0.0
  0
ARC
  5
480
  8
1
 10
174.54083450163341
 20
296.13627993254812
 30
0.0
 40
17.000000000000039
 50
242.57568216497401
 51
297.42431783502587
  0
ARC
  5
481
  8
1
 10
174.54083450163341
 20
296.13627993254812
 30
0.0
 40
17.000000000000039
 50
62.57568216497409
 51
117.4243178350259
  0
LINE
  5
482
  8
1
 10
144.54083450163341
 20
303.63627993254818
 30
0.0
 11
144.54083450163341
 21
288.63627993254818
 31
0.0
  0
LINE
  5
483
  8
1
 10
174.5408345016333
 20
271.13627993254818
 30
0.0
 11
174.54083450163341
 21
321.13627993254818
 31
0.0
  0
LINE
  5
484
  8
1
 10
441.01391929260882
 20
136.3237653976116
 30
0.0
 11
441.01391929260859
 21
223.3007653976116
 31
0.0
  0
LINE
  5
485
  8
1
 10
471.01391929260899
 20
170.12376539761149
 30
0.0
 11
471.01391929260899
 21
203.91566615406381
 31
0.0
  0
LINE
  5
486
  8
1
 10
432.51391929260882
 20
209.30076539761171
 30
0.0
 11
449.51391929260888
 21
209.30076539761171
 31
0.0
  0
LINE
  5
487
  8
1
 10
471.01391929260899
 20
170.12376539761149
 30
0.0
 11
471.01391929260899
 21
203.91566615406381
 31
0.0
  0
LINE
  5
488
  8
0
 10
476.01391929260888
 20
195.3237653976116
 30
0.0
 11
476.01391929260888
 21
181.3237653976116
 31
0.0
  0
LINE
  5
489
  8
1
 10
302.1348819561552
 20
151.8237653976116
 30
0.0
 11
302.1348819561552
 21
138.8237653976116
 31
0.0
  0
LINE
  5
48A
  8
1
 10
319.1348819561552
 20
136.3237653976116
 30
0.0
 11
319.1348819561552
 21
226.05076539761151
 31
0.0
  0
LINE
  5
48B
  8
1
 10
336.1348819561552
 20
151.8237653976116
 30
0.0
 11
336.1348819561552
 21
138.8237653976116
 31
0.0
  0
LINE
  5
48C
  8
0
 10
65.483612141652657
 20
198.7011156668012
 30
0.0
 11
68.483612141652657
 21
198.70111566680129
 31
0.0
  0
LINE
  5
48D
  8
0
 10
65.483612141652657
 20
201.12376539761161
 30
0.0
 11
68.4836121416526
 21
201.12376539761169
 31
0.0
  0
LINE
  5
48E
  8
0
 10
71.602414295169694
 20
198.10876478078501
 30
0.0
 11
70.883612141655476
 21
198.5237653976115
 31
0.0
  0
ARC
  5
48F
  8
0
 10
70.447713756790449
 20
196.4213721719475
 30
0.0
 40
2.044658198744437
 50
64.384247466680236
 51
124.3842474679288
  0
ARC
  5
490
  8
0
 10
66.98361214166556
 20
190.8232959606558
 30
0.0
 40
7.6427344100359971
 50
72.412046225974365
 51
107.58795377422589
  0
LINE
  5
491
  8
0
 10
62.364809988135733
 20
198.10876478078501
 30
0.0
 11
63.083612141649951
 21
198.5237653976115
 31
0.0
  0
ARC
  5
492
  8
0
 10
63.519510526514971
 20
196.4213721719475
 30
0.0
 40
2.044658198744437
 50
55.615752532071163
 51
115.61575253331959
  0
LINE
  5
493
  8
0
 10
63.083612141651713
 20
198.5237653976117
 30
0.0
 11
70.883612141655306
 21
198.5237653976115
 31
0.0
  0
LINE
  5
494
  8
0
 10
62.364809988135733
 20
198.10876478078501
 30
0.0
 11
62.364809988135733
 21
195.73876601443791
 31
0.0
  0
LINE
  5
495
  8
0
 10
70.88361214165576
 20
195.3237653976116
 30
0.0
 11
63.083612141649603
 21
195.3237653976116
 31
0.0
  0
ARC
  5
496
  8
0
 10
70.447713756790449
 20
197.42615862327551
 30
0.0
 40
2.044658198744437
 50
235.61575253207121
 51
295.61575253331961
  0
LINE
  5
497
  8
0
 10
71.602414295169694
 20
195.73876601443791
 30
0.0
 11
70.883612141655476
 21
195.3237653976114
 31
0.0
  0
ARC
  5
498
  8
0
 10
66.98361214166556
 20
203.0242348345671
 30
0.0
 40
7.6427344100359971
 50
252.41204622577411
 51
287.58795377402572
  0
LINE
  5
499
  8
0
 10
62.364809988135733
 20
195.73876601443791
 30
0.0
 11
63.083612141649951
 21
195.3237653976114
 31
0.0
  0
ARC
  5
49A
  8
0
 10
63.519510526514971
 20
197.42615862327551
 30
0.0
 40
2.044658198744437
 50
244.38424746668039
 51
304.38424746792879
  0
LINE
  5
49B
  8
0
 10
64.674211064894223
 20
198.10876478077489
 30
0.0
 11
64.674211064902295
 21
195.73876601444351
 31
0.0
  0
LINE
  5
49C
  8
0
 10
71.602414295169524
 20
198.1087647807849
 30
0.0
 11
71.602414295169694
 21
195.73876601443791
 31
0.0
  0
LINE
  5
49D
  8
0
 10
69.293013218411204
 20
195.73876601445471
 30
0.0
 11
69.293013218411204
 21
198.10876478077691
 31
0.0
  0
LINE
  5
49E
  8
0
 10
69.483612141652657
 20
176.12376539761161
 30
0.0
 11
69.483612141652657
 21
178.12376539761161
 31
0.0
  0
LINE
  5
49F
  8
0
 10
64.483612141652657
 20
178.12376539761161
 30
0.0
 11
64.483612141652657
 21
176.12376539761161
 31
0.0
  0
LINE
  5
4A0
  8
0
 10
62.9836121416526
 20
178.12376539761161
 30
0.0
 11
70.9836121416526
 21
178.12376539761161
 31
0.0
  0
LINE
  5
4A1
  8
0
 10
62.9836121416526
 20
181.3237653976116
 30
0.0
 11
62.9836121416526
 21
178.12376539761161
 31
0.0
  0
LINE
  5
4A2
  8
0
 10
66.983612141652657
 20
181.3237653976116
 30
0.0
 11
66.983612141652657
 21
178.12376539761161
 31
0.0
  0
LINE
  5
4A3
  8
0
 10
70.9836121416526
 20
181.3237653976116
 30
0.0
 11
70.9836121416526
 21
178.12376539761161
 31
0.0
  0
LINE
  5
4A4
  8
0
 10
66.983612141652543
 20
173.338766014437
 30
0.0
 11
66.983612141659876
 21
175.708764780785
 31
0.0
  0
LINE
  5
4A5
  8
0
 10
63.083612141653703
 20
172.9237653976115
 30
0.0
 11
70.883612141651554
 21
172.9237653976115
 31
0.0
  0
LINE
  5
4A6
  8
0
 10
70.883612141651213
 20
176.12376539761161
 30
0.0
 11
63.08361214165393
 21
176.12376539761161
 31
0.0
  0
LINE
  5
4A7
  8
0
 10
62.9836121416526
 20
176.06603037069181
 30
0.0
 11
63.08361214165398
 21
176.12376539761161
 31
0.0
  0
ARC
  5
4A8
  8
0
 10
64.9836121416526
 20
170.28932136436421
 30
0.0
 40
5.7767090063276196
 50
69.743841999655515
 51
110.2561580003445
  0
ARC
  5
4A9
  8
0
 10
64.9836121416526
 20
178.7582094308587
 30
0.0
 40
5.7767090063276196
 50
249.7438419996555
 51
290.2561580003445
  0
LINE
  5
4AA
  8
0
 10
62.9836121416526
 20
172.98150042453111
 30
0.0
 11
63.08361214165398
 21
172.92376539761139
 31
0.0
  0
LINE
  5
4AB
  8
0
 10
62.983612141652429
 20
176.06603037069181
 30
0.0
 11
62.98361214165265
 21
172.98150042453111
 31
0.0
  0
LINE
  5
4AC
  8
0
 10
70.98361214165277
 20
176.06603037069181
 30
0.0
 11
70.983612141652543
 21
172.98150042453111
 31
0.0
  0
LINE
  5
4AD
  8
0
 10
70.9836121416526
 20
172.98150042453111
 30
0.0
 11
70.883612141651213
 21
172.92376539761139
 31
0.0
  0
ARC
  5
4AE
  8
0
 10
68.9836121416526
 20
178.7582094308587
 30
0.0
 40
5.7767090063276196
 50
249.7438419996555
 51
290.2561580003445
  0
ARC
  5
4AF
  8
0
 10
68.9836121416526
 20
170.28932136436421
 30
0.0
 40
5.7767090063276196
 50
69.743841999655515
 51
110.2561580003445
  0
LINE
  5
4B0
  8
0
 10
70.9836121416526
 20
176.06603037069181
 30
0.0
 11
70.883612141651213
 21
176.12376539761161
 31
0.0
  0
LINE
  5
4B1
  8
3
 10
64.916612141652365
 20
176.12376539761161
 30
0.0
 11
64.916612141652422
 21
178.12376539761161
 31
0.0
  0
LINE
  5
4B2
  8
3
 10
69.050612141652778
 20
176.12376539761161
 30
0.0
 11
69.050612141652778
 21
178.12376539761161
 31
0.0
  0
LINE
  5
4B3
  8
0
 10
68.790791818625109
 20
198.5237653976117
 30
0.0
 11
68.483612141652657
 21
198.7011156668012
 31
0.0
  0
LINE
  5
4B4
  8
0
 10
65.483612141652657
 20
198.7011156668012
 30
0.0
 11
65.176432464680147
 21
198.5237653976117
 31
0.0
  0
ARC
  5
4B5
  8
0
 10
66.983612141652657
 20
197.4156661540637
 30
0.0
 40
4.0000000000000098
 50
67.975687162958693
 51
112.0243128370419
  0
LINE
  5
4B6
  8
0
 10
68.483612141652657
 20
198.7011156668012
 30
0.0
 11
68.4836121416526
 21
201.12376539761161
 31
0.0
  0
LINE
  5
4B7
  8
0
 10
65.483612141652657
 20
201.12376539761161
 30
0.0
 11
65.483612141652657
 21
198.7011156668012
 31
0.0
  0
LINE
  5
4B8
  8
0
 10
61.983612141652657
 20
195.3237653976116
 30
0.0
 11
61.983612141652657
 21
181.3237653976116
 31
0.0
  0
LINE
  5
4B9
  8
0
 10
71.983612141652586
 20
195.3237653976116
 30
0.0
 11
71.983612141652586
 21
181.3237653976116
 31
0.0
  0
LINE
  5
4BA
  8
0
 10
60.013915171955659
 20
181.3237653976116
 30
0.0
 11
60.013915171955659
 21
195.3237653976116
 31
0.0
  0
LINE
  5
4BB
  8
0
 10
73.953309111349597
 20
195.3237653976116
 30
0.0
 11
73.953309111349597
 21
181.3237653976116
 31
0.0
  0
LINE
  5
4BC
  8
0
 10
73.953309111349597
 20
181.3237653976116
 30
0.0
 11
60.013915171955659
 21
181.3237653976116
 31
0.0
  0
ARC
  5
4BD
  8
0
 10
57.683612141652588
 20
220.8507653976115
 30
0.0
 40
0.2
 50
90.0
 51
180.0
  0
ARC
  5
4BE
  8
0
 10
76.283612141652611
 20
220.8507653976115
 30
0.0
 40
0.2
 50
0.0
 51
90.0
  0
LINE
  5
4BF
  8
0
 10
147.04083450165689
 20
176.12376539761161
 30
0.0
 11
147.04083450165689
 21
178.12376539761161
 31
0.0
  0
LINE
  5
4C0
  8
0
 10
142.040834501657
 20
178.12376539761161
 30
0.0
 11
142.040834501657
 21
176.12376539761161
 31
0.0
  0
LINE
  5
4C1
  8
0
 10
146.85023557841549
 20
172.62376539761149
 30
0.0
 11
146.85023557841549
 21
176.12376539761161
 31
0.0
  0
LINE
  5
4C2
  8
0
 10
142.2314334248984
 20
172.62376539761149
 30
0.0
 11
142.2314334248984
 21
176.12376539761161
 31
0.0
  0
LINE
  5
4C3
  8
0
 10
149.1596366551739
 20
176.12376539761161
 30
0.0
 11
139.92203234813991
 21
176.12376539761161
 31
0.0
  0
LINE
  5
4C4
  8
0
 10
149.1596366551739
 20
172.62376539761149
 30
0.0
 11
139.92203234813991
 21
172.62376539761149
 31
0.0
  0
LINE
  5
4C5
  8
0
 10
139.92203234813991
 20
172.62376539761149
 30
0.0
 11
139.92203234813991
 21
176.12376539761161
 31
0.0
  0
LINE
  5
4C6
  8
0
 10
149.1596366551739
 20
172.62376539761149
 30
0.0
 11
149.1596366551739
 21
176.12376539761161
 31
0.0
  0
LINE
  5
4C7
  8
0
 10
139.92203234813999
 20
180.90876478078499
 30
0.0
 11
140.64083450165421
 21
181.3237653976116
 31
0.0
  0
ARC
  5
4C8
  8
0
 10
141.07673288651921
 20
179.22137217194739
 30
0.0
 40
2.044658198744437
 50
55.615752532071163
 51
115.61575253331959
  0
ARC
  5
4C9
  8
0
 10
144.54083450166979
 20
173.62329596065589
 30
0.0
 40
7.6427344100359971
 50
72.412046225974365
 51
107.58795377422589
  0
ARC
  5
4CA
  8
0
 10
141.07673288651921
 20
180.2261586232755
 30
0.0
 40
2.044658198744437
 50
244.38424746668039
 51
304.38424746792879
  0
LINE
  5
4CB
  8
0
 10
139.92203234813999
 20
178.5387660144379
 30
0.0
 11
140.64083450165421
 21
178.12376539761129
 31
0.0
  0
ARC
  5
4CC
  8
0
 10
144.54083450166979
 20
185.82423483456699
 30
0.0
 40
7.6427344100359971
 50
252.41204622577411
 51
287.58795377402572
  0
LINE
  5
4CD
  8
0
 10
149.1596366551739
 20
178.5387660144379
 30
0.0
 11
148.44083450165971
 21
178.12376539761129
 31
0.0
  0
ARC
  5
4CE
  8
0
 10
148.00493611679471
 20
180.2261586232755
 30
0.0
 40
2.044658198744437
 50
235.61575253207121
 51
295.61575253331961
  0
ARC
  5
4CF
  8
0
 10
148.00493611679471
 20
179.22137217194739
 30
0.0
 40
2.044658198744437
 50
64.384247466680236
 51
124.3842474679288
  0
LINE
  5
4D0
  8
0
 10
149.1596366551739
 20
180.90876478078499
 30
0.0
 11
148.44083450165971
 21
181.3237653976116
 31
0.0
  0
LINE
  5
4D1
  8
0
 10
139.92203234813999
 20
180.90876478078499
 30
0.0
 11
139.92203234813999
 21
178.5387660144379
 31
0.0
  0
LINE
  5
4D2
  8
0
 10
140.640834501656
 20
181.3237653976116
 30
0.0
 11
148.44083450165951
 21
181.3237653976116
 31
0.0
  0
LINE
  5
4D3
  8
0
 10
142.23143342489851
 20
180.90876478077479
 30
0.0
 11
142.2314334249065
 21
178.53876601444361
 31
0.0
  0
LINE
  5
4D4
  8
0
 10
146.85023557841549
 20
178.53876601445469
 30
0.0
 11
146.85023557841549
 21
180.90876478077689
 31
0.0
  0
LINE
  5
4D5
  8
0
 10
149.1596366551737
 20
180.90876478078491
 30
0.0
 11
149.1596366551739
 21
178.5387660144379
 31
0.0
  0
LINE
  5
4D6
  8
0
 10
148.44083450165999
 20
178.12376539761161
 30
0.0
 11
140.64083450165381
 21
178.12376539761161
 31
0.0
  0
LINE
  5
4D7
  8
3
 10
142.47383450165671
 20
176.12376539761161
 30
0.0
 11
142.47383450165671
 21
178.12376539761161
 31
0.0
  0
LINE
  5
4D8
  8
3
 10
146.60783450165709
 20
176.12376539761161
 30
0.0
 11
146.60783450165709
 21
178.12376539761161
 31
0.0
  0
LINE
  5
4D9
  8
0
 10
146.3480141786294
 20
198.5237653976115
 30
0.0
 11
146.04083450165689
 21
198.7011156668012
 31
0.0
  0
LINE
  5
4DA
  8
0
 10
143.04083450165689
 20
198.7011156668012
 30
0.0
 11
142.73365482468441
 21
198.5237653976115
 31
0.0
  0
LINE
  5
4DB
  8
0
 10
146.04083450165689
 20
198.7011156668012
 30
0.0
 11
146.04083450165689
 21
201.12376539761161
 31
0.0
  0
LINE
  5
4DC
  8
0
 10
143.04083450165689
 20
201.12376539761161
 30
0.0
 11
143.04083450165689
 21
198.7011156668012
 31
0.0
  0
ARC
  5
4DD
  8
0
 10
144.540834501657
 20
197.4156661540637
 30
0.0
 40
4.0000000000000311
 50
67.975687162958508
 51
112.02431283704151
  0
LINE
  5
4DE
  8
0
 10
146.04083450165689
 20
198.7011156668012
 30
0.0
 11
143.04083450165689
 21
198.7011156668012
 31
0.0
  0
LINE
  5
4DF
  8
0
 10
146.04083450165689
 20
201.12376539761161
 30
0.0
 11
143.04083450165689
 21
201.12376539761161
 31
0.0
  0
LINE
  5
4E0
  8
0
 10
148.54083450165689
 20
198.4660303706919
 30
0.0
 11
148.4408345016555
 21
198.5237653976115
 31
0.0
  0
ARC
  5
4E1
  8
0
 10
146.54083450165689
 20
192.68932136436419
 30
0.0
 40
5.7767090063276196
 50
69.743841999655515
 51
110.2561580003445
  0
ARC
  5
4E2
  8
0
 10
146.54083450165689
 20
201.1582094308587
 30
0.0
 40
5.7767090063276196
 50
249.7438419996555
 51
290.2561580003445
  0
LINE
  5
4E3
  8
0
 10
148.54083450165689
 20
195.3815004245312
 30
0.0
 11
148.4408345016555
 21
195.3237653976114
 31
0.0
  0
LINE
  5
4E4
  8
0
 10
148.54083450165709
 20
198.4660303706919
 30
0.0
 11
148.5408345016568
 21
195.3815004245312
 31
0.0
  0
LINE
  5
4E5
  8
0
 10
140.54083450165669
 20
198.4660303706919
 30
0.0
 11
140.54083450165689
 21
195.3815004245312
 31
0.0
  0
LINE
  5
4E6
  8
0
 10
140.54083450165689
 20
195.3815004245312
 30
0.0
 11
140.6408345016583
 21
195.3237653976114
 31
0.0
  0
ARC
  5
4E7
  8
0
 10
142.54083450165689
 20
201.1582094308587
 30
0.0
 40
5.7767090063276196
 50
249.7438419996555
 51
290.2561580003445
  0
ARC
  5
4E8
  8
0
 10
142.54083450165689
 20
192.68932136436419
 30
0.0
 40
5.7767090063276196
 50
69.743841999655515
 51
110.2561580003445
  0
LINE
  5
4E9
  8
0
 10
140.54083450165689
 20
198.4660303706919
 30
0.0
 11
140.6408345016583
 21
198.5237653976115
 31
0.0
  0
LINE
  5
4EA
  8
0
 10
148.4408345016555
 20
198.5237653976115
 30
0.0
 11
140.64083450165819
 21
198.5237653976115
 31
0.0
  0
LINE
  5
4EB
  8
0
 10
140.64083450165799
 20
195.3237653976116
 30
0.0
 11
148.4408345016559
 21
195.3237653976116
 31
0.0
  0
LINE
  5
4EC
  8
0
 10
144.5408345016568
 20
195.738766014437
 30
0.0
 11
144.54083450166419
 21
198.10876478078501
 31
0.0
  0
LINE
  5
4ED
  8
0
 10
139.54083450165771
 20
181.3237653976116
 30
0.0
 11
163.0408345016578
 21
181.3237653976116
 31
0.0
  0
CIRCLE
  5
4EE
  8
0
 10
144.54083450163341
 20
296.13627993254812
 30
0.0
 40
3.8999999999999999
  0
LINE
  5
4EF
  8
0
 10
296.63488195615531
 20
149.3237653976116
 30
0.0
 11
341.63488195615543
 21
149.3237653976116
 31
0.0
  0
ARC
  5
4F0
  8
0
 10
309.83488195615507
 20
220.8507653976115
 30
0.0
 40
0.2
 50
90.0
 51
180.0
  0
ARC
  5
4F1
  8
0
 10
328.43488195615521
 20
220.8507653976115
 30
0.0
 40
0.2
 50
0.0
 51
90.0
  0
LINE
  5
4F2
  8
3
 10
473.08091929260922
 20
176.12376539761161
 30
0.0
 11
473.08091929260922
 21
178.12376539761161
 31
0.0
  0
LINE
  5
4F3
  8
3
 10
468.94691929260881
 20
176.12376539761161
 30
0.0
 11
468.94691929260881
 21
178.12376539761161
 31
0.0
  0
LINE
  5
4F4
  8
0
 10
474.91391929261198
 20
178.12376539761161
 30
0.0
 11
467.11391929260589
 21
178.12376539761161
 31
0.0
  0
LINE
  5
4F5
  8
0
 10
475.6327214461258
 20
180.90876478078491
 30
0.0
 11
475.63272144612603
 21
178.5387660144379
 31
0.0
  0
LINE
  5
4F6
  8
0
 10
473.32332036936759
 20
178.53876601445469
 30
0.0
 11
473.32332036936759
 21
180.90876478077689
 31
0.0
  0
LINE
  5
4F7
  8
0
 10
468.7045182158505
 20
180.90876478077479
 30
0.0
 11
468.70451821585863
 21
178.53876601444361
 31
0.0
  0
LINE
  5
4F8
  8
0
 10
467.11391929260799
 20
181.3237653976116
 30
0.0
 11
474.91391929261152
 21
181.3237653976116
 31
0.0
  0
LINE
  5
4F9
  8
0
 10
466.39511713909201
 20
180.90876478078499
 30
0.0
 11
466.39511713909201
 21
178.5387660144379
 31
0.0
  0
LINE
  5
4FA
  8
0
 10
475.63272144612603
 20
180.90876478078499
 30
0.0
 11
474.91391929261181
 21
181.3237653976116
 31
0.0
  0
ARC
  5
4FB
  8
0
 10
474.47802090774672
 20
179.22137217194739
 30
0.0
 40
2.044658198744437
 50
64.384247466680236
 51
124.3842474679288
  0
ARC
  5
4FC
  8
0
 10
474.47802090774672
 20
180.2261586232755
 30
0.0
 40
2.044658198744437
 50
235.61575253207121
 51
295.61575253331961
  0
LINE
  5
4FD
  8
0
 10
475.63272144612603
 20
178.5387660144379
 30
0.0
 11
474.91391929261181
 21
178.12376539761129
 31
0.0
  0
ARC
  5
4FE
  8
0
 10
471.01391929262178
 20
185.82423483456699
 30
0.0
 40
7.6427344100359971
 50
252.41204622577411
 51
287.58795377402572
  0
LINE
  5
4FF
  8
0
 10
466.39511713909201
 20
178.5387660144379
 30
0.0
 11
467.11391929260623
 21
178.12376539761129
 31
0.0
  0
ARC
  5
500
  8
0
 10
467.54981767747131
 20
180.2261586232755
 30
0.0
 40
2.044658198744437
 50
244.38424746668039
 51
304.38424746792879
  0
ARC
  5
501
  8
0
 10
471.01391929262178
 20
173.62329596065589
 30
0.0
 40
7.6427344100359971
 50
72.412046225974365
 51
107.58795377422589
  0
ARC
  5
502
  8
0
 10
467.54981767747131
 20
179.22137217194739
 30
0.0
 40
2.044658198744437
 50
55.615752532071163
 51
115.61575253331959
  0
LINE
  5
503
  8
0
 10
466.39511713909201
 20
180.90876478078499
 30
0.0
 11
467.11391929260623
 21
181.3237653976116
 31
0.0
  0
LINE
  5
504
  8
0
 10
475.63272144612603
 20
172.62376539761149
 30
0.0
 11
475.63272144612603
 21
176.12376539761161
 31
0.0
  0
LINE
  5
505
  8
0
 10
466.39511713909189
 20
172.62376539761149
 30
0.0
 11
466.39511713909189
 21
176.12376539761161
 31
0.0
  0
LINE
  5
506
  8
0
 10
475.63272144612603
 20
172.62376539761149
 30
0.0
 11
466.39511713909189
 21
172.62376539761149
 31
0.0
  0
LINE
  5
507
  8
0
 10
475.63272144612603
 20
176.12376539761161
 30
0.0
 11
466.39511713909189
 21
176.12376539761161
 31
0.0
  0
LINE
  5
508
  8
0
 10
468.7045182158505
 20
172.62376539761149
 30
0.0
 11
468.7045182158505
 21
176.12376539761161
 31
0.0
  0
LINE
  5
509
  8
0
 10
473.32332036936759
 20
172.62376539761149
 30
0.0
 11
473.32332036936759
 21
176.12376539761161
 31
0.0
  0
LINE
  5
50A
  8
0
 10
468.51391929260899
 20
178.12376539761161
 30
0.0
 11
468.51391929260899
 21
176.12376539761161
 31
0.0
  0
LINE
  5
50B
  8
0
 10
473.51391929260899
 20
176.12376539761161
 30
0.0
 11
473.51391929260899
 21
178.12376539761161
 31
0.0
  0
LINE
  5
50C
  8
0
 10
471.01391929260888
 20
195.738766014437
 30
0.0
 11
471.01391929261621
 21
198.10876478078501
 31
0.0
  0
LINE
  5
50D
  8
0
 10
467.11391929261009
 20
195.3237653976116
 30
0.0
 11
474.91391929260789
 21
195.3237653976116
 31
0.0
  0
LINE
  5
50E
  8
0
 10
474.9139192926076
 20
198.5237653976115
 30
0.0
 11
467.11391929261032
 21
198.5237653976115
 31
0.0
  0
LINE
  5
50F
  8
0
 10
467.01391929260899
 20
198.4660303706919
 30
0.0
 11
467.11391929261032
 21
198.5237653976115
 31
0.0
  0
ARC
  5
510
  8
0
 10
469.01391929260888
 20
192.68932136436419
 30
0.0
 40
5.7767090063276196
 50
69.743841999655515
 51
110.2561580003445
  0
ARC
  5
511
  8
0
 10
469.01391929260888
 20
201.1582094308587
 30
0.0
 40
5.7767090063276196
 50
249.7438419996555
 51
290.2561580003445
  0
LINE
  5
512
  8
0
 10
467.01391929260899
 20
195.3815004245312
 30
0.0
 11
467.11391929261032
 21
195.3237653976114
 31
0.0
  0
LINE
  5
513
  8
0
 10
467.01391929260882
 20
198.4660303706919
 30
0.0
 11
467.01391929260899
 21
195.3815004245312
 31
0.0
  0
LINE
  5
514
  8
0
 10
475.0139192926091
 20
198.4660303706919
 30
0.0
 11
475.01391929260899
 21
195.3815004245312
 31
0.0
  0
LINE
  5
515
  8
0
 10
475.01391929260899
 20
195.3815004245312
 30
0.0
 11
474.9139192926076
 21
195.3237653976114
 31
0.0
  0
ARC
  5
516
  8
0
 10
473.01391929260888
 20
201.1582094308587
 30
0.0
 40
5.7767090063276196
 50
249.7438419996555
 51
290.2561580003445
  0
ARC
  5
517
  8
0
 10
473.01391929260888
 20
192.68932136436419
 30
0.0
 40
5.7767090063276196
 50
69.743841999655515
 51
110.2561580003445
  0
LINE
  5
518
  8
0
 10
475.01391929260899
 20
198.4660303706919
 30
0.0
 11
474.9139192926076
 21
198.5237653976115
 31
0.0
  0
LINE
  5
519
  8
0
 10
472.51391929260899
 20
201.12376539761161
 30
0.0
 11
469.51391929260899
 21
201.12376539761161
 31
0.0
  0
LINE
  5
51A
  8
0
 10
472.51391929260899
 20
198.7011156668012
 30
0.0
 11
469.51391929260899
 21
198.7011156668012
 31
0.0
  0
ARC
  5
51B
  8
0
 10
471.01391929260899
 20
197.4156661540637
 30
0.0
 40
4.0000000000000311
 50
67.975687162958508
 51
112.02431283704151
  0
LINE
  5
51C
  8
0
 10
469.51391929260899
 20
201.12376539761161
 30
0.0
 11
469.51391929260899
 21
198.7011156668012
 31
0.0
  0
LINE
  5
51D
  8
0
 10
472.51391929260899
 20
198.7011156668012
 30
0.0
 11
472.51391929260899
 21
201.12376539761161
 31
0.0
  0
LINE
  5
51E
  8
0
 10
469.51391929260899
 20
198.7011156668012
 30
0.0
 11
469.20673961563648
 21
198.5237653976115
 31
0.0
  0
LINE
  5
51F
  8
0
 10
472.82109896958139
 20
198.5237653976115
 30
0.0
 11
472.51391929260899
 21
198.7011156668012
 31
0.0
  0
CIRCLE
  5
520
  8
0
 10
174.5408345016572
 20
296.1362799325463
 30
0.0
 40
2.4999999999983511
  0
CIRCLE
  5
521
  8
3
 10
174.54083450163341
 20
296.13627993254812
 30
0.0
 40
3.0
  0
LINE
  5
52D
  8
1
 10
152.54083450163341
 20
301.2862799325481
 30
0.0
 11
152.54083450163341
 21
290.98627993254809
 31
0.0
  0
LINE
  5
52F
  8
1
 10
152.5408345016578
 20
67.951160202360711
 30
0.0
 11
152.5408345016578
 21
57.651160202360749
 31
0.0
  0
TEXT
  5
5EF
  8
0
 62
     3
 10
0.0
 20
0.0
 30
0.0
 40
10.0
  1
QLSWC150VR
  7
STANDARD1
  0
ENDSEC
  0
EOF
