  0
SECTION
  2
HEADER
  9
$ACADVER
  1
AC1009
  9
$INSBASE
 10
0.0
 20
0.0
 30
0.0
  9
$EXTMIN
 10
0.0
 20
-2.960436562073669
 30
0.0
  9
$EXTMAX
 10
487.84394290137772
 20
311.4808532883643
 30
0.0
  9
$LIMMIN
 10
0.0
 20
0.0
  9
$LIMMAX
 10
0.0
 20
0.0
  9
$ORTHOMODE
 70
     0
  9
$REGENMODE
 70
     1
  9
$FILLMODE
 70
     1
  9
$QTEXTMODE
 70
     0
  9
$MIRRTEXT
 70
     1
  9
$DRAGMODE
 70
     2
  9
$LTSCALE
 40
5.0
  9
$OSMODE
 70
  3071
  9
$ATTMODE
 70
     1
  9
$TEXTSIZE
 40
0.0
  9
$TRACEWID
 40
0.05
  9
$TEXTSTYLE
  7
STANDARD
  9
$CLAYER
  8
0
  9
$CELTYPE
  6
BYLAYER
  9
$CECOLOR
 62
   256
  9
$DIMSCALE
 40
1.0
  9
$DIMASZ
 40
0.0
  9
$DIMEXO
 40
0.0
  9
$DIMDLI
 40
0.38
  9
$DIMRND
 40
0.0
  9
$DIMDLE
 40
0.0
  9
$DIMEXE
 40
0.18
  9
$DIMTP
 40
0.0
  9
$DIMTM
 40
0.0
  9
$DIMTXT
 40
3.5
  9
$DIMCEN
 40
0.09
  9
$DIMTSZ
 40
0.0
  9
$DIMTOL
 70
     0
  9
$DIMLIM
 70
     0
  9
$DIMTIH
 70
     1
  9
$DIMTOH
 70
     1
  9
$DIMSE1
 70
     0
  9
$DIMSE2
 70
     0
  9
$DIMTAD
 70
     1
  9
$DIMZIN
 70
     0
  9
$DIMBLK
  1

  9
$DIMASO
 70
     1
  9
$DIMSHO
 70
     1
  9
$DIMPOST
  1

  9
$DIMAPOST
  1

  9
$DIMALT
 70
     0
  9
$DIMALTD
 70
     2
  9
$DIMALTF
 40
0.0394
  9
$DIMLFAC
 40
1.0
  9
$DIMTOFL
 70
     0
  9
$DIMTVP
 40
0.0
  9
$DIMTIX
 70
     0
  9
$DIMSOXD
 70
     0
  9
$DIMSAH
 70
     0
  9
$DIMBLK1
  1

  9
$DIMBLK2
  1

  9
$DIMSTYLE
  2
STANDARD
  9
$DIMCLRD
 70
     0
  9
$DIMCLRE
 70
     0
  9
$DIMCLRT
 70
     0
  9
$DIMTFAC
 40
1.0
  9
$DIMGAP
 40
0.0
  9
$LUNITS
 70
     2
  9
$LUPREC
 70
     2
  9
$SKETCHINC
 40
0.1
  9
$FILLETRAD
 40
0.2
  9
$AUNITS
 70
     0
  9
$AUPREC
 70
     2
  9
$MENU
  1
acad
  9
$ELEVATION
 40
0.0
  9
$PELEVATION
 40
0.0
  9
$THICKNESS
 40
0.0
  9
$LIMCHECK
 70
     0
  9
$BLIPMODE
 70
     0
  9
$CHAMFERA
 40
0.0
  9
$CHAMFERB
 40
0.0
  9
$SKPOLY
 70
     0
  9
$TDCREATE
 40
2444972.375
  9
$TDUPDATE
 40
2456598.4303966672
  9
$TDINDWG
 40
0.0431771181
  9
$TDUSRTIMER
 40
0.0431771181
  9
$USRTIMER
 70
     1
  9
$ANGBASE
 50
0.0
  9
$ANGDIR
 70
     0
  9
$PDMODE
 70
     0
  9
$PDSIZE
 40
-1.0
  9
$PLINEWID
 40
0.0
  9
$COORDS
 70
     1
  9
$SPLFRAME
 70
     0
  9
$SPLINETYPE
 70
     6
  9
$SPLINESEGS
 70
     8
  9
$ATTDIA
 70
     0
  9
$ATTREQ
 70
     1
  9
$HANDLING
 70
     1
  9
$HANDSEED
  5
906
  9
$SURFTAB1
 70
     6
  9
$SURFTAB2
 70
     6
  9
$SURFTYPE
 70
     6
  9
$SURFU
 70
     6
  9
$SURFV
 70
     6
  9
$UCSNAME
  2

  9
$UCSORG
 10
0.0
 20
0.0
 30
0.0
  9
$UCSXDIR
 10
1.0
 20
0.0
 30
0.0
  9
$UCSYDIR
 10
0.0
 20
1.0
 30
0.0
  9
$PUCSNAME
  2

  9
$PUCSORG
 10
0.0
 20
0.0
 30
0.0
  9
$PUCSXDIR
 10
1.0
 20
0.0
 30
0.0
  9
$PUCSYDIR
 10
0.0
 20
1.0
 30
0.0
  9
$USERI1
 70
     0
  9
$USERI2
 70
     0
  9
$USERI3
 70
     0
  9
$USERI4
 70
     0
  9
$USERI5
 70
     0
  9
$USERR1
 40
0.0
  9
$USERR2
 40
0.0
  9
$USERR3
 40
0.0
  9
$USERR4
 40
0.0
  9
$USERR5
 40
0.0
  9
$WORLDVIEW
 70
     1
  9
$SHADEDGE
 70
     3
  9
$SHADEDIF
 70
    70
  9
$TILEMODE
 70
     1
  9
$MAXACTVP
 70
    16
  9
$PLIMCHECK
 70
     0
  9
$PEXTMIN
 10
1.0000000000000000E+020
 20
1.0000000000000000E+020
 30
1.0000000000000000E+020
  9
$PEXTMAX
 10
-1.0000000000000000E+020
 20
-1.0000000000000000E+020
 30
-1.0000000000000000E+020
  9
$PLIMMIN
 10
0.0
 20
0.0
  9
$PLIMMAX
 10
12.0
 20
9.0
  9
$UNITMODE
 70
     0
  9
$VISRETAIN
 70
     0
  9
$PLINEGEN
 70
     1
  9
$PSLTSCALE
 70
     1
  0
ENDSEC
  0
SECTION
  2
TABLES
  0
TABLE
  2
VPORT
 70
     1
  0
VPORT
  2
*ACTIVE
 70
     0
 10
0.0
 20
0.0
 11
1.0
 21
1.0
 12
243.92197258653911
 22
172.52902394784621
 13
0.0
 23
0.0
 14
1.0
 24
1.0
 15
0.0
 25
0.0
 16
0.0
 26
0.0
 36
1.0
 17
0.0
 27
0.0
 37
0.0
 40
355.4265467670017
 41
2.304913294797688
 42
50.0
 43
0.0
 44
0.0
 50
0.0
 51
0.0
 71
     0
 72
  2000
 73
     1
 74
     1
 75
     0
 76
     0
 77
     0
 78
     0
  0
ENDTAB
  0
TABLE
  2
LTYPE
 70
     3
  0
LTYPE
  2
CONTINUOUS
 70
     0
  3
Solid line
 72
    65
 73
     0
 40
0.0
  0
LTYPE
  2
CENTER
 70
     0
  3
Center ____ _ ____ _ ____ _ ____ _ ____ _ ____
 72
    65
 73
     4
 40
2.0
 49
1.25
 49
-0.25
 49
0.25
 49
-0.25
  0
LTYPE
  2
PHANTOM2
 70
     0
  3
___ _ _ ___ _ _ ___ _ _ ___ _ _
 72
    65
 73
     6
 40
1.25
 49
0.625
 49
-0.125
 49
0.125
 49
-0.125
 49
0.125
 49
-0.125
  0
ENDTAB
  0
TABLE
  2
LAYER
 70
     4
  0
LAYER
  2
0
 70
     0
 62
     7
  6
CONTINUOUS
  0
LAYER
  2
DEFPOINTS
 70
     0
 62
     7
  6
CONTINUOUS
  0
LAYER
  2
1
 70
     0
 62
     1
  6
CENTER
  0
LAYER
  2
3
 70
     0
 62
     3
  6
CONTINUOUS
  0
ENDTAB
  0
TABLE
  2
STYLE
 70
     2
  0
STYLE
  2
STANDARD
 70
     0
 40
0.0
 41
1.0
 50
0.0
 71
     0
 42
0.0
  3
ＭＳ ゴシック
  4

  0
STYLE
  2
STANDARD1
 70
     0
 40
0.0
 41
1.0
 50
0.0
 71
     0
 42
3.0
  3
txt
  4

  0
ENDTAB
  0
TABLE
  2
VIEW
 70
     0
  0
ENDTAB
  0
TABLE
  2
UCS
 70
     0
  0
ENDTAB
  0
TABLE
  2
APPID
 70
     3
  0
APPID
  2
ACAD
 70
     0
  0
APPID
  2
ACAD_MLEADERVER
 70
     0
  0
APPID
  2
ACAD_NAV_VCDISPLAY
 70
     0
  0
ENDTAB
  0
TABLE
  2
DIMSTYLE
 70
     1
  0
DIMSTYLE
  2
STANDARD
 70
     0
  3

  4

  5

  6

  7

 40
1.0
 41
0.18
 42
0.0625
 43
0.38
 44
0.18
 45
0.0
 46
0.0
 47
0.0
 48
0.0
140
0.18
141
0.09
142
0.0
143
25.399999999999999
144
1.0
145
0.0
146
1.0
147
0.09
 71
     0
 72
     0
 73
     1
 74
     1
 75
     0
 76
     0
 77
     0
 78
     0
170
     0
171
     2
172
     0
173
     0
174
     0
175
     0
176
     0
177
     0
178
     0
  0
ENDTAB
  0
ENDSEC
  0
SECTION
  2
BLOCKS
  0
BLOCK
  8
0
  2
$MODEL_SPACE
 70
     0
 10
0.0
 20
0.0
 30
0.0
  3
$MODEL_SPACE
  1

  0
ENDBLK
  5
E
  8
0
  0
BLOCK
 67
     1
  8
0
  2
$PAPER_SPACE
 70
     0
 10
0.0
 20
0.0
 30
0.0
  3
$PAPER_SPACE
  1

  0
ENDBLK
  5
10
 67
     1
  8
0
  0
ENDSEC
  0
SECTION
  2
ENTITIES
  0
LINE
  5
44
  8
0
 10
260.51173500755812
 20
206.80312679127999
 30
0.0
 11
260.51173500755817
 21
210.96669596202699
 31
0.0
  0
LINE
  5
45
  8
0
 10
209.01173500755979
 20
190.86741463875799
 30
0.0
 11
209.01173500755979
 21
193.86741463875799
 31
0.0
  0
LINE
  5
46
  8
0
 10
186.01173500755971
 20
193.86741463875799
 30
0.0
 11
186.01173500755971
 21
190.86741463875799
 31
0.0
  0
LINE
  5
47
  8
0
 10
209.01173500755979
 20
150.86741463875811
 30
0.0
 11
209.01173500755979
 21
190.86741463875799
 31
0.0
  0
LINE
  5
48
  8
0
 10
186.01173500755971
 20
176.86741463875811
 30
0.0
 11
186.01173500755971
 21
150.86741463875811
 31
0.0
  0
LINE
  5
49
  8
0
 10
162.51173500755979
 20
190.86741463875799
 30
0.0
 11
162.51173500755979
 21
176.86741463875811
 31
0.0
  0
LINE
  5
4A
  8
0
 10
209.01173500755979
 20
144.86741463875811
 30
0.0
 11
209.01173500755979
 21
147.86741463875799
 31
0.0
  0
LINE
  5
4B
  8
0
 10
186.01173500755971
 20
147.86741463875799
 30
0.0
 11
186.01173500755971
 21
144.86741463875811
 31
0.0
  0
LINE
  5
4C
  8
0
 10
205.51173500755971
 20
147.86741463875799
 30
0.0
 11
205.51173500755971
 21
150.86741463875811
 31
0.0
  0
LINE
  5
4D
  8
0
 10
189.51173500755971
 20
150.86741463875811
 30
0.0
 11
189.51173500755971
 21
147.86741463875799
 31
0.0
  0
LINE
  5
68
  8
0
 10
197.9199748909829
 20
205.924541266018
 30
0.0
 11
196.78043785076031
 21
205.73802406227051
 31
0.0
  0
LINE
  5
69
  8
0
 10
197.10349512413649
 20
203.76428801149819
 30
0.0
 11
198.24303216435919
 21
203.95080521524559
 31
0.0
  0
LINE
  5
6A
  8
0
 10
198.24303216435919
 20
203.95080521524559
 30
0.0
 11
198.6512720477825
 21
205.03093184250559
 31
0.0
  0
LINE
  5
6B
  8
0
 10
196.78043785076031
 20
205.73802406227051
 30
0.0
 11
196.372197967337
 21
204.65789743501071
 31
0.0
  0
LINE
  5
6C
  8
0
 10
198.6512720477825
 20
205.03093184250559
 30
0.0
 11
197.9199748909829
 21
205.924541266018
 31
0.0
  0
CIRCLE
  5
6D
  8
0
 10
197.51173500755971
 20
204.84441463875811
 30
0.0
 40
2.0000000000000182
  0
LINE
  5
6E
  8
0
 10
196.372197967337
 20
204.65789743501071
 30
0.0
 11
197.10349512413649
 21
203.76428801149819
 31
0.0
  0
CIRCLE
  5
6F
  8
0
 10
197.51173500755971
 20
204.84441463875811
 30
0.0
 40
6.0000000000000284
  0
ARC
  5
70
  8
0
 10
222.51173500756059
 20
370.35577827512009
 30
0.0
 40
156.51136363636209
 50
272.5634195550565
 51
279.68130778359762
  0
POLYLINE
  5
71
  8
0
 66
     1
 10
0.0
 20
0.0
 30
0.0
 70
   128
  0
VERTEX
  5
832
  8
0
 10
248.83190576529719
 20
206.33975882842549
 30
0.0
  0
VERTEX
  5
833
  8
0
 10
246.04751386483341
 20
207.08241173031161
 30
0.0
  0
VERTEX
  5
834
  8
0
 10
243.07439204372699
 20
207.34441463875791
 30
0.0
  0
SEQEND
  5
835
  8
0
  0
LINE
  5
76
  8
0
 10
243.07439204372699
 20
207.34441463875791
 30
0.0
 11
217.92929595879389
 21
207.34441463875811
 31
0.0
  0
ARC
  5
77
  8
0
 10
255.5117350075609
 20
209.09441463874799
 30
0.0
 40
5.4999999999923634
 50
236.4426902380122
 51
335.38002267140848
  0
ARC
  5
78
  8
0
 10
252.5117350075609
 20
208.0944146387597
 30
0.0
 40
8.4999999999983782
 50
19.749922795633701
 51
100.4749521336344
  0
ARC
  5
79
  8
0
 10
243.074392043741
 20
190.34441463878599
 30
0.0
 40
16.99999999996885
 50
56.442690238066277
 51
70.203692837033557
  0
POLYLINE
  5
7A
  8
0
 66
     1
 10
0.0
 20
0.0
 30
0.0
 70
   128
  0
VERTEX
  5
836
  8
0
 10
248.83190576529719
 20
216.07338926523619
 30
0.0
  0
VERTEX
  5
837
  8
0
 10
249.886080304892
 20
216.25693932149261
 30
0.0
  0
VERTEX
  5
838
  8
0
 10
250.96638689103889
 20
216.45275772807679
 30
0.0
  0
SEQEND
  5
839
  8
0
  0
ARC
  5
7F
  8
0
 10
217.92929595879389
 20
197.3444146387582
 30
0.0
 40
9.999999999999801
 50
89.999999999995296
 51
158.18939270856899
  0
ARC
  5
80
  8
0
 10
198.07476989514339
 20
205.22380035570859
 30
0.0
 40
11.36095132877721
 50
299.82287912929121
 51
338.49899234457592
  0
POLYLINE
  5
81
  8
0
 66
     1
 10
0.0
 20
0.0
 30
0.0
 70
   128
  0
VERTEX
  5
83A
  8
0
 10
192.69413741643231
 20
195.36741463875811
 30
0.0
  0
VERTEX
  5
83B
  8
0
 10
191.6196766160746
 20
196.02604657739639
 30
0.0
  0
VERTEX
  5
83C
  8
0
 10
190.09931139707649
 20
197.43199102827481
 30
0.0
  0
VERTEX
  5
83D
  8
0
 10
188.89900373294
 20
199.08938481849131
 30
0.0
  0
VERTEX
  5
83E
  8
0
 10
188.0552505675993
 20
200.92741053135771
 30
0.0
  0
VERTEX
  5
83F
  8
0
 10
187.5946158892651
 20
202.87161866272689
 30
0.0
  0
VERTEX
  5
840
  8
0
 10
187.52323500755989
 20
204.84441463875959
 30
0.0
  0
VERTEX
  5
841
  8
0
 10
187.8369168875563
 20
206.7686972803503
 30
0.0
  0
VERTEX
  5
842
  8
0
 10
188.5118780265426
 20
208.57227745971349
 30
0.0
  0
VERTEX
  5
843
  8
0
 10
189.51522388705899
 20
210.18732577893431
 30
0.0
  0
VERTEX
  5
844
  8
0
 10
190.79828645027939
 20
211.5578631960384
 30
0.0
  0
VERTEX
  5
845
  8
0
 10
192.3058524386017
 20
212.6352889725172
 30
0.0
  0
VERTEX
  5
846
  8
0
 10
193.9730134730508
 20
213.38764416083151
 30
0.0
  0
VERTEX
  5
847
  8
0
 10
195.7317739023045
 20
213.7920873957344
 30
0.0
  0
VERTEX
  5
848
  8
0
 10
197.51173500755971
 20
213.84441463875811
 30
0.0
  0
SEQEND
  5
849
  8
0
  0
LINE
  5
92
  8
0
 10
197.51173500755971
 20
213.84441463875811
 30
0.0
 11
222.51173500755979
 21
213.844414638758
 31
0.0
  0
ARC
  5
94
  8
0
 10
222.5117350075603
 20
370.355778275121
 30
0.0
 40
156.511363636363
 50
270.00000000000063
 51
272.56341955505661
  0
LINE
  5
95
  8
0
 10
199.51173500755971
 20
189.36741463875811
 30
0.0
 11
199.51173500755971
 21
190.86741463875799
 31
0.0
  0
LINE
  5
96
  8
0
 10
199.51173500755971
 20
189.36741463875811
 30
0.0
 11
195.51173500755971
 21
189.36741463875811
 31
0.0
  0
LINE
  5
97
  8
0
 10
195.51173500755971
 20
189.36741463875811
 30
0.0
 11
195.51173500755971
 21
190.86741463875799
 31
0.0
  0
LINE
  5
99
  8
0
 10
209.01173500755979
 20
190.86741463875799
 30
0.0
 11
199.51173500755971
 21
190.86741463875799
 31
0.0
  0
LINE
  5
9A
  8
0
 10
188.3875912121124
 20
195.36741463875811
 30
0.0
 11
188.3875912121124
 21
193.86741463875799
 31
0.0
  0
LINE
  5
9B
  8
0
 10
206.6358788030071
 20
195.36741463875811
 30
0.0
 11
206.6358788030071
 21
193.86741463875799
 31
0.0
  0
LINE
  5
9C
  8
0
 10
209.01173500755979
 20
193.86741463875799
 30
0.0
 11
206.6358788030071
 21
193.86741463875799
 31
0.0
  0
LINE
  5
9D
  8
0
 10
188.3875912121124
 20
193.86741463875799
 30
0.0
 11
186.01173500755971
 21
193.86741463875799
 31
0.0
  0
LINE
  5
9E
  8
0
 10
188.3875912121124
 20
195.36741463875811
 30
0.0
 11
206.6358788030071
 21
195.36741463875811
 31
0.0
  0
LINE
  5
9F
  8
0
 10
186.01173500755971
 20
150.86741463875811
 30
0.0
 11
209.01173500755979
 21
150.86741463875811
 31
0.0
  0
LINE
  5
A2
  8
0
 10
195.41173500755971
 20
188.86741463875811
 30
0.0
 11
195.41173500755971
 21
190.86741463875799
 31
0.0
  0
LINE
  5
A3
  8
0
 10
199.6117350075597
 20
190.86741463875799
 30
0.0
 11
199.6117350075597
 21
188.86741463875811
 31
0.0
  0
LINE
  5
A4
  8
0
 10
199.6117350075597
 20
190.86741463875799
 30
0.0
 11
209.01173500755979
 21
190.86741463875799
 31
0.0
  0
LINE
  5
A5
  8
0
 10
195.41173500755971
 20
188.86741463875811
 30
0.0
 11
199.6117350075597
 21
188.86741463875811
 31
0.0
  0
LINE
  5
AB
  8
0
 10
162.51173500755979
 20
190.86741463875799
 30
0.0
 11
195.51173500755971
 21
190.86741463875799
 31
0.0
  0
LINE
  5
AC
  8
0
 10
186.01173500755971
 20
144.86741463875811
 30
0.0
 11
186.01173500755971
 21
136.86741463875811
 31
0.0
  0
LINE
  5
AD
  8
0
 10
209.01173500755979
 20
144.86741463875811
 30
0.0
 11
209.01173500755979
 21
136.86741463875811
 31
0.0
  0
LINE
  5
AE
  8
0
 10
186.01173500755971
 20
144.86741463875811
 30
0.0
 11
209.01173500755979
 21
144.86741463875811
 31
0.0
  0
LINE
  5
AF
  8
0
 10
186.01173500755971
 20
136.86741463875811
 30
0.0
 11
209.01173500755979
 21
136.86741463875811
 31
0.0
  0
LINE
  5
B0
  8
0
 10
209.01173500755979
 20
147.86741463875799
 30
0.0
 11
186.01173500755971
 21
147.86741463875799
 31
0.0
  0
LINE
  5
B1
  8
0
 10
203.51173500755971
 20
278.48085328836419
 30
0.0
 11
203.51173500755971
 21
279.48085328836419
 31
0.0
  0
LINE
  5
B2
  8
0
 10
203.51173500755971
 20
283.23085328836419
 30
0.0
 11
203.51173500755971
 21
289.73085328836407
 31
0.0
  0
LINE
  5
B3
  8
0
 10
203.51173500755971
 20
293.48085328836419
 30
0.0
 11
203.51173500755971
 21
294.48085328836419
 31
0.0
  0
LINE
  5
B4
  8
0
 10
191.51173500755971
 20
294.48085328836419
 30
0.0
 11
191.51173500755971
 21
293.4808532883643
 31
0.0
  0
LINE
  5
B5
  8
0
 10
191.51173500755971
 20
289.73085328836419
 30
0.0
 11
191.51173500755971
 21
283.23085328836419
 31
0.0
  0
LINE
  5
B6
  8
0
 10
191.51173500755971
 20
279.4808532883643
 30
0.0
 11
191.51173500755971
 21
278.48085328836419
 31
0.0
  0
LINE
  5
B7
  8
0
 10
195.51173500755971
 20
278.48085328836419
 30
0.0
 11
195.51173500755971
 21
276.98085328836419
 31
0.0
  0
LINE
  5
B8
  8
0
 10
199.51173500755971
 20
276.98085328836419
 30
0.0
 11
199.51173500755971
 21
278.48085328836419
 31
0.0
  0
LINE
  5
B9
  8
0
 10
187.50366621220559
 20
293.48085328836419
 30
0.0
 11
187.50366621220559
 21
289.73085328836419
 31
0.0
  0
LINE
  5
BA
  8
0
 10
187.50366621220559
 20
283.23085328836419
 30
0.0
 11
187.50366621220559
 21
279.48085328836419
 31
0.0
  0
LINE
  5
BD
  8
0
 10
167.51173500755971
 20
281.86205113484721
 30
0.0
 11
171.51173500755971
 21
284.1714522116057
 31
0.0
  0
LINE
  5
BE
  8
0
 10
163.51173500755971
 20
284.17145221160581
 30
0.0
 11
167.51173500755971
 21
281.86205113484721
 31
0.0
  0
LINE
  5
BF
  8
0
 10
163.51173500755971
 20
288.79025436512268
 30
0.0
 11
163.51173500755971
 21
284.17145221160581
 31
0.0
  0
LINE
  5
C0
  8
0
 10
167.51173500755971
 20
291.09965544188128
 30
0.0
 11
163.51173500755971
 21
288.79025436512268
 31
0.0
  0
LINE
  5
C1
  8
0
 10
171.51173500755971
 20
284.1714522116057
 30
0.0
 11
171.51173500755971
 21
288.79025436512268
 31
0.0
  0
CIRCLE
  5
C2
  8
0
 10
167.51173500755971
 20
286.48085328836419
 30
0.0
 40
2.100000000000021
  0
LINE
  5
C3
  8
0
 10
171.51173500755971
 20
288.79025436512268
 30
0.0
 11
167.51173500755971
 21
291.09965544188128
 31
0.0
  0
CIRCLE
  5
C8
  8
0
 10
167.51173500755971
 20
286.48085328836419
 30
0.0
 40
1.50000000000004
  0
LINE
  5
CB
  8
0
 10
191.51173500755971
 20
278.48085328836419
 30
0.0
 11
203.51173500755971
 21
278.48085328836419
 31
0.0
  0
LINE
  5
D4
  8
0
 10
191.51173500755971
 20
294.48085328836419
 30
0.0
 11
203.51173500755971
 21
294.48085328836419
 31
0.0
  0
LINE
  5
D5
  8
0
 10
195.51173500755971
 20
276.98085328836419
 30
0.0
 11
199.51173500755971
 21
276.98085328836419
 31
0.0
  0
POLYLINE
  5
D6
  8
0
 66
     1
 10
0.0
 20
0.0
 30
0.0
 70
   128
  0
VERTEX
  5
84A
  8
0
 10
248.83190576529719
 20
277.2343218049059
 30
0.0
  0
VERTEX
  5
84B
  8
0
 10
249.886080304892
 20
277.04777841903518
 30
0.0
  0
VERTEX
  5
84C
  8
0
 10
250.96638689103889
 20
276.98096152327878
 30
0.0
  0
SEQEND
  5
84D
  8
0
  0
ARC
  5
DB
  8
0
 10
229.5117350075557
 20
195.28085328835201
 30
0.0
 40
84.200000000012324
 50
76.734970769722196
 51
89.999999999997243
  0
LINE
  5
DC
  8
0
 10
187.50366621220559
 20
279.48085328836441
 30
0.0
 11
229.51173500755979
 21
279.48085328836441
 31
0.0
  0
LINE
  5
DD
  8
0
 10
187.50366621220559
 20
293.48085328836441
 30
0.0
 11
229.51173500755979
 21
293.4808532883643
 31
0.0
  0
ARC
  5
DE
  8
0
 10
229.5117350075586
 20
377.68085328839618
 30
0.0
 40
84.200000000031835
 50
270.00000000000171
 51
283.26502923027351
  0
POLYLINE
  5
DF
  8
0
 66
     1
 10
0.0
 20
0.0
 30
0.0
 70
   128
  0
VERTEX
  5
84E
  8
0
 10
248.83190576529719
 20
295.72738477182162
 30
0.0
  0
VERTEX
  5
84F
  8
0
 10
249.88608030489181
 20
295.91392815769302
 30
0.0
  0
VERTEX
  5
850
  8
0
 10
250.96638689103889
 20
295.98074505344857
 30
0.0
  0
SEQEND
  5
851
  8
0
  0
ARC
  5
E4
  8
0
 10
251.01173500755979
 20
286.48085328836368
 30
0.0
 40
9.5000000000000462
 50
269.7264983628429
 51
90.273501637157864
  0
LINE
  5
E6
  8
0
 10
207.51173500755979
 20
289.73085328836407
 30
0.0
 11
187.52323500755989
 21
289.73085328836419
 31
0.0
  0
LINE
  5
E8
  8
0
 10
207.51173500755979
 20
283.23085328836402
 30
0.0
 11
187.52323500755989
 21
283.23085328836419
 31
0.0
  0
LINE
  5
EB
  8
0
 10
207.51173500755971
 20
289.73085328836407
 30
0.0
 11
207.51173500755971
 21
283.23085328836419
 31
0.0
  0
ARC
  5
F0
  8
0
 10
197.51173500755971
 20
286.48085328836419
 30
0.0
 40
11.500000000000011
 50
37.495249764558601
 51
142.50475023544141
  0
ARC
  5
F1
  8
0
 10
197.51173500755971
 20
286.48085328836419
 30
0.0
 40
11.500000000000011
 50
217.49524976455939
 51
322.5047502354422
  0
ARC
  5
F2
  8
0
 10
197.51173500755971
 20
286.48085328836419
 30
0.0
 40
11.5
 50
150.489664213857
 51
209.5103357861438
  0
LINE
  5
F3
  8
0
 10
170.9218003675023
 20
283.83085328836421
 30
0.0
 11
175.51173500755971
 21
283.83085328836421
 31
0.0
  0
ARC
  5
F4
  8
0
 10
175.51173500755971
 20
286.48085328836419
 30
0.0
 40
2.6500000000000048
 50
270.0000000000008
 51
90.0
  0
LINE
  5
F5
  8
0
 10
175.51173500755971
 20
289.13085328836422
 30
0.0
 11
170.9218003675023
 21
289.13085328836422
 31
0.0
  0
ARC
  5
F6
  8
0
 10
184.387330259153
 20
276.48085328836419
 30
0.0
 40
5.0000000000000053
 50
51.444883431490439
 51
90.0
  0
LINE
  5
F7
  8
0
 10
167.51173500755971
 20
281.48085328836419
 30
0.0
 11
184.387330259153
 21
281.48085328836419
 31
0.0
  0
ARC
  5
F8
  8
0
 10
167.51173500755971
 20
286.48085328836419
 30
0.0
 40
5.0
 50
90.0
 51
270.0000000000008
  0
LINE
  5
F9
  8
0
 10
184.387330259153
 20
291.48085328836419
 30
0.0
 11
167.51173500755971
 21
291.48085328836419
 31
0.0
  0
ARC
  5
FA
  8
0
 10
184.387330259153
 20
296.48085328836419
 30
0.0
 40
5.0000000000000053
 50
270.0000000000008
 51
308.55511656851041
  0
ARC
  5
FB
  8
0
 10
197.51173500755971
 20
286.48085328836441
 30
0.0
 40
14.350000000000019
 50
79.999999999999986
 51
99.999999999999915
  0
ARC
  5
FC
  8
0
 10
200.46375402789761
 20
303.22258508957202
 30
0.0
 40
2.650000000000019
 50
260.0000000000004
 51
80.000000000000284
  0
ARC
  5
FD
  8
0
 10
197.51173500755971
 20
286.48085328836441
 30
0.0
 40
19.64999999999997
 50
79.999999999999915
 51
100.0
  0
ARC
  5
FE
  8
0
 10
194.55971598722189
 20
303.22258508957202
 30
0.0
 40
2.650000000000019
 50
99.999999999999716
 51
280.00000000000108
  0
LINE
  5
FF
  8
0
 10
186.01173500755971
 20
297.48085328836441
 30
0.0
 11
186.01173500755971
 21
291.7520786888137
 31
0.0
  0
LINE
  5
100
  8
0
 10
209.01173500755979
 20
293.4808532883643
 30
0.0
 11
209.01173500755979
 21
297.48085328836441
 31
0.0
  0
ARC
  5
101
  8
0
 10
197.51173500755971
 20
297.48085328836441
 30
0.0
 40
11.5
 50
0.0
 51
180.0000000000004
  0
ARC
  5
102
  8
0
 10
194.55971598722189
 20
269.73912148715681
 30
0.0
 40
2.649999999999991
 50
79.999999999999559
 51
260.00000000000102
  0
ARC
  5
103
  8
0
 10
197.51173500755971
 20
286.48085328836441
 30
0.0
 40
19.649999999999999
 50
260.0000000000008
 51
280.00000000000091
  0
ARC
  5
104
  8
0
 10
200.46375402789761
 20
269.73912148715681
 30
0.0
 40
2.649999999999991
 50
280.00000000000063
 51
100.0000000000004
  0
ARC
  5
105
  8
0
 10
197.51173500755971
 20
286.48085328836441
 30
0.0
 40
14.350000000000019
 50
260.00000000000091
 51
280.00000000000091
  0
ARC
  5
106
  8
0
 10
197.51173500755971
 20
275.48085328836441
 30
0.0
 40
11.5
 50
180.0000000000004
 51
0.0
  0
LINE
  5
107
  8
0
 10
209.01173500755979
 20
275.48085328836441
 30
0.0
 11
209.01173500755979
 21
279.48085328836441
 31
0.0
  0
LINE
  5
108
  8
0
 10
186.01173500755971
 20
281.20962788791468
 30
0.0
 11
186.01173500755971
 21
275.48085328836441
 31
0.0
  0
LINE
  5
109
  8
0
 10
325.05220404721729
 20
193.86741463875799
 30
0.0
 11
325.05220404721729
 21
198.84441463875811
 31
0.0
  0
LINE
  5
10A
  8
0
 10
319.0522040472174
 20
198.84441463875811
 30
0.0
 11
319.0522040472174
 21
193.86741463875799
 31
0.0
  0
LINE
  5
10B
  8
0
 10
325.05220404721729
 20
198.84441463875811
 30
0.0
 11
325.3022040472174
 21
198.84441463875811
 31
0.0
  0
LINE
  5
10C
  8
0
 10
329.05220404721751
 20
198.84441463875811
 30
0.0
 11
330.0522040472174
 21
198.84441463875811
 31
0.0
  0
LINE
  5
10D
  8
0
 10
314.05220404721729
 20
198.84441463875811
 30
0.0
 11
315.05220404721751
 21
198.84441463875811
 31
0.0
  0
LINE
  5
10E
  8
0
 10
318.80220404721729
 20
198.84441463875811
 30
0.0
 11
319.0522040472174
 21
198.84441463875811
 31
0.0
  0
LINE
  5
10F
  8
0
 10
312.55220404721729
 20
202.84441463875811
 30
0.0
 11
314.05220404721729
 21
202.84441463875811
 31
0.0
  0
LINE
  5
110
  8
0
 10
331.35220404721719
 20
216.59441463875791
 30
0.0
 11
312.75220404721722
 21
216.59441463875791
 31
0.0
  0
LINE
  5
111
  8
0
 10
312.55220404721717
 20
216.39441463875789
 30
0.0
 11
312.55220404721729
 21
205.3732671753298
 31
0.0
  0
LINE
  5
112
  8
0
 10
331.55220404721717
 20
205.3732671753298
 30
0.0
 11
331.55220404721717
 21
216.39441463875789
 31
0.0
  0
LINE
  5
113
  8
0
 10
313.68671143580968
 20
203.59441463875791
 30
0.0
 11
330.41847217618601
 21
203.59441463875791
 31
0.0
  0
LINE
  5
114
  8
0
 10
333.5522040472174
 20
189.36741463875811
 30
0.0
 11
333.5522040472174
 21
195.36741463875811
 31
0.0
  0
LINE
  5
115
  8
0
 10
310.5522040472174
 20
195.36741463875811
 30
0.0
 11
310.5522040472174
 21
189.36741463875811
 31
0.0
  0
LINE
  5
116
  8
0
 10
333.5522040472174
 20
150.86741463875811
 30
0.0
 11
333.5522040472174
 21
188.86741463875811
 31
0.0
  0
LINE
  5
117
  8
0
 10
310.5522040472174
 20
188.86741463875811
 30
0.0
 11
310.5522040472174
 21
150.86741463875811
 31
0.0
  0
LINE
  5
118
  8
0
 10
344.5522040472174
 20
136.86741463875811
 30
0.0
 11
344.5522040472174
 21
144.86741463875811
 31
0.0
  0
LINE
  5
119
  8
0
 10
333.5522040472174
 20
144.86741463875811
 30
0.0
 11
333.5522040472174
 21
147.86741463875799
 31
0.0
  0
LINE
  5
11A
  8
0
 10
310.5522040472174
 20
147.86741463875799
 30
0.0
 11
310.5522040472174
 21
144.86741463875811
 31
0.0
  0
LINE
  5
11B
  8
0
 10
299.55220404721729
 20
144.86741463875811
 30
0.0
 11
299.55220404721729
 21
136.86741463875811
 31
0.0
  0
LINE
  5
11C
  8
0
 10
330.0522040472174
 20
147.86741463875799
 30
0.0
 11
330.0522040472174
 21
150.86741463875811
 31
0.0
  0
LINE
  5
11D
  8
0
 10
314.05220404721729
 20
150.86741463875811
 30
0.0
 11
314.05220404721729
 21
147.86741463875799
 31
0.0
  0
LINE
  5
11E
  8
0
 10
325.05220404721729
 20
194.06741463875809
 30
0.0
 11
325.3022040472174
 21
194.06741463875809
 31
0.0
  0
LINE
  5
11F
  8
0
 10
318.80220404721729
 20
194.06741463875809
 30
0.0
 11
319.0522040472174
 21
194.06741463875809
 31
0.0
  0
LINE
  5
120
  8
0
 10
314.05220404721729
 20
203.59441463875791
 30
0.0
 11
314.05220404721729
 21
198.84441463875811
 31
0.0
  0
LINE
  5
121
  8
0
 10
330.05220404721729
 20
203.59441463875791
 30
0.0
 11
330.0522040472174
 21
198.84441463875811
 31
0.0
  0
ARC
  5
122
  8
0
 10
322.0718194235165
 20
193.64046114314871
 30
0.0
 40
5.9960576447622556
 50
60.3427749389393
 51
115.88516004655141
  0
POLYLINE
  5
123
  8
0
 66
     1
 10
0.0
 20
0.0
 30
0.0
 70
   128
  0
VERTEX
  5
852
  8
0
 10
319.08865277842381
 20
198.8625218273371
 30
0.0
  0
VERTEX
  5
853
  8
0
 10
319.07169037915168
 20
198.85413403385101
 30
0.0
  0
VERTEX
  5
854
  8
0
 10
319.30681363198403
 20
198.96758143268059
 30
0.0
  0
VERTEX
  5
855
  8
0
 10
319.45412783586403
 20
199.03493961944699
 30
0.0
  0
SEQEND
  5
856
  8
0
  0
LINE
  5
129
  8
0
 10
312.55220404721729
 20
205.3732671753298
 30
0.0
 11
312.55220404721729
 21
202.84441463875811
 31
0.0
  0
POLYLINE
  5
12A
  8
0
 66
     1
 10
0.0
 20
0.0
 30
0.0
 70
   128
  0
VERTEX
  5
857
  8
0
 10
312.6724473952645
 20
216.5778236801635
 30
0.0
  0
VERTEX
  5
858
  8
0
 10
312.81213266455109
 20
216.56495634094259
 30
0.0
  0
VERTEX
  5
859
  8
0
 10
313.13259001600028
 20
216.40816270146721
 30
0.0
  0
VERTEX
  5
85A
  8
0
 10
313.5769606742802
 20
216.1228264222195
 30
0.0
  0
VERTEX
  5
85B
  8
0
 10
314.29122708557378
 20
215.60568349854671
 30
0.0
  0
VERTEX
  5
85C
  8
0
 10
315.15878951300209
 20
214.9412980307952
 30
0.0
  0
VERTEX
  5
85D
  8
0
 10
316.46862912528269
 20
213.92400573129251
 30
0.0
  0
VERTEX
  5
85E
  8
0
 10
317.9685500706056
 20
212.80172554405061
 30
0.0
  0
VERTEX
  5
85F
  8
0
 10
318.8368723255619
 20
212.20614804645149
 30
0.0
  0
VERTEX
  5
860
  8
0
 10
319.76956689250738
 20
211.6476529602572
 30
0.0
  0
VERTEX
  5
861
  8
0
 10
320.44235837597802
 20
211.32387620611411
 30
0.0
  0
VERTEX
  5
862
  8
0
 10
321.16860758316022
 20
211.07890785820709
 30
0.0
  0
VERTEX
  5
863
  8
0
 10
322.05220404721712
 20
210.96669596202699
 30
0.0
  0
VERTEX
  5
864
  8
0
 10
322.76623372723333
 20
211.04046684016021
 30
0.0
  0
VERTEX
  5
865
  8
0
 10
323.48026340724948
 20
211.25123431132161
 30
0.0
  0
VERTEX
  5
866
  8
0
 10
324.53439792652972
 20
211.75791787403139
 30
0.0
  0
VERTEX
  5
867
  8
0
 10
325.52872220273503
 20
212.3791865336608
 30
0.0
  0
VERTEX
  5
868
  8
0
 10
327.1795215783535
 20
213.57456055186489
 30
0.0
  0
VERTEX
  5
869
  8
0
 10
328.69943931051108
 20
214.7500088501385
 30
0.0
  0
VERTEX
  5
86A
  8
0
 10
329.57281880300462
 20
215.4239892473426
 30
0.0
  0
VERTEX
  5
86B
  8
0
 10
330.34436604318881
 20
215.9948677236323
 30
0.0
  0
VERTEX
  5
86C
  8
0
 10
330.84274444168602
 20
216.33033786703049
 30
0.0
  0
VERTEX
  5
86D
  8
0
 10
331.2291254265125
 20
216.54043240409331
 30
0.0
  0
VERTEX
  5
86E
  8
0
 10
331.42476978048018
 20
216.58078581237649
 30
0.0
  0
SEQEND
  5
86F
  8
0
  0
POLYLINE
  5
146
  8
0
 66
     1
 10
0.0
 20
0.0
 30
0.0
 70
   128
  0
VERTEX
  5
870
  8
0
 10
312.66502667780111
 20
204.5110813054246
 30
0.0
  0
VERTEX
  5
871
  8
0
 10
312.55248052565622
 20
205.33917283205469
 30
0.0
  0
VERTEX
  5
872
  8
0
 10
312.55765170955419
 20
205.3732671753298
 30
0.0
  0
SEQEND
  5
873
  8
0
  0
POLYLINE
  5
14B
  8
0
 66
     1
 10
0.0
 20
0.0
 30
0.0
 70
   128
  0
VERTEX
  5
874
  8
0
 10
331.43938141663318
 20
204.5110813054246
 30
0.0
  0
VERTEX
  5
875
  8
0
 10
331.55192756877813
 20
205.3391728320546
 30
0.0
  0
VERTEX
  5
876
  8
0
 10
331.54675638488021
 20
205.3732671753298
 30
0.0
  0
SEQEND
  5
877
  8
0
  0
POLYLINE
  5
150
  8
0
 66
     1
 10
0.0
 20
0.0
 30
0.0
 70
   128
  0
VERTEX
  5
878
  8
0
 10
331.43938141663318
 20
204.5110813054246
 30
0.0
  0
VERTEX
  5
879
  8
0
 10
331.29850698363441
 20
204.1073008133971
 30
0.0
  0
VERTEX
  5
87A
  8
0
 10
331.07844933527832
 20
203.8136620490653
 30
0.0
  0
VERTEX
  5
87B
  8
0
 10
330.78865810333087
 20
203.6483642296117
 30
0.0
  0
VERTEX
  5
87C
  8
0
 10
330.41577031341131
 20
203.59441752684339
 30
0.0
  0
VERTEX
  5
87D
  8
0
 10
329.96657119947361
 20
203.6464521114215
 30
0.0
  0
VERTEX
  5
87E
  8
0
 10
329.44580577152249
 20
203.79319469519839
 30
0.0
  0
VERTEX
  5
87F
  8
0
 10
328.55313394113421
 20
204.1590255241727
 30
0.0
  0
VERTEX
  5
880
  8
0
 10
327.53999630235592
 20
204.6607427257014
 30
0.0
  0
VERTEX
  5
881
  8
0
 10
326.06406557467972
 20
205.4410622834661
 30
0.0
  0
VERTEX
  5
882
  8
0
 10
324.41094111627473
 20
206.24199228760619
 30
0.0
  0
VERTEX
  5
883
  8
0
 10
323.58828097681601
 20
206.54795497611289
 30
0.0
  0
VERTEX
  5
884
  8
0
 10
322.70573518117658
 20
206.75463877401779
 30
0.0
  0
VERTEX
  5
885
  8
0
 10
322.05220404721712
 20
206.80312679127999
 30
0.0
  0
VERTEX
  5
886
  8
0
 10
321.11094930931853
 20
206.7037536491147
 30
0.0
  0
VERTEX
  5
887
  8
0
 10
320.16969457141983
 20
206.4301381377025
 30
0.0
  0
VERTEX
  5
888
  8
0
 10
318.74890621458752
 20
205.80403739201071
 30
0.0
  0
VERTEX
  5
889
  8
0
 10
317.40022319446928
 20
205.1021144166117
 30
0.0
  0
VERTEX
  5
88A
  8
0
 10
316.06762716873078
 20
204.40750378776499
 30
0.0
  0
VERTEX
  5
88B
  8
0
 10
314.82934899339438
 20
203.8543768300411
 30
0.0
  0
VERTEX
  5
88C
  8
0
 10
314.2291914173133
 20
203.6668766547902
 30
0.0
  0
VERTEX
  5
88D
  8
0
 10
313.69436895037711
 20
203.59443867015409
 30
0.0
  0
VERTEX
  5
88E
  8
0
 10
313.26526264736628
 20
203.66672980430911
 30
0.0
  0
VERTEX
  5
88F
  8
0
 10
312.9305477153116
 20
203.9133486053924
 30
0.0
  0
VERTEX
  5
890
  8
0
 10
312.66502667780111
 20
204.5110813054246
 30
0.0
  0
SEQEND
  5
891
  8
0
  0
LINE
  5
16B
  8
0
 10
325.30220404721729
 20
203.59441463875791
 30
0.0
 11
325.30220404721712
 21
193.86741463875811
 31
0.0
  0
LINE
  5
16C
  8
0
 10
329.05220404721729
 20
203.59441463875791
 30
0.0
 11
329.05220404721751
 21
201.0598118564765
 31
0.0
  0
LINE
  5
16D
  8
0
 10
318.80220404721689
 20
193.86741463875811
 30
0.0
 11
318.80220404721729
 21
203.59441463875791
 31
0.0
  0
LINE
  5
16E
  8
0
 10
315.05220404721729
 20
203.59441463875791
 30
0.0
 11
315.05220404721751
 21
201.0598118564765
 31
0.0
  0
LINE
  5
170
  8
0
 10
329.05220404721751
 20
201.0598118564765
 30
0.0
 11
329.05220404721729
 21
195.4353986042949
 31
0.0
  0
LINE
  5
172
  8
0
 10
315.05220404721751
 20
201.0598118564765
 30
0.0
 11
315.0522040472174
 21
195.4353986042949
 31
0.0
  0
LINE
  5
173
  8
0
 10
310.72745239431117
 20
189.36741463875811
 30
0.0
 11
310.72745239431117
 21
190.86741463875799
 31
0.0
  0
LINE
  5
174
  8
0
 10
310.72745239431117
 20
189.36741463875811
 30
0.0
 11
310.5522040472174
 21
189.36741463875811
 31
0.0
  0
LINE
  5
175
  8
0
 10
333.5522040472174
 20
189.36741463875811
 30
0.0
 11
333.37695570012352
 21
189.36741463875811
 31
0.0
  0
LINE
  5
176
  8
0
 10
333.37695570012352
 20
189.36741463875811
 30
0.0
 11
333.37695570012352
 21
190.86741463875799
 31
0.0
  0
LINE
  5
177
  8
0
 10
333.37695570012352
 20
190.86741463875799
 30
0.0
 11
310.72745239431117
 21
190.86741463875799
 31
0.0
  0
LINE
  5
178
  8
0
 10
310.5522040472174
 20
195.36741463875811
 30
0.0
 11
315.05220404721729
 21
195.36741463875811
 31
0.0
  0
LINE
  5
179
  8
0
 10
315.05220404721729
 20
195.36741463875811
 30
0.0
 11
315.05220404721729
 21
193.86741463875799
 31
0.0
  0
LINE
  5
17A
  8
0
 10
329.05220404721729
 20
193.86741463875799
 30
0.0
 11
315.05220404721729
 21
193.86741463875799
 31
0.0
  0
LINE
  5
17B
  8
0
 10
329.05220404721729
 20
195.36741463875811
 30
0.0
 11
329.05220404721729
 21
193.86741463875799
 31
0.0
  0
LINE
  5
17C
  8
0
 10
329.05220404721729
 20
195.36741463875811
 30
0.0
 11
333.5522040472174
 21
195.36741463875811
 31
0.0
  0
LINE
  5
17D
  8
0
 10
333.37695570012352
 20
189.36741463875811
 30
0.0
 11
333.3588392672994
 21
189.36741463875811
 31
0.0
  0
LINE
  5
17E
  8
0
 10
310.74556882713529
 20
189.36741463875811
 30
0.0
 11
310.72745239431117
 21
189.36741463875811
 31
0.0
  0
LINE
  5
17F
  8
0
 10
310.5522040472174
 20
188.86741463875811
 30
0.0
 11
310.74556882713529
 21
188.86741463875811
 31
0.0
  0
LINE
  5
180
  8
0
 10
310.74556882713529
 20
190.86741463875799
 30
0.0
 11
310.74556882713529
 21
188.86741463875811
 31
0.0
  0
LINE
  5
181
  8
0
 10
333.3588392672994
 20
188.86741463875811
 30
0.0
 11
333.3588392672994
 21
190.86741463875799
 31
0.0
  0
LINE
  5
182
  8
0
 10
333.3588392672994
 20
188.86741463875811
 30
0.0
 11
333.5522040472174
 21
188.86741463875811
 31
0.0
  0
LINE
  5
183
  8
0
 10
310.74556882713529
 20
190.86741463875799
 30
0.0
 11
333.3588392672994
 21
190.86741463875799
 31
0.0
  0
LINE
  5
184
  8
0
 10
310.5522040472174
 20
150.86741463875811
 30
0.0
 11
333.5522040472174
 21
150.86741463875811
 31
0.0
  0
LINE
  5
186
  8
0
 10
299.55220404721729
 20
136.86741463875811
 30
0.0
 11
344.5522040472174
 21
136.86741463875811
 31
0.0
  0
LINE
  5
187
  8
0
 10
333.5522040472174
 20
147.86741463875799
 30
0.0
 11
310.5522040472174
 21
147.86741463875799
 31
0.0
  0
LINE
  5
18D
  8
0
 10
88.498161888701532
 20
194.06741463875809
 30
0.0
 11
88.498161888701532
 21
198.84441463875811
 31
0.0
  0
LINE
  5
18E
  8
0
 10
82.498161888701546
 20
198.84441463875811
 30
0.0
 11
82.498161888701546
 21
194.06741463875809
 31
0.0
  0
LINE
  5
196
  8
0
 10
82.998161888701532
 20
210.84441463875811
 30
0.0
 11
82.248161888701532
 21
210.84441463875811
 31
0.0
  0
LINE
  5
197
  8
0
 10
78.498161888701475
 20
210.84441463875811
 30
0.0
 11
77.498161888701532
 21
210.84441463875811
 31
0.0
  0
LINE
  5
198
  8
0
 10
93.498161888701532
 20
210.84441463875811
 30
0.0
 11
92.498161888701475
 21
210.84441463875811
 31
0.0
  0
LINE
  5
199
  8
0
 10
88.748161888701546
 20
210.84441463875811
 30
0.0
 11
87.965314242985755
 21
210.84441463875811
 31
0.0
  0
LINE
  5
19A
  8
0
 10
88.498161888701532
 20
198.84441463875811
 30
0.0
 11
88.748161888701546
 21
198.84441463875811
 31
0.0
  0
LINE
  5
19B
  8
0
 10
92.498161888701361
 20
198.84441463875811
 30
0.0
 11
93.498161888701532
 21
198.84441463875811
 31
0.0
  0
LINE
  5
19C
  8
0
 10
77.498161888701532
 20
198.84441463875811
 30
0.0
 11
78.498161888701361
 21
198.84441463875811
 31
0.0
  0
LINE
  5
19D
  8
0
 10
82.248161888701532
 20
198.84441463875811
 30
0.0
 11
82.498161888701546
 21
198.84441463875811
 31
0.0
  0
LINE
  5
19E
  8
0
 10
93.498161888701532
 20
202.84441463875811
 30
0.0
 11
94.998161888701546
 21
202.84441463875811
 31
0.0
  0
LINE
  5
19F
  8
0
 10
94.998161888701546
 20
206.84441463875811
 30
0.0
 11
93.498161888701532
 21
206.84441463875811
 31
0.0
  0
LINE
  5
1A0
  8
0
 10
92.498161888701361
 20
213.86612202964511
 30
0.0
 11
78.498161888701361
 21
213.86612202964511
 31
0.0
  0
LINE
  5
1A2
  8
0
 10
75.998161888701532
 20
216.39441463875789
 30
0.0
 11
75.998161888701532
 21
205.3732671753298
 31
0.0
  0
LINE
  5
1A3
  8
0
 10
94.998161888701546
 20
202.84441463875811
 30
0.0
 11
94.998161888701546
 21
216.39441463875789
 31
0.0
  0
LINE
  5
1A4
  8
0
 10
94.798161888701543
 20
216.59441463875791
 30
0.0
 11
76.19816188870152
 21
216.59441463875791
 31
0.0
  0
LINE
  5
1A5
  8
0
 10
77.131893759732748
 20
203.59441463875791
 30
0.0
 11
77.498161888701532
 21
203.59441463875791
 31
0.0
  0
LINE
  5
1A6
  8
0
 10
96.998161888701532
 20
189.36741463875811
 30
0.0
 11
96.998161888701532
 21
195.36741463875811
 31
0.0
  0
LINE
  5
1A7
  8
0
 10
73.998161888701532
 20
195.36741463875811
 30
0.0
 11
73.998161888701532
 21
189.36741463875811
 31
0.0
  0
LINE
  5
1A8
  8
0
 10
96.998161888701532
 20
150.86741463875811
 30
0.0
 11
96.998161888701532
 21
188.86741463875811
 31
0.0
  0
LINE
  5
1A9
  8
0
 10
73.998161888701532
 20
188.86741463875811
 30
0.0
 11
73.998161888701532
 21
150.86741463875811
 31
0.0
  0
LINE
  5
1AA
  8
0
 10
96.998161888701532
 20
144.86741463875811
 30
0.0
 11
96.998161888701532
 21
147.86741463875799
 31
0.0
  0
LINE
  5
1AB
  8
0
 10
73.998161888701532
 20
147.86741463875799
 30
0.0
 11
73.998161888701532
 21
144.86741463875811
 31
0.0
  0
LINE
  5
1AC
  8
0
 10
107.9981618887015
 20
136.86741463875811
 30
0.0
 11
107.9981618887015
 21
144.86741463875811
 31
0.0
  0
LINE
  5
1AD
  8
0
 10
62.998161888701532
 20
144.86741463875811
 30
0.0
 11
62.998161888701532
 21
136.86741463875811
 31
0.0
  0
LINE
  5
1AE
  8
0
 10
93.498161888701532
 20
147.86741463875799
 30
0.0
 11
93.498161888701532
 21
150.86741463875811
 31
0.0
  0
LINE
  5
1AF
  8
0
 10
77.498161888701532
 20
150.86741463875811
 30
0.0
 11
77.498161888701532
 21
147.86741463875799
 31
0.0
  0
LINE
  5
1B0
  8
0
 10
83.626390268016962
 20
210.36741463875811
 30
0.0
 11
87.369933509386087
 21
210.36741463875811
 31
0.0
  0
LINE
  5
1CD
  8
0
 10
93.498161888701532
 20
198.844414638758
 30
0.0
 11
93.498161888701532
 21
210.84441463875811
 31
0.0
  0
LINE
  5
1CF
  8
0
 10
77.498161888701532
 20
198.844414638758
 30
0.0
 11
77.498161888701532
 21
210.84441463875811
 31
0.0
  0
POLYLINE
  5
1D1
  8
0
 66
     1
 10
0.0
 20
0.0
 30
0.0
 70
   128
  0
VERTEX
  5
892
  8
0
 10
87.965314242985784
 20
210.83081004328639
 30
0.0
  0
VERTEX
  5
893
  8
0
 10
87.974177904326666
 20
210.83446099163649
 30
0.0
  0
VERTEX
  5
894
  8
0
 10
87.750487842922709
 20
210.74551387568491
 30
0.0
  0
VERTEX
  5
895
  8
0
 10
87.301720900923584
 20
210.5892231743463
 30
0.0
  0
VERTEX
  5
896
  8
0
 10
86.625177772218677
 20
210.41398955985389
 30
0.0
  0
VERTEX
  5
897
  8
0
 10
86.366222370465366
 20
210.36741463875811
 30
0.0
  0
SEQEND
  5
898
  8
0
  0
ARC
  5
1D9
  8
0
 10
85.921494691747739
 20
217.8157448917064
 30
0.0
 40
7.5594523725623217
 50
247.24992022364381
 51
260.16382690849218
  0
ARC
  5
1DA
  8
0
 10
85.498161888701134
 20
215.63110555126869
 30
0.0
 40
5.5865884958934107
 50
250.42458325038419
 51
289.57541674962567
  0
POLYLINE
  5
1DB
  8
0
 66
     1
 10
0.0
 20
0.0
 30
0.0
 70
   128
  0
VERTEX
  5
899
  8
0
 10
82.511636978464338
 20
198.8510422140784
 30
0.0
  0
VERTEX
  5
89A
  8
0
 10
82.499435751247304
 20
198.84505146859979
 30
0.0
  0
VERTEX
  5
89B
  8
0
 10
82.664479100176806
 20
198.925820367651
 30
0.0
  0
VERTEX
  5
89C
  8
0
 10
83.084215127679002
 20
199.1149173689227
 30
0.0
  0
VERTEX
  5
89D
  8
0
 10
83.77902355994047
 20
199.37125863939031
 30
0.0
  0
VERTEX
  5
89E
  8
0
 10
84.733853734081194
 20
199.59235152458859
 30
0.0
  0
VERTEX
  5
89F
  8
0
 10
85.731537465612647
 20
199.64302404009129
 30
0.0
  0
VERTEX
  5
8A0
  8
0
 10
86.58932582219964
 20
199.53492890756269
 30
0.0
  0
VERTEX
  5
8A1
  8
0
 10
87.361136919833939
 20
199.324389641838
 30
0.0
  0
VERTEX
  5
8A2
  8
0
 10
88.029026661410285
 20
199.06468484423149
 30
0.0
  0
VERTEX
  5
8A3
  8
0
 10
88.430070993510824
 20
198.87816866671969
 30
0.0
  0
VERTEX
  5
8A4
  8
0
 10
88.461713157495112
 20
198.8625218273371
 30
0.0
  0
SEQEND
  5
8A5
  8
0
  0
LINE
  5
1EB
  8
0
 10
88.748161888701546
 20
213.8261234111086
 30
0.0
 11
88.748161888701546
 21
194.06741463875809
 31
0.0
  0
LINE
  5
1EC
  8
0
 10
92.498161888701546
 20
193.86741463875811
 30
0.0
 11
92.498161888701361
 21
213.8261234111086
 31
0.0
  0
LINE
  5
1ED
  8
0
 10
82.248161888701532
 20
194.06741463875809
 30
0.0
 11
82.248161888701532
 21
213.8261234111086
 31
0.0
  0
LINE
  5
1EE
  8
0
 10
78.498161888701588
 20
193.86741463875811
 30
0.0
 11
78.498161888701361
 21
213.8261234111086
 31
0.0
  0
POLYLINE
  5
1F0
  8
0
 66
     1
 10
0.0
 20
0.0
 30
0.0
 70
   128
  0
VERTEX
  5
8A6
  8
0
 10
94.744693372159773
 20
216.07338926523619
 30
0.0
  0
VERTEX
  5
8A7
  8
0
 10
94.931236758030494
 20
216.25693932149261
 30
0.0
  0
VERTEX
  5
8A8
  8
0
 10
94.993221086311465
 20
216.4385950578116
 30
0.0
  0
SEQEND
  5
8A9
  8
0
  0
ARC
  5
1F5
  8
0
 10
97.659900276974341
 20
210.6593201643054
 30
0.0
 40
6.1490304542692886
 50
118.3002547200376
 51
147.08096810544021
  0
ARC
  5
1F6
  8
0
 10
73.336423500438286
 20
210.6593201643179
 30
0.0
 40
6.1490304542542367
 50
32.919031894512763
 51
61.699745279978792
  0
POLYLINE
  5
1F7
  8
0
 66
     1
 10
0.0
 20
0.0
 30
0.0
 70
   128
  0
VERTEX
  5
8AA
  8
0
 10
76.2516304052441
 20
216.07338926523619
 30
0.0
  0
VERTEX
  5
8AB
  8
0
 10
76.065087019372612
 20
216.2569393214925
 30
0.0
  0
VERTEX
  5
8AC
  8
0
 10
76.003102691091897
 20
216.43859505781299
 30
0.0
  0
SEQEND
  5
8AD
  8
0
  0
LINE
  5
1FC
  8
0
 10
78.498161888701361
 20
213.844414638758
 30
0.0
 11
78.498161888701361
 21
214.0010311539867
 31
0.0
  0
LINE
  5
1FD
  8
0
 10
92.498161888701361
 20
213.844414638758
 30
0.0
 11
92.498161888701361
 21
214.0010311539867
 31
0.0
  0
POLYLINE
  5
1FE
  8
0
 66
     1
 10
0.0
 20
0.0
 30
0.0
 70
   128
  0
VERTEX
  5
8AE
  8
0
 10
76.251630405243688
 20
206.33975882842549
 30
0.0
  0
VERTEX
  5
8AF
  8
0
 10
76.858491451896057
 20
207.08241173031161
 30
0.0
  0
VERTEX
  5
8B0
  8
0
 10
77.39866931265955
 20
207.34441463875791
 30
0.0
  0
SEQEND
  5
8B1
  8
0
  0
LINE
  5
203
  8
0
 10
77.398669312659536
 20
207.34441463875791
 30
0.0
 11
77.498161888701532
 21
207.34441463875791
 31
0.0
  0
POLYLINE
  5
204
  8
0
 66
     1
 10
0.0
 20
0.0
 30
0.0
 70
   128
  0
VERTEX
  5
8B2
  8
0
 10
94.332312362834799
 20
206.84441463875811
 30
0.0
  0
VERTEX
  5
8B3
  8
0
 10
94.137832325507034
 20
207.08241173031161
 30
0.0
  0
VERTEX
  5
8B4
  8
0
 10
93.597654464743528
 20
207.34441463875791
 30
0.0
  0
SEQEND
  5
8B5
  8
0
  0
LINE
  5
209
  8
0
 10
93.597654464743528
 20
207.34441463875791
 30
0.0
 11
93.498161888701588
 21
207.34441463875791
 31
0.0
  0
ARC
  5
20A
  8
0
 10
77.994858637149264
 20
205.28593756740571
 30
0.0
 40
2.0370036619235381
 50
148.84608025265749
 51
202.3578555958195
  0
ARC
  5
215
  8
0
 10
77.091050566993601
 20
204.57618487806769
 30
0.0
 40
0.9822260091450562
 50
183.8004457042756
 51
272.38317602441862
  0
LINE
  5
216
  8
0
 10
96.998161888701532
 20
189.36741463875811
 30
0.0
 11
96.822913541607647
 21
189.36741463875811
 31
0.0
  0
LINE
  5
217
  8
0
 10
96.822913541607647
 20
189.36741463875811
 30
0.0
 11
96.822913541607647
 21
190.86741463875799
 31
0.0
  0
LINE
  5
219
  8
0
 10
96.804797108783575
 20
190.86741463875799
 30
0.0
 11
74.173410235795416
 21
190.86741463875799
 31
0.0
  0
LINE
  5
21A
  8
0
 10
74.173410235795416
 20
189.36741463875811
 30
0.0
 11
74.173410235795416
 21
190.86741463875799
 31
0.0
  0
LINE
  5
21B
  8
0
 10
74.173410235795416
 20
189.36741463875811
 30
0.0
 11
73.998161888701532
 21
189.36741463875811
 31
0.0
  0
LINE
  5
21D
  8
0
 10
92.498161888701546
 20
195.36741463875811
 30
0.0
 11
96.998161888701532
 21
195.36741463875811
 31
0.0
  0
LINE
  5
21E
  8
0
 10
73.998161888701532
 20
195.36741463875811
 30
0.0
 11
78.498161888701532
 21
195.36741463875811
 31
0.0
  0
LINE
  5
220
  8
0
 10
92.498161888701546
 20
193.86741463875799
 30
0.0
 11
89.744572050217243
 21
193.86741463875799
 31
0.0
  0
LINE
  5
221
  8
0
 10
81.251751727186104
 20
193.86741463875799
 30
0.0
 11
78.498161888701532
 21
193.86741463875799
 31
0.0
  0
LINE
  5
222
  8
0
 10
74.191526668619474
 20
189.36741463875811
 30
0.0
 11
74.173410235795416
 21
189.36741463875811
 31
0.0
  0
LINE
  5
223
  8
0
 10
96.822913541607647
 20
189.36741463875811
 30
0.0
 11
96.804797108783575
 21
189.36741463875811
 31
0.0
  0
LINE
  5
22C
  8
0
 10
96.804797108783575
 20
188.86741463875811
 30
0.0
 11
96.804797108783575
 21
190.86741463875799
 31
0.0
  0
LINE
  5
22D
  8
0
 10
96.804797108783575
 20
188.86741463875811
 30
0.0
 11
96.998161888701532
 21
188.86741463875811
 31
0.0
  0
LINE
  5
22E
  8
0
 10
73.998161888701532
 20
188.86741463875811
 30
0.0
 11
74.191526668619474
 21
188.86741463875811
 31
0.0
  0
LINE
  5
22F
  8
0
 10
74.191526668619474
 20
190.86741463875799
 30
0.0
 11
74.191526668619474
 21
188.86741463875811
 31
0.0
  0
LINE
  5
230
  8
0
 10
73.998161888701532
 20
150.86741463875811
 30
0.0
 11
96.998161888701532
 21
150.86741463875811
 31
0.0
  0
LINE
  5
233
  8
0
 10
96.998161888701532
 20
147.86741463875799
 30
0.0
 11
73.998161888701532
 21
147.86741463875799
 31
0.0
  0
LINE
  5
234
  8
0
 10
62.998161888701532
 20
144.86741463875799
 30
0.0
 11
107.9981618887015
 21
144.86741463875811
 31
0.0
  0
LINE
  5
237
  8
0
 10
62.998161888701532
 20
136.86741463875811
 30
0.0
 11
107.9981618887016
 21
136.86741463875811
 31
0.0
  0
LINE
  5
24A
  8
0
 10
165.2023339308015
 20
58.058435075885313
 30
0.0
 11
169.82113608431831
 21
58.05843507588537
 31
0.0
  0
LINE
  5
24B
  8
0
 10
162.89293285404219
 20
62.058435075885313
 30
0.0
 11
165.2023339308015
 21
58.058435075885313
 31
0.0
  0
LINE
  5
24C
  8
0
 10
165.20233393080119
 20
66.058435075885427
 30
0.0
 11
162.89293285404219
 21
62.058435075885313
 31
0.0
  0
LINE
  5
24D
  8
0
 10
169.8211360843182
 20
66.058435075885484
 30
0.0
 11
165.20233393080119
 21
66.058435075885427
 31
0.0
  0
LINE
  5
24E
  8
0
 10
172.13053716107669
 20
62.058435075885427
 30
0.0
 11
169.8211360843182
 21
66.058435075885484
 31
0.0
  0
LINE
  5
24F
  8
0
 10
169.82113608431831
 20
58.05843507588537
 30
0.0
 11
172.13053716107669
 21
62.058435075885427
 31
0.0
  0
LINE
  5
250
  8
0
 10
217.92929595879471
 20
58.80843507588537
 30
0.0
 11
209.01173500755979
 21
58.80843507588537
 31
0.0
  0
LINE
  5
252
  8
0
 10
209.01173500755979
 20
65.30843507588537
 30
0.0
 11
217.92929595879471
 21
65.30843507588537
 31
0.0
  0
ARC
  5
254
  8
0
 10
251.0117350075563
 20
62.05843507588537
 30
0.0
 40
9.5000000000005347
 50
278.83903159827872
 51
81.160968401722087
  0
ARC
  5
255
  8
0
 10
229.511735007467
 20
-29.141564924580742
 30
0.0
 40
84.200000000474944
 50
76.73497076973446
 51
80.730603507435106
  0
ARC
  5
256
  8
0
 10
229.51173500746731
 20
153.25843507634841
 30
0.0
 40
84.200000000471903
 50
279.26939649256582
 51
283.26502923026658
  0
ARC
  5
257
  8
0
 10
251.0117350075586
 20
62.058435075907703
 30
0.0
 40
9.4999999999780762
 50
81.160968401714925
 51
103.265029230301
  0
ARC
  5
258
  8
0
 10
251.01173500755851
 20
62.058435075864971
 30
0.0
 40
9.4999999999800462
 50
256.73497076970273
 51
278.83903159828418
  0
ARC
  5
259
  8
0
 10
229.51173500755979
 20
-29.141564924114618
 30
0.0
 40
84.199999999999989
 50
80.730603507446304
 51
90.0
  0
ARC
  5
25A
  8
0
 10
229.51173500755979
 20
153.2584350758853
 30
0.0
 40
84.199999999999989
 50
270.0000000000008
 51
279.26939649255451
  0
LINE
  5
25B
  8
0
 10
229.51173500755979
 20
69.05843507588537
 30
0.0
 11
209.01173500755979
 21
69.05843507588537
 31
0.0
  0
LINE
  5
25C
  8
0
 10
229.51173500755979
 20
55.05843507588537
 30
0.0
 11
209.01173500755979
 21
55.05843507588537
 31
0.0
  0
LINE
  5
25D
  8
0
 10
170.60055894772429
 20
59.408435075885329
 30
0.0
 11
175.51173500755971
 21
59.408435075885329
 31
0.0
  0
LINE
  5
25E
  8
0
 10
184.387330259153
 20
57.05843507588537
 30
0.0
 11
167.51173500755971
 21
57.05843507588537
 31
0.0
  0
ARC
  5
25F
  8
0
 10
184.387330259153
 20
72.05843507588537
 30
0.0
 40
5.0000000000000071
 50
270.0000000000008
 51
288.95836251956638
  0
ARC
  5
260
  8
0
 10
175.51173500755971
 20
62.05843507588537
 30
0.0
 40
2.6500000000000048
 50
270.0000000000008
 51
90.0
  0
ARC
  5
261
  8
0
 10
184.387330259153
 20
52.05843507588537
 30
0.0
 40
5.0000000000000071
 50
71.041637480434417
 51
90.0
  0
LINE
  5
262
  8
0
 10
175.51173500755971
 20
64.708435075885347
 30
0.0
 11
170.60055894772429
 21
64.708435075885347
 31
0.0
  0
LINE
  5
263
  8
0
 10
167.51173500755971
 20
67.05843507588537
 30
0.0
 11
184.387330259153
 21
67.05843507588537
 31
0.0
  0
ARC
  5
264
  8
0
 10
167.51173500755971
 20
62.05843507588537
 30
0.0
 40
5.0000000000000071
 50
90.0
 51
270.0000000000008
  0
LINE
  5
265
  8
0
 10
186.01173500755971
 20
51.05843507588537
 30
0.0
 11
186.01173500755971
 21
73.05843507588537
 31
0.0
  0
ARC
  5
266
  8
0
 10
197.51173500755971
 20
51.05843507588537
 30
0.0
 40
11.5
 50
180.0000000000004
 51
0.0
  0
ARC
  5
267
  8
0
 10
197.51173500755971
 20
62.05843507588537
 30
0.0
 40
19.650000000000009
 50
260.0000000000008
 51
280.00000000000091
  0
LINE
  5
268
  8
0
 10
209.01173500755979
 20
73.05843507588537
 30
0.0
 11
209.01173500755979
 21
51.05843507588537
 31
0.0
  0
ARC
  5
269
  8
0
 10
197.51173500755971
 20
73.05843507588537
 30
0.0
 40
11.5
 50
0.0
 51
180.0000000000004
  0
ARC
  5
26A
  8
0
 10
197.51173500755971
 20
62.05843507588537
 30
0.0
 40
19.649999999999999
 50
79.999999999999943
 51
100.0
  0
ARC
  5
26B
  8
0
 10
194.55971598722189
 20
78.80016687709292
 30
0.0
 40
2.6500000000000039
 50
99.999999999999758
 51
280.00000000000119
  0
ARC
  5
26C
  8
0
 10
197.51173500755971
 20
62.05843507588537
 30
0.0
 40
14.35000000000001
 50
79.999999999999972
 51
99.999999999999915
  0
ARC
  5
26D
  8
0
 10
200.46375402789761
 20
78.80016687709292
 30
0.0
 40
2.6500000000000039
 50
260.0000000000004
 51
80.000000000000242
  0
ARC
  5
26E
  8
0
 10
200.46375402789761
 20
45.316703274677813
 30
0.0
 40
2.6500000000000039
 50
280.00000000000063
 51
100.0000000000004
  0
ARC
  5
26F
  8
0
 10
197.51173500755971
 20
62.05843507588537
 30
0.0
 40
14.350000000000019
 50
260.00000000000091
 51
280.00000000000091
  0
ARC
  5
270
  8
0
 10
194.55971598722189
 20
45.316703274677813
 30
0.0
 40
2.6500000000000039
 50
79.999999999999616
 51
260.00000000000102
  0
LINE
  5
278
  8
0
 10
389.84394290137948
 20
210.96669596202699
 30
0.0
 11
389.84394290137948
 21
206.80312679127999
 31
0.0
  0
LINE
  5
279
  8
0
 10
464.34394290137777
 20
190.86741463875799
 30
0.0
 11
464.34394290137777
 21
193.86741463875799
 31
0.0
  0
LINE
  5
27A
  8
0
 10
441.34394290137772
 20
193.86741463875799
 30
0.0
 11
441.34394290137772
 21
190.86741463875799
 31
0.0
  0
LINE
  5
27B
  8
0
 10
464.34394290137777
 20
150.86741463875811
 30
0.0
 11
464.34394290137777
 21
176.86741463875811
 31
0.0
  0
LINE
  5
27C
  8
0
 10
441.34394290137772
 20
190.86741463875799
 30
0.0
 11
441.34394290137772
 21
150.86741463875811
 31
0.0
  0
LINE
  5
27E
  8
0
 10
464.34394290137777
 20
144.86741463875811
 30
0.0
 11
464.34394290137777
 21
147.86741463875799
 31
0.0
  0
LINE
  5
27F
  8
0
 10
441.34394290137772
 20
147.86741463875799
 30
0.0
 11
441.34394290137772
 21
144.86741463875811
 31
0.0
  0
LINE
  5
280
  8
0
 10
460.84394290137777
 20
147.86741463875799
 30
0.0
 11
460.84394290137777
 21
150.86741463875811
 31
0.0
  0
LINE
  5
281
  8
0
 10
444.84394290137772
 20
150.86741463875811
 30
0.0
 11
444.84394290137772
 21
147.86741463875799
 31
0.0
  0
CIRCLE
  5
29C
  8
0
 10
452.84394290137772
 20
204.84441463875811
 30
0.0
 40
6.000000000000056
  0
ARC
  5
29E
  8
0
 10
407.2812858652112
 20
190.3444146387568
 30
0.0
 40
17.000000000001322
 50
90.000000000002487
 51
109.7963071629798
  0
ARC
  5
29F
  8
0
 10
427.84394290137772
 20
370.35577827512537
 30
0.0
 40
156.51136363636729
 50
260.3186922164042
 51
267.43658044494492
  0
ARC
  5
2A0
  8
0
 10
397.84394290137629
 20
208.0944146387605
 30
0.0
 40
8.4999999999978009
 50
79.525047866362314
 51
160.2500772043704
  0
ARC
  5
2A1
  8
0
 10
394.84394290137652
 20
209.09441463874759
 30
0.0
 40
5.4999999999921583
 50
204.61997732859339
 51
303.55730976199271
  0
ARC
  5
2A2
  8
0
 10
407.28128586519131
 20
190.34441463879739
 30
0.0
 40
16.99999999995644
 50
109.7963071629628
 51
123.5573097619402
  0
POLYLINE
  5
2A3
  8
0
 66
     1
 10
0.0
 20
0.0
 30
0.0
 70
   128
  0
VERTEX
  5
8B6
  8
0
 10
401.52377214364031
 20
216.07338926523619
 30
0.0
  0
VERTEX
  5
8B7
  8
0
 10
400.4695976040457
 20
216.2569393214925
 30
0.0
  0
VERTEX
  5
8B8
  8
0
 10
399.3892910178987
 20
216.45275772807679
 30
0.0
  0
SEQEND
  5
8B9
  8
0
  0
LINE
  5
2A8
  8
0
 10
452.84394290137777
 20
213.84441463875811
 30
0.0
 11
427.84394290137772
 21
213.844414638758
 31
0.0
  0
ARC
  5
2A9
  8
0
 10
432.42638195014371
 20
197.3444146387582
 30
0.0
 40
10.0
 50
21.81060729143471
 51
90.000000000005215
  0
ARC
  5
2AA
  8
0
 10
452.28090801378289
 20
205.22380035569941
 30
0.0
 40
11.36095132876363
 50
201.50100765540671
 51
240.17712087073679
  0
POLYLINE
  5
2AB
  8
0
 66
     1
 10
0.0
 20
0.0
 30
0.0
 70
   128
  0
VERTEX
  5
8BA
  8
0
 10
457.6615404925052
 20
195.36741463875811
 30
0.0
  0
VERTEX
  5
8BB
  8
0
 10
458.73600129286291
 20
196.02604657739639
 30
0.0
  0
VERTEX
  5
8BC
  8
0
 10
460.2563665118609
 20
197.43199102827481
 30
0.0
  0
VERTEX
  5
8BD
  8
0
 10
461.45667417599748
 20
199.089384818491
 30
0.0
  0
VERTEX
  5
8BE
  8
0
 10
462.30042734133821
 20
200.92741053135609
 30
0.0
  0
VERTEX
  5
8BF
  8
0
 10
462.76106201967229
 20
202.87161866272541
 30
0.0
  0
VERTEX
  5
8C0
  8
0
 10
462.83244290137748
 20
204.844414638758
 30
0.0
  0
VERTEX
  5
8C1
  8
0
 10
462.51876102138118
 20
206.7686972803489
 30
0.0
  0
VERTEX
  5
8C2
  8
0
 10
461.84379988239488
 20
208.57227745971349
 30
0.0
  0
VERTEX
  5
8C3
  8
0
 10
460.84045402187849
 20
210.18732577893431
 30
0.0
  0
VERTEX
  5
8C4
  8
0
 10
459.55739145865812
 20
211.5578631960384
 30
0.0
  0
VERTEX
  5
8C5
  8
0
 10
458.0498254703358
 20
212.6352889725172
 30
0.0
  0
VERTEX
  5
8C6
  8
0
 10
456.3826644358868
 20
213.38764416083151
 30
0.0
  0
VERTEX
  5
8C7
  8
0
 10
454.62390400663298
 20
213.7920873957344
 30
0.0
  0
VERTEX
  5
8C8
  8
0
 10
452.84394290137777
 20
213.84441463875811
 30
0.0
  0
SEQEND
  5
8C9
  8
0
  0
LINE
  5
2BC
  8
0
 10
407.28128586521092
 20
207.34441463875771
 30
0.0
 11
432.42638195014268
 21
207.3444146387582
 31
0.0
  0
ARC
  5
2BD
  8
0
 10
427.84394290137709
 20
370.355778275121
 30
0.0
 40
156.511363636363
 50
267.43658044494498
 51
270.00000000000102
  0
LINE
  5
2BF
  8
0
 10
454.84394290137772
 20
189.36741463875811
 30
0.0
 11
454.84394290137772
 21
190.86741463875799
 31
0.0
  0
LINE
  5
2C0
  8
0
 10
450.84394290137772
 20
189.36741463875811
 30
0.0
 11
450.84394290137772
 21
190.86741463875799
 31
0.0
  0
LINE
  5
2C1
  8
0
 10
450.84394290137772
 20
190.86741463875799
 30
0.0
 11
441.34394290137772
 21
190.86741463875799
 31
0.0
  0
LINE
  5
2C2
  8
0
 10
443.71979910593052
 20
193.86741463875799
 30
0.0
 11
441.34394290137772
 21
193.86741463875799
 31
0.0
  0
LINE
  5
2C3
  8
0
 10
443.71979910593052
 20
195.36741463875811
 30
0.0
 11
443.71979910593052
 21
193.86741463875799
 31
0.0
  0
LINE
  5
2C4
  8
0
 10
461.96808669682508
 20
195.36741463875811
 30
0.0
 11
461.96808669682508
 21
193.86741463875799
 31
0.0
  0
LINE
  5
2C5
  8
0
 10
464.34394290137777
 20
193.86741463875799
 30
0.0
 11
461.96808669682508
 21
193.86741463875799
 31
0.0
  0
LINE
  5
2C6
  8
0
 10
454.84394290137772
 20
189.36741463875811
 30
0.0
 11
450.84394290137772
 21
189.36741463875811
 31
0.0
  0
LINE
  5
2C7
  8
0
 10
443.71979910593052
 20
195.36741463875811
 30
0.0
 11
461.96808669682508
 21
195.36741463875811
 31
0.0
  0
LINE
  5
2C9
  8
0
 10
450.74394290137781
 20
188.86741463875811
 30
0.0
 11
450.74394290137781
 21
190.86741463875799
 31
0.0
  0
LINE
  5
2CA
  8
0
 10
454.94394290137768
 20
190.86741463875799
 30
0.0
 11
454.94394290137768
 21
188.86741463875811
 31
0.0
  0
LINE
  5
2CC
  8
0
 10
450.74394290137781
 20
188.86741463875811
 30
0.0
 11
454.94394290137768
 21
188.86741463875811
 31
0.0
  0
LINE
  5
2CD
  8
0
 10
441.34394290137772
 20
150.86741463875811
 30
0.0
 11
464.34394290137777
 21
150.86741463875811
 31
0.0
  0
LINE
  5
2D0
  8
0
 10
464.34394290137777
 20
176.86741463875811
 30
0.0
 11
487.84394290137772
 21
176.86741463875811
 31
0.0
  0
LINE
  5
2D1
  8
0
 10
454.84394290137772
 20
190.86741463875799
 30
0.0
 11
487.84394290137772
 21
190.86741463875799
 31
0.0
  0
LINE
  5
2D4
  8
0
 10
441.34394290137772
 20
144.86741463875811
 30
0.0
 11
441.34394290137772
 21
136.86741463875811
 31
0.0
  0
LINE
  5
2D5
  8
0
 10
441.34394290137772
 20
144.86741463875811
 30
0.0
 11
464.34394290137777
 21
144.86741463875811
 31
0.0
  0
LINE
  5
2D6
  8
0
 10
464.34394290137777
 20
144.86741463875811
 30
0.0
 11
464.34394290137777
 21
136.86741463875811
 31
0.0
  0
LINE
  5
2D7
  8
0
 10
441.34394290137772
 20
136.86741463875811
 30
0.0
 11
464.34394290137777
 21
136.86741463875811
 31
0.0
  0
LINE
  5
2D8
  8
0
 10
464.34394290137777
 20
147.86741463875799
 30
0.0
 11
441.34394290137772
 21
147.86741463875799
 31
0.0
  0
LINE
  5
2ED
  8
1
 10
160.01173500755971
 20
62.058435075885313
 30
0.0
 11
263.01173500755681
 21
62.05843507588537
 31
0.0
  0
LINE
  5
2EE
  8
1
 10
197.51173500755959
 20
87.058435075885384
 30
0.0
 11
197.51173500755971
 21
37.05843507588537
 31
0.0
  0
ARC
  5
2EF
  8
1
 10
197.51173500755971
 20
62.058435075885313
 30
0.0
 40
17.000000000000039
 50
62.575682164974282
 51
117.4243178350256
  0
ARC
  5
2F2
  8
1
 10
197.51173500755971
 20
62.058435075885427
 30
0.0
 40
17.000000000000039
 50
242.57568216497441
 51
297.4243178350257
  0
LINE
  5
2F5
  8
1
 10
167.51173500755959
 20
165.667414638758
 30
0.0
 11
167.51173500755959
 21
199.45931539521021
 31
0.0
  0
LINE
  5
2F9
  8
1
 10
167.51173500755971
 20
54.55843507588537
 30
0.0
 11
167.51173500755971
 21
69.55843507588537
 31
0.0
  0
LINE
  5
301
  8
1
 10
85.498161888701532
 20
131.86741463875811
 30
0.0
 11
85.498161888701532
 21
221.59441463875791
 31
0.0
  0
LINE
  5
31A
  8
1
 10
102.4981618887015
 20
147.36741463875811
 30
0.0
 11
102.4981618887015
 21
134.36741463875799
 31
0.0
  0
LINE
  5
31B
  8
1
 10
68.498161888701588
 20
147.36741463875811
 30
0.0
 11
68.498161888701588
 21
134.36741463875799
 31
0.0
  0
LINE
  5
31D
  8
1
 10
197.51173500755971
 20
131.86741463875811
 30
0.0
 11
197.51173500755991
 21
218.84441463875811
 31
0.0
  0
LINE
  5
31E
  8
1
 10
206.01173500755979
 20
204.84441463875811
 30
0.0
 11
189.01173500755971
 21
204.84441463875811
 31
0.0
  0
LINE
  5
320
  8
1
 10
160.01173500755971
 20
286.4808532883643
 30
0.0
 11
263.01173500755681
 21
286.4808532883643
 31
0.0
  0
ARC
  5
321
  8
1
 10
197.51173500755971
 20
286.4808532883643
 30
0.0
 40
17.000000000000039
 50
242.57568216497441
 51
297.4243178350257
  0
ARC
  5
322
  8
1
 10
197.51173500755971
 20
286.48085328836419
 30
0.0
 40
17.000000000000039
 50
62.575682164974317
 51
117.4243178350256
  0
LINE
  5
323
  8
1
 10
167.51173500755971
 20
293.98085328836419
 30
0.0
 11
167.51173500755971
 21
278.98085328836419
 31
0.0
  0
LINE
  5
324
  8
1
 10
197.51173500755959
 20
261.4808532883643
 30
0.0
 11
197.51173500755971
 21
311.4808532883643
 31
0.0
  0
LINE
  5
327
  8
1
 10
452.84394290137772
 20
131.86741463875811
 30
0.0
 11
452.84394290137749
 21
218.84441463875811
 31
0.0
  0
LINE
  5
328
  8
1
 10
482.84394290137777
 20
165.667414638758
 30
0.0
 11
482.84394290137777
 21
199.45931539521021
 31
0.0
  0
LINE
  5
329
  8
1
 10
444.34394290137772
 20
204.84441463875811
 30
0.0
 11
461.34394290137777
 21
204.84441463875811
 31
0.0
  0
LINE
  5
32A
  8
1
 10
482.84394290137777
 20
165.667414638758
 30
0.0
 11
482.84394290137777
 21
199.45931539521021
 31
0.0
  0
LINE
  5
32B
  8
0
 10
487.84394290137772
 20
190.86741463875799
 30
0.0
 11
487.84394290137772
 21
176.86741463875811
 31
0.0
  0
LINE
  5
346
  8
1
 10
305.05220404721729
 20
147.36741463875811
 30
0.0
 11
305.05220404721729
 21
134.36741463875799
 31
0.0
  0
LINE
  5
347
  8
1
 10
322.05220404721729
 20
131.86741463875811
 30
0.0
 11
322.05220404721729
 21
221.59441463875791
 31
0.0
  0
LINE
  5
348
  8
1
 10
339.05220404721729
 20
147.36741463875811
 30
0.0
 11
339.05220404721729
 21
134.36741463875799
 31
0.0
  0
LINE
  5
4FE
  8
0
 10
83.998161888701588
 20
194.24476490794771
 30
0.0
 11
86.998161888701574
 21
194.2447649079478
 31
0.0
  0
LINE
  5
4FF
  8
0
 10
83.998161888701588
 20
196.66741463875809
 30
0.0
 11
86.998161888701532
 21
196.66741463875809
 31
0.0
  0
LINE
  5
501
  8
0
 10
90.116964042218626
 20
193.65241402193141
 30
0.0
 11
89.398161888704408
 21
194.06741463875801
 31
0.0
  0
ARC
  5
502
  8
0
 10
88.962263503839395
 20
191.96502141309389
 30
0.0
 40
2.044658198744437
 50
64.384247466680407
 51
124.3842474679283
  0
ARC
  5
503
  8
0
 10
85.498161888714492
 20
186.36694520180231
 30
0.0
 40
7.6427344100359971
 50
72.412046225974748
 51
107.58795377422631
  0
LINE
  5
504
  8
0
 10
80.879359735184664
 20
193.65241402193141
 30
0.0
 11
81.598161888698868
 21
194.06741463875801
 31
0.0
  0
ARC
  5
505
  8
0
 10
82.034060273563924
 20
191.96502141309389
 30
0.0
 40
2.044658198744437
 50
55.615752532071582
 51
115.61575253331939
  0
LINE
  5
506
  8
0
 10
81.598161888700645
 20
194.06741463875809
 30
0.0
 11
89.398161888704223
 21
194.06741463875801
 31
0.0
  0
LINE
  5
507
  8
0
 10
80.879359735184664
 20
193.65241402193141
 30
0.0
 11
80.879359735184664
 21
191.2824152555844
 31
0.0
  0
LINE
  5
508
  8
0
 10
89.398161888704692
 20
190.86741463875799
 30
0.0
 11
81.598161888698542
 21
190.86741463875799
 31
0.0
  0
ARC
  5
509
  8
0
 10
88.962263503839395
 20
192.96980786442199
 30
0.0
 40
2.044658198744437
 50
235.6157525320717
 51
295.61575253331938
  0
LINE
  5
50A
  8
0
 10
90.116964042218626
 20
191.2824152555844
 30
0.0
 11
89.398161888704408
 21
190.86741463875779
 31
0.0
  0
ARC
  5
50B
  8
0
 10
85.498161888714492
 20
198.56788407571349
 30
0.0
 40
7.6427344100359971
 50
252.41204622577359
 51
287.58795377402532
  0
LINE
  5
50C
  8
0
 10
80.879359735184664
 20
191.2824152555844
 30
0.0
 11
81.598161888698868
 21
190.86741463875779
 31
0.0
  0
ARC
  5
50D
  8
0
 10
82.034060273563924
 20
192.96980786442199
 30
0.0
 40
2.044658198744437
 50
244.38424746668059
 51
304.38424746792839
  0
LINE
  5
50E
  8
0
 10
83.188760811943155
 20
193.65241402192129
 30
0.0
 11
83.188760811951227
 21
191.28241525558991
 31
0.0
  0
LINE
  5
50F
  8
0
 10
90.116964042218456
 20
193.65241402193129
 30
0.0
 11
90.116964042218626
 21
191.2824152555844
 31
0.0
  0
LINE
  5
510
  8
0
 10
87.807562965460136
 20
191.28241525560119
 30
0.0
 11
87.807562965460136
 21
193.65241402192339
 31
0.0
  0
LINE
  5
511
  8
0
 10
87.998161888701574
 20
171.667414638758
 30
0.0
 11
87.998161888701574
 21
173.667414638758
 31
0.0
  0
LINE
  5
512
  8
0
 10
82.998161888701574
 20
173.667414638758
 30
0.0
 11
82.998161888701574
 21
171.667414638758
 31
0.0
  0
LINE
  5
513
  8
0
 10
81.498161888701517
 20
173.667414638758
 30
0.0
 11
89.498161888701532
 21
173.667414638758
 31
0.0
  0
LINE
  5
514
  8
0
 10
81.498161888701517
 20
176.86741463875811
 30
0.0
 11
81.498161888701517
 21
173.667414638758
 31
0.0
  0
LINE
  5
515
  8
0
 10
85.498161888701574
 20
176.86741463875811
 30
0.0
 11
85.498161888701574
 21
173.667414638758
 31
0.0
  0
LINE
  5
516
  8
0
 10
89.498161888701532
 20
176.86741463875811
 30
0.0
 11
89.498161888701532
 21
173.667414638758
 31
0.0
  0
LINE
  5
517
  8
0
 10
85.498161888701475
 20
168.88241525558351
 30
0.0
 11
85.498161888708808
 21
171.25241402193149
 31
0.0
  0
LINE
  5
518
  8
0
 10
81.598161888702634
 20
168.46741463875799
 30
0.0
 11
89.398161888700486
 21
168.46741463875799
 31
0.0
  0
LINE
  5
519
  8
0
 10
89.398161888700145
 20
171.667414638758
 30
0.0
 11
81.598161888702847
 21
171.667414638758
 31
0.0
  0
LINE
  5
51A
  8
0
 10
81.498161888701517
 20
171.6096796118382
 30
0.0
 11
81.598161888702919
 21
171.667414638758
 31
0.0
  0
ARC
  5
51B
  8
0
 10
83.498161888701532
 20
165.8329706055107
 30
0.0
 40
5.7767090063276196
 50
69.743841999655899
 51
110.2561580003441
  0
ARC
  5
51C
  8
0
 10
83.498161888701532
 20
174.30185867200521
 30
0.0
 40
5.7767090063276196
 50
249.7438419996559
 51
290.2561580003441
  0
LINE
  5
51D
  8
0
 10
81.498161888701517
 20
168.5251496656775
 30
0.0
 11
81.598161888702919
 21
168.46741463875779
 31
0.0
  0
LINE
  5
51E
  8
0
 10
81.498161888701361
 20
171.6096796118382
 30
0.0
 11
81.498161888701588
 21
168.5251496656775
 31
0.0
  0
LINE
  5
51F
  8
0
 10
89.498161888701716
 20
171.6096796118382
 30
0.0
 11
89.498161888701475
 21
168.5251496656775
 31
0.0
  0
LINE
  5
520
  8
0
 10
89.498161888701532
 20
168.5251496656775
 30
0.0
 11
89.398161888700145
 21
168.46741463875779
 31
0.0
  0
ARC
  5
521
  8
0
 10
87.498161888701546
 20
174.30185867200521
 30
0.0
 40
5.7767090063276196
 50
249.7438419996559
 51
290.2561580003441
  0
ARC
  5
522
  8
0
 10
87.498161888701546
 20
165.8329706055107
 30
0.0
 40
5.7767090063276196
 50
69.743841999655899
 51
110.2561580003441
  0
LINE
  5
523
  8
0
 10
89.498161888701532
 20
171.6096796118382
 30
0.0
 11
89.398161888700145
 21
171.667414638758
 31
0.0
  0
LINE
  5
524
  8
3
 10
83.431161888701297
 20
171.667414638758
 30
0.0
 11
83.431161888701354
 21
173.667414638758
 31
0.0
  0
LINE
  5
525
  8
3
 10
87.565161888701695
 20
171.667414638758
 30
0.0
 11
87.565161888701695
 21
173.667414638758
 31
0.0
  0
LINE
  5
526
  8
0
 10
87.305341565674041
 20
194.06741463875809
 30
0.0
 11
86.998161888701574
 21
194.24476490794771
 31
0.0
  0
LINE
  5
527
  8
0
 10
83.998161888701588
 20
194.24476490794771
 30
0.0
 11
83.690982211729079
 21
194.06741463875809
 31
0.0
  0
ARC
  5
528
  8
0
 10
85.498161888701574
 20
192.95931539521021
 30
0.0
 40
4.0000000000000098
 50
67.975687162958693
 51
112.0243128370419
  0
LINE
  5
529
  8
0
 10
86.998161888701574
 20
194.24476490794771
 30
0.0
 11
86.998161888701532
 21
196.66741463875809
 31
0.0
  0
LINE
  5
52A
  8
0
 10
83.998161888701588
 20
196.66741463875809
 30
0.0
 11
83.998161888701588
 21
194.24476490794771
 31
0.0
  0
LINE
  5
547
  8
0
 10
80.498161888701574
 20
190.86741463875799
 30
0.0
 11
80.498161888701574
 21
176.86741463875811
 31
0.0
  0
LINE
  5
548
  8
0
 10
90.498161888701532
 20
190.86741463875799
 30
0.0
 11
90.498161888701532
 21
176.86741463875811
 31
0.0
  0
LINE
  5
549
  8
0
 10
78.528464919004591
 20
176.86741463875811
 30
0.0
 11
78.528464919004591
 21
190.86741463875799
 31
0.0
  0
LINE
  5
54A
  8
0
 10
92.467858858398529
 20
190.86741463875799
 30
0.0
 11
92.467858858398529
 21
176.86741463875811
 31
0.0
  0
LINE
  5
54B
  8
0
 10
92.467858858398529
 20
176.86741463875811
 30
0.0
 11
78.528464919004591
 21
176.86741463875811
 31
0.0
  0
ARC
  5
55B
  8
0
 10
76.19816188870152
 20
216.39441463875789
 30
0.0
 40
0.2
 50
90.0
 51
180.0
  0
ARC
  5
55C
  8
0
 10
94.798161888701543
 20
216.39441463875789
 30
0.0
 40
0.2
 50
0.0
 51
90.0
  0
LINE
  5
5B8
  8
0
 10
170.01173500755891
 20
171.667414638758
 30
0.0
 11
170.01173500755891
 21
173.667414638758
 31
0.0
  0
LINE
  5
5B9
  8
0
 10
165.01173500755891
 20
173.667414638758
 30
0.0
 11
165.01173500755891
 21
171.667414638758
 31
0.0
  0
LINE
  5
5BA
  8
0
 10
169.8211360843174
 20
168.167414638758
 30
0.0
 11
169.8211360843174
 21
171.667414638758
 31
0.0
  0
LINE
  5
5BB
  8
0
 10
165.20233393080039
 20
168.167414638758
 30
0.0
 11
165.20233393080039
 21
171.667414638758
 31
0.0
  0
LINE
  5
5BC
  8
0
 10
172.13053716107589
 20
171.667414638758
 30
0.0
 11
162.89293285404179
 21
171.667414638758
 31
0.0
  0
LINE
  5
5BD
  8
0
 10
172.13053716107589
 20
168.167414638758
 30
0.0
 11
162.89293285404179
 21
168.167414638758
 31
0.0
  0
LINE
  5
5BE
  8
0
 10
162.89293285404179
 20
168.167414638758
 30
0.0
 11
162.89293285404179
 21
171.667414638758
 31
0.0
  0
LINE
  5
5BF
  8
0
 10
172.13053716107589
 20
168.167414638758
 30
0.0
 11
172.13053716107589
 21
171.667414638758
 31
0.0
  0
LINE
  5
5C0
  8
0
 10
162.89293285404199
 20
176.4524140219315
 30
0.0
 11
163.61173500755621
 21
176.86741463875811
 31
0.0
  0
ARC
  5
5C1
  8
0
 10
164.0476333924212
 20
174.7650214130939
 30
0.0
 40
2.044658198744437
 50
55.615752532071582
 51
115.61575253331939
  0
ARC
  5
5C2
  8
0
 10
167.51173500757179
 20
169.16694520180241
 30
0.0
 40
7.6427344100359971
 50
72.412046225974748
 51
107.58795377422631
  0
ARC
  5
5C3
  8
0
 10
164.0476333924212
 20
175.76980786442201
 30
0.0
 40
2.044658198744437
 50
244.38424746668059
 51
304.38424746792839
  0
LINE
  5
5C4
  8
0
 10
162.89293285404199
 20
174.08241525558441
 30
0.0
 11
163.61173500755621
 21
173.6674146387578
 31
0.0
  0
ARC
  5
5C5
  8
0
 10
167.51173500757179
 20
181.3678840757135
 30
0.0
 40
7.6427344100359971
 50
252.41204622577359
 51
287.58795377402532
  0
LINE
  5
5C6
  8
0
 10
172.13053716107589
 20
174.08241525558441
 30
0.0
 11
171.4117350075617
 21
173.6674146387578
 31
0.0
  0
ARC
  5
5C7
  8
0
 10
170.9758366226967
 20
175.76980786442201
 30
0.0
 40
2.044658198744437
 50
235.6157525320717
 51
295.61575253331938
  0
ARC
  5
5C8
  8
0
 10
170.9758366226967
 20
174.7650214130939
 30
0.0
 40
2.044658198744437
 50
64.384247466680407
 51
124.3842474679283
  0
LINE
  5
5C9
  8
0
 10
172.13053716107589
 20
176.4524140219315
 30
0.0
 11
171.4117350075617
 21
176.86741463875811
 31
0.0
  0
LINE
  5
5CA
  8
0
 10
162.89293285404199
 20
176.4524140219315
 30
0.0
 11
162.89293285404199
 21
174.08241525558441
 31
0.0
  0
LINE
  5
5CB
  8
0
 10
163.61173500755791
 20
176.86741463875811
 30
0.0
 11
171.4117350075615
 21
176.86741463875811
 31
0.0
  0
LINE
  5
5CC
  8
0
 10
165.20233393080051
 20
176.4524140219213
 30
0.0
 11
165.20233393080849
 21
174.08241525559001
 31
0.0
  0
LINE
  5
5CD
  8
0
 10
169.8211360843174
 20
174.08241525560121
 30
0.0
 11
169.8211360843174
 21
176.4524140219234
 31
0.0
  0
LINE
  5
5CE
  8
0
 10
172.13053716107581
 20
176.45241402193139
 30
0.0
 11
172.13053716107589
 21
174.08241525558441
 31
0.0
  0
LINE
  5
5CF
  8
0
 10
171.41173500756199
 20
173.667414638758
 30
0.0
 11
163.61173500755581
 21
173.667414638758
 31
0.0
  0
LINE
  5
5D0
  8
3
 10
165.44473500755871
 20
171.667414638758
 30
0.0
 11
165.44473500755871
 21
173.667414638758
 31
0.0
  0
LINE
  5
5D1
  8
3
 10
169.57873500755909
 20
171.667414638758
 30
0.0
 11
169.57873500755909
 21
173.667414638758
 31
0.0
  0
LINE
  5
5D2
  8
0
 10
169.31891468453139
 20
194.06741463875801
 30
0.0
 11
169.01173500755891
 21
194.24476490794771
 31
0.0
  0
LINE
  5
5D3
  8
0
 10
166.01173500755891
 20
194.24476490794771
 30
0.0
 11
165.7045553305864
 21
194.06741463875801
 31
0.0
  0
LINE
  5
5D4
  8
0
 10
169.01173500755891
 20
194.24476490794771
 30
0.0
 11
169.01173500755891
 21
196.667414638758
 31
0.0
  0
LINE
  5
5D5
  8
0
 10
166.01173500755891
 20
196.667414638758
 30
0.0
 11
166.01173500755891
 21
194.24476490794771
 31
0.0
  0
ARC
  5
5D6
  8
0
 10
167.511735007559
 20
192.95931539521021
 30
0.0
 40
4.0000000000000311
 50
67.975687162958508
 51
112.02431283704151
  0
LINE
  5
5D7
  8
0
 10
169.01173500755891
 20
194.24476490794771
 30
0.0
 11
166.01173500755891
 21
194.24476490794771
 31
0.0
  0
LINE
  5
5D8
  8
0
 10
169.01173500755891
 20
196.667414638758
 30
0.0
 11
166.01173500755891
 21
196.667414638758
 31
0.0
  0
LINE
  5
5D9
  8
0
 10
171.51173500755891
 20
194.00967961183841
 30
0.0
 11
171.4117350075575
 21
194.06741463875801
 31
0.0
  0
ARC
  5
5DA
  8
0
 10
169.51173500755891
 20
188.2329706055107
 30
0.0
 40
5.7767090063276196
 50
69.743841999655899
 51
110.2561580003441
  0
ARC
  5
5DB
  8
0
 10
169.51173500755891
 20
196.70185867200519
 30
0.0
 40
5.7767090063276196
 50
249.7438419996559
 51
290.2561580003441
  0
LINE
  5
5DC
  8
0
 10
171.51173500755891
 20
190.92514966567759
 30
0.0
 11
171.4117350075575
 21
190.86741463875791
 31
0.0
  0
LINE
  5
5DD
  8
0
 10
171.51173500755911
 20
194.00967961183841
 30
0.0
 11
171.5117350075588
 21
190.92514966567759
 31
0.0
  0
LINE
  5
5DE
  8
0
 10
163.51173500755871
 20
194.00967961183841
 30
0.0
 11
163.511735007559
 21
190.92514966567759
 31
0.0
  0
LINE
  5
5DF
  8
0
 10
163.51173500755891
 20
190.92514966567759
 30
0.0
 11
163.6117350075603
 21
190.86741463875791
 31
0.0
  0
ARC
  5
5E0
  8
0
 10
165.51173500755891
 20
196.70185867200519
 30
0.0
 40
5.7767090063276196
 50
249.7438419996559
 51
290.2561580003441
  0
ARC
  5
5E1
  8
0
 10
165.51173500755891
 20
188.2329706055107
 30
0.0
 40
5.7767090063276196
 50
69.743841999655899
 51
110.2561580003441
  0
LINE
  5
5E2
  8
0
 10
163.51173500755891
 20
194.00967961183841
 30
0.0
 11
163.6117350075603
 21
194.06741463875801
 31
0.0
  0
LINE
  5
5E3
  8
0
 10
171.4117350075575
 20
194.06741463875801
 30
0.0
 11
163.61173500756021
 21
194.06741463875801
 31
0.0
  0
LINE
  5
5E4
  8
0
 10
163.61173500755999
 20
190.86741463875811
 30
0.0
 11
171.41173500755781
 21
190.86741463875811
 31
0.0
  0
LINE
  5
5E5
  8
0
 10
167.5117350075588
 20
191.28241525558349
 30
0.0
 11
167.51173500756619
 21
193.65241402193149
 31
0.0
  0
LINE
  5
5E6
  8
0
 10
162.51173500755979
 20
176.86741463875811
 30
0.0
 11
186.01173500755971
 21
176.86741463875811
 31
0.0
  0
CIRCLE
  5
5E7
  8
0
 10
167.51173500755971
 20
286.4808532883643
 30
0.0
 40
3.8999999999999999
  0
LINE
  5
627
  8
0
 10
299.55220404721729
 20
144.86741463875811
 30
0.0
 11
344.5522040472174
 21
144.86741463875811
 31
0.0
  0
ARC
  5
628
  8
0
 10
312.75220404721722
 20
216.39441463875789
 30
0.0
 40
0.2
 50
90.0
 51
180.00000000000091
  0
ARC
  5
629
  8
0
 10
331.35220404721719
 20
216.39441463875789
 30
0.0
 40
0.2
 50
0.0
 51
90.0
  0
LINE
  5
62B
  8
3
 10
484.91094290137801
 20
171.667414638758
 30
0.0
 11
484.91094290137801
 21
173.667414638758
 31
0.0
  0
LINE
  5
62C
  8
3
 10
480.77694290137759
 20
171.667414638758
 30
0.0
 11
480.77694290137759
 21
173.667414638758
 31
0.0
  0
LINE
  5
62D
  8
0
 10
486.74394290138088
 20
173.667414638758
 30
0.0
 11
478.94394290137478
 21
173.667414638758
 31
0.0
  0
LINE
  5
62E
  8
0
 10
487.4627450548947
 20
176.45241402193139
 30
0.0
 11
487.46274505489481
 21
174.08241525558429
 31
0.0
  0
LINE
  5
62F
  8
0
 10
485.15334397813638
 20
174.08241525560121
 30
0.0
 11
485.15334397813638
 21
176.45241402192329
 31
0.0
  0
LINE
  5
630
  8
0
 10
480.5345418246194
 20
176.4524140219213
 30
0.0
 11
480.53454182462741
 21
174.08241525559001
 31
0.0
  0
LINE
  5
631
  8
0
 10
478.94394290137689
 20
176.86741463875811
 30
0.0
 11
486.74394290138042
 21
176.86741463875811
 31
0.0
  0
LINE
  5
632
  8
0
 10
478.22514074786091
 20
176.4524140219315
 30
0.0
 11
478.22514074786091
 21
174.08241525558429
 31
0.0
  0
LINE
  5
633
  8
0
 10
487.46274505489481
 20
176.4524140219315
 30
0.0
 11
486.74394290138059
 21
176.86741463875811
 31
0.0
  0
ARC
  5
634
  8
0
 10
486.30804451651568
 20
174.7650214130939
 30
0.0
 40
2.044658198744437
 50
64.384247466680407
 51
124.3842474679283
  0
ARC
  5
635
  8
0
 10
486.30804451651568
 20
175.76980786442201
 30
0.0
 40
2.044658198744437
 50
235.6157525320717
 51
295.61575253331938
  0
LINE
  5
636
  8
0
 10
487.46274505489481
 20
174.08241525558429
 30
0.0
 11
486.74394290138059
 21
173.6674146387578
 31
0.0
  0
ARC
  5
637
  8
0
 10
482.84394290139079
 20
181.3678840757135
 30
0.0
 40
7.6427344100359971
 50
252.41204622577359
 51
287.58795377402532
  0
LINE
  5
638
  8
0
 10
478.22514074786091
 20
174.08241525558429
 30
0.0
 11
478.94394290137518
 21
173.6674146387578
 31
0.0
  0
ARC
  5
639
  8
0
 10
479.37984128624009
 20
175.76980786442201
 30
0.0
 40
2.044658198744437
 50
244.38424746668059
 51
304.38424746792839
  0
ARC
  5
63A
  8
0
 10
482.84394290139079
 20
169.16694520180229
 30
0.0
 40
7.6427344100359971
 50
72.412046225974748
 51
107.58795377422631
  0
ARC
  5
63B
  8
0
 10
479.37984128624009
 20
174.7650214130939
 30
0.0
 40
2.044658198744437
 50
55.615752532071582
 51
115.61575253331939
  0
LINE
  5
63C
  8
0
 10
478.22514074786091
 20
176.4524140219315
 30
0.0
 11
478.94394290137518
 21
176.86741463875811
 31
0.0
  0
LINE
  5
63D
  8
0
 10
487.46274505489481
 20
168.167414638758
 30
0.0
 11
487.46274505489481
 21
171.667414638758
 31
0.0
  0
LINE
  5
63E
  8
0
 10
478.22514074786079
 20
168.167414638758
 30
0.0
 11
478.22514074786079
 21
171.667414638758
 31
0.0
  0
LINE
  5
63F
  8
0
 10
487.46274505489481
 20
168.167414638758
 30
0.0
 11
478.22514074786079
 21
168.167414638758
 31
0.0
  0
LINE
  5
640
  8
0
 10
487.46274505489481
 20
171.667414638758
 30
0.0
 11
478.22514074786079
 21
171.667414638758
 31
0.0
  0
LINE
  5
641
  8
0
 10
480.5345418246194
 20
168.167414638758
 30
0.0
 11
480.5345418246194
 21
171.667414638758
 31
0.0
  0
LINE
  5
642
  8
0
 10
485.15334397813638
 20
168.167414638758
 30
0.0
 11
485.15334397813638
 21
171.667414638758
 31
0.0
  0
LINE
  5
643
  8
0
 10
480.34394290137789
 20
173.667414638758
 30
0.0
 11
480.34394290137789
 21
171.667414638758
 31
0.0
  0
LINE
  5
644
  8
0
 10
485.34394290137789
 20
171.667414638758
 30
0.0
 11
485.34394290137789
 21
173.667414638758
 31
0.0
  0
LINE
  5
645
  8
0
 10
482.84394290137777
 20
191.28241525558349
 30
0.0
 11
482.84394290138511
 21
193.65241402193141
 31
0.0
  0
LINE
  5
646
  8
0
 10
478.94394290137888
 20
190.86741463875799
 30
0.0
 11
486.74394290137678
 21
190.86741463875799
 31
0.0
  0
LINE
  5
647
  8
0
 10
486.7439429013765
 20
194.06741463875801
 30
0.0
 11
478.94394290137922
 21
194.06741463875801
 31
0.0
  0
LINE
  5
648
  8
0
 10
478.84394290137777
 20
194.00967961183829
 30
0.0
 11
478.94394290137927
 21
194.06741463875801
 31
0.0
  0
ARC
  5
649
  8
0
 10
480.84394290137789
 20
188.2329706055107
 30
0.0
 40
5.7767090063276196
 50
69.743841999655899
 51
110.2561580003441
  0
ARC
  5
64A
  8
0
 10
480.84394290137789
 20
196.7018586720051
 30
0.0
 40
5.7767090063276196
 50
249.7438419996559
 51
290.2561580003441
  0
LINE
  5
64B
  8
0
 10
478.84394290137777
 20
190.92514966567759
 30
0.0
 11
478.94394290137927
 21
190.86741463875779
 31
0.0
  0
LINE
  5
64C
  8
0
 10
478.8439429013776
 20
194.00967961183829
 30
0.0
 11
478.84394290137789
 21
190.92514966567759
 31
0.0
  0
LINE
  5
64D
  8
0
 10
486.84394290137811
 20
194.00967961183829
 30
0.0
 11
486.84394290137777
 21
190.92514966567759
 31
0.0
  0
LINE
  5
64E
  8
0
 10
486.84394290137777
 20
190.92514966567759
 30
0.0
 11
486.7439429013765
 21
190.86741463875779
 31
0.0
  0
ARC
  5
64F
  8
0
 10
484.84394290137789
 20
196.7018586720051
 30
0.0
 40
5.7767090063276196
 50
249.7438419996559
 51
290.2561580003441
  0
ARC
  5
650
  8
0
 10
484.84394290137789
 20
188.2329706055107
 30
0.0
 40
5.7767090063276196
 50
69.743841999655899
 51
110.2561580003441
  0
LINE
  5
651
  8
0
 10
486.84394290137777
 20
194.00967961183829
 30
0.0
 11
486.7439429013765
 21
194.06741463875801
 31
0.0
  0
LINE
  5
652
  8
0
 10
484.34394290137789
 20
196.667414638758
 30
0.0
 11
481.34394290137789
 21
196.667414638758
 31
0.0
  0
LINE
  5
653
  8
0
 10
484.34394290137789
 20
194.24476490794771
 30
0.0
 11
481.34394290137789
 21
194.24476490794771
 31
0.0
  0
ARC
  5
654
  8
0
 10
482.84394290137789
 20
192.95931539521021
 30
0.0
 40
4.0000000000000311
 50
67.975687162958508
 51
112.02431283704151
  0
LINE
  5
655
  8
0
 10
481.34394290137789
 20
196.667414638758
 30
0.0
 11
481.34394290137789
 21
194.24476490794771
 31
0.0
  0
LINE
  5
656
  8
0
 10
484.34394290137789
 20
194.24476490794771
 30
0.0
 11
484.34394290137789
 21
196.667414638758
 31
0.0
  0
LINE
  5
657
  8
0
 10
481.34394290137789
 20
194.24476490794771
 30
0.0
 11
481.03676322440538
 21
194.06741463875801
 31
0.0
  0
LINE
  5
658
  8
0
 10
484.6511225783504
 20
194.06741463875801
 30
0.0
 11
484.34394290137789
 21
194.24476490794771
 31
0.0
  0
CIRCLE
  5
73D
  8
0
 10
197.5117350075835
 20
286.48085328836248
 30
0.0
 40
2.4999999999983511
  0
CIRCLE
  5
73E
  8
3
 10
197.51173500755971
 20
286.4808532883643
 30
0.0
 40
3.0
  0
LINE
  5
747
  8
1
 10
175.51173500755971
 20
291.63085328836422
 30
0.0
 11
175.51173500755971
 21
281.33085328836421
 31
0.0
  0
LINE
  5
749
  8
1
 10
175.51173500755991
 20
67.208435075885291
 30
0.0
 11
175.51173500755991
 21
56.908435075885329
 31
0.0
  0
TEXT
  5
809
  8
0
 62
     3
 10
0.0
 20
0.0
 30
0.0
 40
10.0
  1
QLSWC150VL
  7
STANDARD1
  0
ENDSEC
  0
EOF
