  0
SECTION
  2
HEADER
  9
$ACADVER
  1
AC1009
  9
$INSBASE
 10
0.0
 20
0.0
 30
0.0
  9
$EXTMIN
 10
0.0
 20
-2.960436562073669
 30
0.0
  9
$EXTMAX
 10
502.74043849070142
 20
385.38895391533629
 30
0.0
  9
$LIMMIN
 10
0.0
 20
0.0
  9
$LIMMAX
 10
420.0
 20
297.0
  9
$ORTHOMODE
 70
     1
  9
$REGENMODE
 70
     1
  9
$FILLMODE
 70
     1
  9
$QTEXTMODE
 70
     0
  9
$MIRRTEXT
 70
     1
  9
$DRAGMODE
 70
     2
  9
$LTSCALE
 40
1.0
  9
$OSMODE
 70
    37
  9
$ATTMODE
 70
     1
  9
$TEXTSIZE
 40
2.5
  9
$TRACEWID
 40
1.0
  9
$TEXTSTYLE
  7
STANDARD
  9
$CLAYER
  8
0
  9
$CELTYPE
  6
BYLAYER
  9
$CECOLOR
 62
   256
  9
$DIMSCALE
 40
1.0
  9
$DIMASZ
 40
3.0
  9
$DIMEXO
 40
1.0
  9
$DIMDLI
 40
3.75
  9
$DIMRND
 40
0.0
  9
$DIMDLE
 40
0.0
  9
$DIMEXE
 40
1.0
  9
$DIMTP
 40
0.0
  9
$DIMTM
 40
0.0
  9
$DIMTXT
 40
4.2333333333333316
  9
$DIMCEN
 40
2.5
  9
$DIMTSZ
 40
0.0
  9
$DIMTOL
 70
     0
  9
$DIMLIM
 70
     0
  9
$DIMTIH
 70
     1
  9
$DIMTOH
 70
     1
  9
$DIMSE1
 70
     0
  9
$DIMSE2
 70
     0
  9
$DIMTAD
 70
     1
  9
$DIMZIN
 70
     0
  9
$DIMBLK
  1

  9
$DIMASO
 70
     1
  9
$DIMSHO
 70
     1
  9
$DIMPOST
  1

  9
$DIMAPOST
  1

  9
$DIMALT
 70
     0
  9
$DIMALTD
 70
     3
  9
$DIMALTF
 40
0.0393700787401575
  9
$DIMLFAC
 40
1.0
  9
$DIMTOFL
 70
     1
  9
$DIMTVP
 40
0.0
  9
$DIMTIX
 70
     0
  9
$DIMSOXD
 70
     0
  9
$DIMSAH
 70
     0
  9
$DIMBLK1
  1

  9
$DIMBLK2
  1

  9
$DIMSTYLE
  2
ISO-25
  9
$DIMCLRD
 70
     0
  9
$DIMCLRE
 70
     0
  9
$DIMCLRT
 70
     0
  9
$DIMTFAC
 40
1.0
  9
$DIMGAP
 40
1.524
  9
$LUNITS
 70
     2
  9
$LUPREC
 70
     1
  9
$SKETCHINC
 40
1.0
  9
$FILLETRAD
 40
10.0
  9
$AUNITS
 70
     0
  9
$AUPREC
 70
     0
  9
$MENU
  1
.
  9
$ELEVATION
 40
0.0
  9
$PELEVATION
 40
0.0
  9
$THICKNESS
 40
0.0
  9
$LIMCHECK
 70
     0
  9
$BLIPMODE
 70
     0
  9
$CHAMFERA
 40
10.0
  9
$CHAMFERB
 40
10.0
  9
$SKPOLY
 70
     0
  9
$TDCREATE
 40
2454988.4966681129
  9
$TDUPDATE
 40
2458590.385157824
  9
$TDINDWG
 40
0.3914125579
  9
$TDUSRTIMER
 40
0.3914125579
  9
$USRTIMER
 70
     1
  9
$ANGBASE
 50
0.0
  9
$ANGDIR
 70
     0
  9
$PDMODE
 70
     0
  9
$PDSIZE
 40
-1.0
  9
$PLINEWID
 40
0.0
  9
$COORDS
 70
     1
  9
$SPLFRAME
 70
     0
  9
$SPLINETYPE
 70
     6
  9
$SPLINESEGS
 70
     8
  9
$ATTDIA
 70
     0
  9
$ATTREQ
 70
     1
  9
$HANDLING
 70
     1
  9
$HANDSEED
  5
AC46
  9
$SURFTAB1
 70
     6
  9
$SURFTAB2
 70
     6
  9
$SURFTYPE
 70
     6
  9
$SURFU
 70
     6
  9
$SURFV
 70
     6
  9
$UCSNAME
  2

  9
$UCSORG
 10
0.0
 20
0.0
 30
0.0
  9
$UCSXDIR
 10
1.0
 20
0.0
 30
0.0
  9
$UCSYDIR
 10
0.0
 20
1.0
 30
0.0
  9
$PUCSNAME
  2

  9
$PUCSORG
 10
0.0
 20
0.0
 30
0.0
  9
$PUCSXDIR
 10
1.0
 20
0.0
 30
0.0
  9
$PUCSYDIR
 10
0.0
 20
1.0
 30
0.0
  9
$USERI1
 70
     0
  9
$USERI2
 70
     0
  9
$USERI3
 70
     0
  9
$USERI4
 70
     0
  9
$USERI5
 70
     0
  9
$USERR1
 40
0.0
  9
$USERR2
 40
0.0
  9
$USERR3
 40
0.0
  9
$USERR4
 40
0.0
  9
$USERR5
 40
0.0
  9
$WORLDVIEW
 70
     1
  9
$SHADEDGE
 70
     3
  9
$SHADEDIF
 70
    70
  9
$TILEMODE
 70
     1
  9
$MAXACTVP
 70
    64
  9
$PLIMCHECK
 70
     0
  9
$PEXTMIN
 10
1.0000000000000000E+020
 20
1.0000000000000000E+020
 30
1.0000000000000000E+020
  9
$PEXTMAX
 10
-1.0000000000000000E+020
 20
-1.0000000000000000E+020
 30
-1.0000000000000000E+020
  9
$PLIMMIN
 10
0.0
 20
0.0
  9
$PLIMMAX
 10
420.0
 20
297.0
  9
$UNITMODE
 70
     0
  9
$VISRETAIN
 70
     1
  9
$PLINEGEN
 70
     0
  9
$PSLTSCALE
 70
     1
  0
ENDSEC
  0
SECTION
  2
TABLES
  0
TABLE
  2
VPORT
 70
     1
  0
VPORT
  2
*ACTIVE
 70
     0
 10
0.0
 20
0.0
 11
1.0
 21
1.0
 12
465.32896449767259
 22
191.21518494637439
 13
0.0
 23
0.0
 14
10.0
 24
10.0
 15
10.0
 25
10.0
 16
0.0
 26
0.0
 36
1.0
 17
0.0
 27
0.0
 37
0.0
 40
391.7392485485077
 41
2.4116743471582178
 42
50.0
 43
0.0
 44
0.0
 50
0.0
 51
0.0
 71
     0
 72
  2000
 73
     1
 74
     3
 75
     0
 76
     0
 77
     0
 78
     0
  0
ENDTAB
  0
TABLE
  2
LTYPE
 70
     2
  0
LTYPE
  2
CONTINUOUS
 70
     0
  3
Solid line
 72
    65
 73
     0
 40
0.0
  0
LTYPE
  2
CENTER
 70
     0
  3
Center ____ _ ____ _ ____ _ ____ _ ____ _ ____
 72
    65
 73
     4
 40
10.16
 49
6.3499999999999988
 49
-1.27
 49
1.27
 49
-1.27
  0
ENDTAB
  0
TABLE
  2
LAYER
 70
     4
  0
LAYER
  2
0
 70
     0
 62
     7
  6
CONTINUOUS
  0
LAYER
  2
DEFPOINTS
 70
     0
 62
     7
  6
CONTINUOUS
  0
LAYER
  2
1
 70
     0
 62
     1
  6
CENTER
  0
LAYER
  2
3
 70
     0
 62
     3
  6
CONTINUOUS
  0
ENDTAB
  0
TABLE
  2
STYLE
 70
     2
  0
STYLE
  2
STANDARD
 70
     0
 40
0.0
 41
1.0
 50
0.0
 71
     0
 42
2.5
  3
txt
  4
bigfont
  0
STYLE
  2
STANDARD1
 70
     0
 40
0.0
 41
1.0
 50
0.0
 71
     0
 42
3.0
  3
txt
  4

  0
ENDTAB
  0
TABLE
  2
VIEW
 70
     0
  0
ENDTAB
  0
TABLE
  2
UCS
 70
     0
  0
ENDTAB
  0
TABLE
  2
APPID
 70
     4
  0
APPID
  2
ACAD
 70
     0
  0
APPID
  2
ACAD_MLEADERVER
 70
     0
  0
APPID
  2
ACAD_NAV_VCDISPLAY
 70
     0
  0
APPID
  2
ACAD_EXEMPT_FROM_CAD_STANDARDS
 70
     0
  0
ENDTAB
  0
TABLE
  2
DIMSTYLE
 70
     2
  0
DIMSTYLE
  2
ISO-25
 70
     0
  3

  4

  5

  6

  7

 40
1.0
 41
2.5
 42
0.625
 43
3.75
 44
1.25
 45
0.0
 46
0.0
 47
0.0
 48
0.0
140
2.5
141
2.5
142
0.0
143
0.03937007874016
144
1.0
145
0.0
146
1.0
147
0.625
 71
     0
 72
     0
 73
     0
 74
     0
 75
     0
 76
     0
 77
     1
 78
     8
170
     0
171
     3
172
     1
173
     0
174
     0
175
     0
176
     0
177
     0
178
     0
  0
DIMSTYLE
  2
STANDARD
 70
     0
  3

  4

  5

  6

  7

 40
1.0
 41
0.18
 42
0.0625
 43
0.38
 44
0.18
 45
0.0
 46
0.0
 47
0.0
 48
0.0
140
0.18
141
0.09
142
0.0
143
25.399999999999999
144
1.0
145
0.0
146
1.0
147
0.09
 71
     0
 72
     0
 73
     1
 74
     1
 75
     0
 76
     0
 77
     0
 78
     0
170
     0
171
     2
172
     0
173
     0
174
     0
175
     0
176
     0
177
     0
178
     0
  0
ENDTAB
  0
ENDSEC
  0
SECTION
  2
BLOCKS
  0
BLOCK
  8
0
  2
$MODEL_SPACE
 70
     0
 10
0.0
 20
0.0
 30
0.0
  3
$MODEL_SPACE
  1

  0
ENDBLK
  5
21
  8
0
  0
BLOCK
 67
     1
  8
0
  2
$PAPER_SPACE
 70
     0
 10
0.0
 20
0.0
 30
0.0
  3
$PAPER_SPACE
  1

  0
ENDBLK
  5
1D
 67
     1
  8
0
  0
ENDSEC
  0
SECTION
  2
ENTITIES
  0
ARC
  5
9374
  8
0
 10
208.5404371548091
 20
175.99655911512821
 30
0.0
 40
0.7999988578245915
 50
179.99988212560501
 51
269.99998447219309
  0
ARC
  5
9375
  8
0
 10
246.9404385450936
 20
175.99655911512821
 30
0.0
 40
0.7999988578246066
 50
270.0000155278106
 51
0.0001178743949172
  0
ARC
  5
937A
  8
0
 10
200.7404424511856
 20
206.19656412093161
 30
0.0
 40
6.9999958458013989
 50
359.99997185183719
 51
90.000043394120894
  0
ARC
  5
937D
  8
0
 10
173.54043832288971
 20
213.99656200428419
 30
0.0
 40
0.800002037560386
 50
179.9999764549876
 51
269.99975674091621
  0
ARC
  5
9385
  8
0
 10
212.24043712508279
 20
174.69655958518879
 30
0.0
 40
1.499999827074223
 50
270.00001957709492
 51
0.0000500410226203
  0
ARC
  5
9386
  8
0
 10
243.2404365192927
 20
174.6965579953247
 30
0.0
 40
1.499998237210423
 50
179.99988923051771
 51
270.00004115136642
  0
ARC
  5
9393
  8
0
 10
182.74043606181201
 20
241.69657031853791
 30
0.0
 40
4.9999942079487933
 50
45.572906791883433
 51
134.42709320811659
  0
LINE
  5
93A2
  8
0
 10
246.94043876190241
 20
175.19656025730359
 30
0.0
 11
208.54043693800031
 21
175.19656025730359
 31
0.0
  0
LINE
  5
93A5
  8
0
 10
224.59043761302291
 20
232.19656494371881
 30
0.0
 11
224.59043761302291
 21
235.19656357281201
 31
0.0
  0
LINE
  5
93A6
  8
0
 10
224.59043761302291
 20
232.19656494371881
 30
0.0
 11
230.89043715555729
 21
232.19656494371881
 31
0.0
  0
LINE
  5
93A7
  8
0
 10
230.89043715555729
 20
232.19656494371881
 30
0.0
 11
230.89043715555729
 21
235.19656357281201
 31
0.0
  0
LINE
  5
93B4
  8
0
 10
173.54043492634349
 20
235.19656357281201
 30
0.0
 11
224.740437358213
 21
235.19656357281201
 31
0.0
  0
LINE
  5
93B7
  8
0
 10
200.74044245119441
 20
213.19655996673299
 30
0.0
 11
182.74043419916691
 21
213.196559966731
 31
0.0
  0
LINE
  5
93B9
  8
0
 10
182.74043419916691
 20
213.196559966731
 30
0.0
 11
179.22049307782709
 21
213.196559966731
 31
0.0
  0
LINE
  5
93BA
  8
0
 10
177.13919201452791
 20
213.196559966731
 30
0.0
 11
173.54043492634349
 21
213.196559966731
 31
0.0
  0
LINE
  5
93C6
  8
0
 10
247.7404374029166
 20
170.19656027406739
 30
0.0
 11
247.74043740291651
 21
155.1965605329751
 31
0.0
  0
LINE
  5
93C8
  8
0
 10
207.74043829698621
 20
170.19656027406739
 30
0.0
 11
207.74043829698621
 21
155.1965605329751
 31
0.0
  0
LINE
  5
93C9
  8
0
 10
208.54043693800031
 20
170.19656027406739
 30
0.0
 11
246.94043876190241
 21
170.19656027406739
 31
0.0
  0
LINE
  5
93CF
  8
0
 10
208.54043693800031
 20
170.19656027406739
 30
0.0
 11
207.74043829698621
 21
170.19656027406739
 31
0.0
  0
LINE
  5
93D0
  8
0
 10
247.74043740291651
 20
170.19656027406739
 30
0.0
 11
246.94043876190241
 21
170.19656027406739
 31
0.0
  0
LINE
  5
93D3
  8
0
 10
208.54043693800031
 20
173.19655975811469
 30
0.0
 11
246.94043876190241
 21
173.19655975811469
 31
0.0
  0
LINE
  5
93DC
  8
0
 10
179.22049307782709
 20
213.196559966731
 30
0.0
 11
177.83296027739101
 21
213.196559966731
 31
0.0
  0
LINE
  5
93DF
  8
0
 10
177.83296027739101
 20
213.196559966731
 30
0.0
 11
177.13919201452791
 21
213.196559966731
 31
0.0
  0
LINE
  5
93EC
  8
0
 10
233.74043790210541
 20
267.94656255953311
 30
0.0
 11
221.740437332136
 21
267.94656255953311
 31
0.0
  0
LINE
  5
93ED
  8
0
 10
232.49043723155319
 20
269.19656136744021
 30
0.0
 11
222.99043753702699
 21
269.19656136744021
 31
0.0
  0
LINE
  5
93EF
  8
0
 10
177.83296027739101
 20
189.69656077139371
 30
0.0
 11
177.83296027739101
 21
196.696560056138
 31
0.0
  0
LINE
  5
93F1
  8
0
 10
172.92548263032489
 20
189.69656077139371
 30
0.0
 11
172.92548263032489
 21
196.696560056138
 31
0.0
  0
LINE
  5
93F3
  8
0
 10
187.647911846233
 20
189.69656077139371
 30
0.0
 11
187.647911846233
 21
196.696560056138
 31
0.0
  0
LINE
  5
93F6
  8
0
 10
192.55539135594421
 20
189.69656077139371
 30
0.0
 11
192.55539135594421
 21
196.696560056138
 31
0.0
  0
LINE
  5
93F7
  8
0
 10
192.55539135594421
 20
196.696560056138
 30
0.0
 11
172.92548263032489
 21
196.69656005613791
 31
0.0
  0
LINE
  5
93F8
  8
0
 10
192.55539135594421
 20
189.69656077139371
 30
0.0
 11
172.92548263032489
 21
189.69656077139371
 31
0.0
  0
LINE
  5
93F9
  8
0
 10
186.24043756682931
 20
242.06258651726239
 30
0.0
 11
179.2404345567947
 21
242.06258651726239
 31
0.0
  0
LINE
  5
93FA
  8
0
 10
186.24043756682931
 20
245.2672749470949
 30
0.0
 11
179.2404345567947
 21
245.2672749470949
 31
0.0
  0
LINE
  5
93FC
  8
0
 10
215.6064628023332
 20
246.19656351320739
 30
0.0
 11
239.87441243190821
 21
246.19656351320739
 31
0.0
  0
LINE
  5
93FF
  8
0
 10
240.22082158882679
 20
244.3965628456354
 30
0.0
 11
215.2600527140921
 21
244.3965628456354
 31
0.0
  0
LINE
  5
9404
  8
0
 10
236.99043796916069
 20
261.19656410925381
 30
0.0
 11
218.4904372650808
 21
261.19656410925381
 31
0.0
  0
LINE
  5
9405
  8
0
 10
216.7707827273434
 20
246.19656351320739
 30
0.0
 11
216.7707827273434
 21
260.20371464006888
 31
0.0
  0
LINE
  5
9406
  8
0
 10
222.2556100558167
 20
246.19656351320739
 30
0.0
 11
222.2556100558167
 21
260.20371464006888
 31
0.0
  0
LINE
  5
9407
  8
0
 10
233.22526471276339
 20
246.19656351320739
 30
0.0
 11
233.22526471276339
 21
260.20371464006888
 31
0.0
  0
LINE
  5
9408
  8
0
 10
238.71009157557549
 20
246.19656351320739
 30
0.0
 11
238.71009157557549
 21
260.20371464006888
 31
0.0
  0
LINE
  5
940B
  8
0
 10
208.74043846089899
 20
243.1965648841142
 30
0.0
 11
246.7404372390038
 21
243.1965648841142
 31
0.0
  0
LINE
  5
940D
  8
0
 10
230.74043741036709
 20
232.6965585064172
 30
0.0
 11
230.74043741036709
 21
235.19656357281201
 31
0.0
  0
LINE
  5
940E
  8
0
 10
230.74043741036709
 20
232.6965585064172
 30
0.0
 11
224.740437358213
 21
232.6965585064172
 31
0.0
  0
LINE
  5
940F
  8
0
 10
224.740437358213
 20
232.6965585064172
 30
0.0
 11
224.740437358213
 21
235.19656357281201
 31
0.0
  0
LINE
  5
9411
  8
0
 10
247.74043740291651
 20
235.19656357281201
 30
0.0
 11
230.74043741036709
 21
235.19656357281201
 31
0.0
  0
LINE
  5
941F
  8
1
 10
182.74043419916691
 20
234.39656493179791
 30
0.0
 11
182.74043419916691
 21
213.9965623330354
 31
0.0
  0
LINE
  5
9420
  8
0
 10
182.74043419916691
 20
213.196559966731
 30
0.0
 11
182.74043419916691
 21
213.9965623330354
 31
0.0
  0
LINE
  5
9426
  8
1
 10
227.74043738801541
 20
150.1965605329751
 30
0.0
 11
227.74043738801541
 21
274.1965613674401
 31
0.0
  0
LINE
  5
9427
  8
1
 10
182.74043738801529
 20
185.75506407662479
 30
0.0
 11
182.74043738801529
 21
251.76486082088789
 31
0.0
  0
LINE
  5
9476
  8
0
 10
182.74043559987601
 20
347.88895369181859
 30
0.0
 11
205.37975676317279
 21
347.88895369181859
 31
0.0
  0
ARC
  5
9477
  8
0
 10
182.74043738801529
 20
337.88895391533612
 30
0.0
 40
10.0
 50
90.0
 51
270.0000000000008
  0
LINE
  5
947C
  8
0
 10
205.37975676317279
 20
327.88895413885348
 30
0.0
 11
182.74043559987601
 21
327.88895413885348
 31
0.0
  0
ARC
  5
947F
  8
0
 10
227.74043738801541
 20
360.38895391533629
 30
0.0
 40
20.0
 50
0.0
 51
180.0
  0
LINE
  5
9488
  8
0
 10
247.7404369409806
 20
360.38895480940602
 30
0.0
 11
247.74043738801541
 21
315.38895423351062
 31
0.0
  0
LINE
  5
9489
  8
0
 10
207.74043738801541
 20
315.38895464713869
 30
0.0
 11
207.74043750938401
 21
327.60631932098443
 31
0.0
  0
ARC
  5
9490
  8
0
 10
227.74043738801541
 20
315.38895391533629
 30
0.0
 40
20.0
 50
180.0
 51
0.0
  0
LINE
  5
9495
  8
0
 10
192.5553908940083
 20
337.88895391533612
 30
0.0
 11
187.6479132469421
 21
346.38895437727211
 31
0.0
  0
LINE
  5
9496
  8
0
 10
187.6479132469421
 20
329.38895345340012
 30
0.0
 11
192.5553908940083
 21
337.88895391533612
 31
0.0
  0
LINE
  5
9497
  8
0
 10
177.83296167810019
 20
329.38895345340012
 30
0.0
 11
187.6479132469421
 21
329.38895345340012
 31
0.0
  0
LINE
  5
9498
  8
0
 10
172.9254840310341
 20
337.88895391533612
 30
0.0
 11
177.83296167810019
 21
329.38895345340012
 31
0.0
  0
CIRCLE
  5
9499
  8
0
 10
182.74043738801529
 20
337.88895391533612
 30
0.0
 40
5.0000000000000284
  0
LINE
  5
949A
  8
0
 10
177.83296167810019
 20
346.38895437727211
 30
0.0
 11
172.9254840310341
 21
337.88895391533612
 31
0.0
  0
LINE
  5
949B
  8
0
 10
187.6479132469421
 20
346.38895437727211
 30
0.0
 11
177.83296167810019
 21
346.38895437727211
 31
0.0
  0
CIRCLE
  5
949C
  8
0
 10
227.74043738801541
 20
337.88895391533589
 30
0.0
 40
6.0
  0
CIRCLE
  5
949E
  8
0
 10
182.74043738801529
 20
337.888953915336
 30
0.0
 40
3.500000000000028
  0
CIRCLE
  5
949F
  8
0
 10
182.74043738801529
 20
337.88895391533612
 30
0.0
 40
5.0000000000000284
  0
CIRCLE
  5
94A0
  8
0
 10
227.74043738801541
 20
337.88895391533589
 30
0.0
 40
9.25
  0
CIRCLE
  5
94A1
  8
0
 10
227.74043738801541
 20
337.88895391533589
 30
0.0
 40
6.8000000000000114
  0
CIRCLE
  5
94A9
  8
0
 10
227.74043738801541
 20
337.88895391533612
 30
0.0
 40
13.0
  0
CIRCLE
  5
94AA
  8
0
 10
227.74043738801541
 20
337.88895391533612
 30
0.0
 40
20.0
  0
LINE
  5
94C7
  8
1
 10
227.74043738801541
 20
385.38895391533629
 30
0.0
 11
227.74043738801541
 21
290.38895391533629
 31
0.0
  0
LINE
  5
94D5
  8
1
 10
167.74043738801541
 20
337.88895391533617
 30
0.0
 11
252.7404369409806
 21
337.88895391533617
 31
0.0
  0
CIRCLE
  5
9538
  8
0
 10
227.74043738801541
 20
337.88895391533612
 30
0.0
 40
13.0
  0
CIRCLE
  5
9539
  8
0
 10
227.74043738801541
 20
337.88895391533612
 30
0.0
 40
20.000000000000011
  0
ARC
  5
95AC
  8
0
 10
98.540437164497945
 20
175.99656053297511
 30
0.0
 40
0.8000000000000113
 50
180.0
 51
270.0000000000008
  0
ARC
  5
95AD
  8
0
 10
136.94043716449789
 20
175.99656053297511
 30
0.0
 40
0.8000000000000113
 50
270.0000000000008
 51
0.0
  0
ARC
  5
95B1
  8
0
 10
76.040437164497945
 20
169.39656053297509
 30
0.0
 40
0.7999999999999972
 50
90.0
 51
180.0
  0
ARC
  5
95B8
  8
0
 10
159.44043716449789
 20
169.39656053297509
 30
0.0
 40
0.7999999999999972
 50
0.0
 51
90.0
  0
ARC
  5
95BA
  8
0
 10
102.24043716449791
 20
174.6965605329751
 30
0.0
 40
1.5
 50
270.0000000000008
 51
0.0
  0
ARC
  5
95BB
  8
0
 10
133.24043716449791
 20
174.6965605329751
 30
0.0
 40
1.5
 50
180.0
 51
270.0000000000008
  0
POLYLINE
  5
95C2
  8
0
 10
129.99043716449791
 20
243.19656053297507
 30
0.0
 66
     1
 70
     8
  0
VERTEX
  8
0
  5
A836
 10
129.990
 20
243.197
 30
0.000000
  70
    32
  0
VERTEX
  8
0
  5
A837
 10
130.009
 20
243.197
 30
0.000000
  70
    32
  0
VERTEX
  8
0
  5
A838
 10
130.027
 20
243.197
 30
0.000000
  70
    32
  0
VERTEX
  8
0
  5
A839
 10
130.046
 20
243.198
 30
0.000000
  70
    32
  0
VERTEX
  8
0
  5
A83A
 10
130.064
 20
243.199
 30
0.000000
  70
    32
  0
VERTEX
  8
0
  5
A83B
 10
130.082
 20
243.201
 30
0.000000
  70
    32
  0
VERTEX
  8
0
  5
A83C
 10
130.100
 20
243.203
 30
0.000000
  70
    32
  0
VERTEX
  8
0
  5
A83D
 10
130.119
 20
243.205
 30
0.000000
  70
    32
  0
VERTEX
  8
0
  5
A83E
 10
130.137
 20
243.208
 30
0.000000
  70
    32
  0
VERTEX
  8
0
  5
A83F
 10
130.155
 20
243.211
 30
0.000000
  70
    32
  0
VERTEX
  8
0
  5
A840
 10
130.173
 20
243.215
 30
0.000000
  70
    32
  0
VERTEX
  8
0
  5
A841
 10
130.190
 20
243.218
 30
0.000000
  70
    32
  0
VERTEX
  8
0
  5
A842
 10
130.208
 20
243.222
 30
0.000000
  70
    32
  0
VERTEX
  8
0
  5
A843
 10
130.226
 20
243.227
 30
0.000000
  70
    32
  0
VERTEX
  8
0
  5
A844
 10
130.243
 20
243.232
 30
0.000000
  70
    32
  0
VERTEX
  8
0
  5
A845
 10
130.260
 20
243.237
 30
0.000000
  70
    32
  0
VERTEX
  8
0
  5
A846
 10
130.277
 20
243.242
 30
0.000000
  70
    32
  0
VERTEX
  8
0
  5
A847
 10
130.294
 20
243.248
 30
0.000000
  70
    32
  0
VERTEX
  8
0
  5
A848
 10
130.311
 20
243.254
 30
0.000000
  70
    32
  0
VERTEX
  8
0
  5
A849
 10
130.328
 20
243.261
 30
0.000000
  70
    32
  0
VERTEX
  8
0
  5
A84A
 10
130.344
 20
243.267
 30
0.000000
  70
    32
  0
VERTEX
  8
0
  5
A84B
 10
130.360
 20
243.275
 30
0.000000
  70
    32
  0
VERTEX
  8
0
  5
A84C
 10
130.376
 20
243.282
 30
0.000000
  70
    32
  0
VERTEX
  8
0
  5
A84D
 10
130.392
 20
243.290
 30
0.000000
  70
    32
  0
VERTEX
  8
0
  5
A84E
 10
130.407
 20
243.298
 30
0.000000
  70
    32
  0
VERTEX
  8
0
  5
A84F
 10
130.422
 20
243.306
 30
0.000000
  70
    32
  0
VERTEX
  8
0
  5
A850
 10
130.437
 20
243.315
 30
0.000000
  70
    32
  0
VERTEX
  8
0
  5
A851
 10
130.452
 20
243.324
 30
0.000000
  70
    32
  0
VERTEX
  8
0
  5
A852
 10
130.466
 20
243.333
 30
0.000000
  70
    32
  0
VERTEX
  8
0
  5
A853
 10
130.480
 20
243.342
 30
0.000000
  70
    32
  0
VERTEX
  8
0
  5
A854
 10
130.494
 20
243.352
 30
0.000000
  70
    32
  0
VERTEX
  8
0
  5
A855
 10
130.508
 20
243.362
 30
0.000000
  70
    32
  0
VERTEX
  8
0
  5
A856
 10
130.521
 20
243.372
 30
0.000000
  70
    32
  0
VERTEX
  8
0
  5
A857
 10
130.534
 20
243.383
 30
0.000000
  70
    32
  0
VERTEX
  8
0
  5
A858
 10
130.546
 20
243.394
 30
0.000000
  70
    32
  0
VERTEX
  8
0
  5
A859
 10
130.558
 20
243.405
 30
0.000000
  70
    32
  0
VERTEX
  8
0
  5
A85A
 10
130.570
 20
243.416
 30
0.000000
  70
    32
  0
VERTEX
  8
0
  5
A85B
 10
130.582
 20
243.427
 30
0.000000
  70
    32
  0
VERTEX
  8
0
  5
A85C
 10
130.593
 20
243.439
 30
0.000000
  70
    32
  0
VERTEX
  8
0
  5
A85D
 10
130.604
 20
243.451
 30
0.000000
  70
    32
  0
VERTEX
  8
0
  5
A85E
 10
130.614
 20
243.463
 30
0.000000
  70
    32
  0
VERTEX
  8
0
  5
A85F
 10
130.624
 20
243.476
 30
0.000000
  70
    32
  0
VERTEX
  8
0
  5
A860
 10
130.634
 20
243.488
 30
0.000000
  70
    32
  0
VERTEX
  8
0
  5
A861
 10
130.643
 20
243.501
 30
0.000000
  70
    32
  0
VERTEX
  8
0
  5
A862
 10
130.652
 20
243.514
 30
0.000000
  70
    32
  0
VERTEX
  8
0
  5
A863
 10
130.660
 20
243.527
 30
0.000000
  70
    32
  0
VERTEX
  8
0
  5
A864
 10
130.668
 20
243.540
 30
0.000000
  70
    32
  0
VERTEX
  8
0
  5
A865
 10
130.676
 20
243.553
 30
0.000000
  70
    32
  0
VERTEX
  8
0
  5
A866
 10
130.683
 20
243.567
 30
0.000000
  70
    32
  0
VERTEX
  8
0
  5
A867
 10
130.690
 20
243.581
 30
0.000000
  70
    32
  0
VERTEX
  8
0
  5
A868
 10
130.697
 20
243.594
 30
0.000000
  70
    32
  0
VERTEX
  8
0
  5
A869
 10
130.703
 20
243.608
 30
0.000000
  70
    32
  0
VERTEX
  8
0
  5
A86A
 10
130.708
 20
243.622
 30
0.000000
  70
    32
  0
VERTEX
  8
0
  5
A86B
 10
130.713
 20
243.637
 30
0.000000
  70
    32
  0
VERTEX
  8
0
  5
A86C
 10
130.718
 20
243.651
 30
0.000000
  70
    32
  0
VERTEX
  8
0
  5
A86D
 10
130.722
 20
243.665
 30
0.000000
  70
    32
  0
VERTEX
  8
0
  5
A86E
 10
130.726
 20
243.680
 30
0.000000
  70
    32
  0
VERTEX
  8
0
  5
A86F
 10
130.729
 20
243.694
 30
0.000000
  70
    32
  0
VERTEX
  8
0
  5
A870
 10
130.732
 20
243.709
 30
0.000000
  70
    32
  0
VERTEX
  8
0
  5
A871
 10
130.735
 20
243.723
 30
0.000000
  70
    32
  0
VERTEX
  8
0
  5
A872
 10
130.737
 20
243.738
 30
0.000000
  70
    32
  0
VERTEX
  8
0
  5
A873
 10
130.738
 20
243.752
 30
0.000000
  70
    32
  0
VERTEX
  8
0
  5
A874
 10
130.740
 20
243.767
 30
0.000000
  70
    32
  0
VERTEX
  8
0
  5
A875
 10
130.740
 20
243.782
 30
0.000000
  70
    32
  0
VERTEX
  8
0
  5
A876
 10
130.740
 20
243.797
 30
0.000000
  70
    32
  0
VERTEX
  8
0
  5
A877
 10
130.740
 20
243.811
 30
0.000000
  70
    32
  0
VERTEX
  8
0
  5
A878
 10
130.740
 20
243.826
 30
0.000000
  70
    32
  0
VERTEX
  8
0
  5
A879
 10
130.738
 20
243.841
 30
0.000000
  70
    32
  0
VERTEX
  8
0
  5
A87A
 10
130.737
 20
243.855
 30
0.000000
  70
    32
  0
VERTEX
  8
0
  5
A87B
 10
130.735
 20
243.870
 30
0.000000
  70
    32
  0
VERTEX
  8
0
  5
A87C
 10
130.732
 20
243.885
 30
0.000000
  70
    32
  0
VERTEX
  8
0
  5
A87D
 10
130.729
 20
243.899
 30
0.000000
  70
    32
  0
VERTEX
  8
0
  5
A87E
 10
130.726
 20
243.914
 30
0.000000
  70
    32
  0
VERTEX
  8
0
  5
A87F
 10
130.722
 20
243.928
 30
0.000000
  70
    32
  0
VERTEX
  8
0
  5
A880
 10
130.718
 20
243.942
 30
0.000000
  70
    32
  0
VERTEX
  8
0
  5
A881
 10
130.713
 20
243.957
 30
0.000000
  70
    32
  0
VERTEX
  8
0
  5
A882
 10
130.708
 20
243.971
 30
0.000000
  70
    32
  0
VERTEX
  8
0
  5
A883
 10
130.703
 20
243.985
 30
0.000000
  70
    32
  0
VERTEX
  8
0
  5
A884
 10
130.697
 20
243.999
 30
0.000000
  70
    32
  0
VERTEX
  8
0
  5
A885
 10
130.690
 20
244.012
 30
0.000000
  70
    32
  0
VERTEX
  8
0
  5
A886
 10
130.683
 20
244.026
 30
0.000000
  70
    32
  0
VERTEX
  8
0
  5
A887
 10
130.676
 20
244.040
 30
0.000000
  70
    32
  0
VERTEX
  8
0
  5
A888
 10
130.668
 20
244.053
 30
0.000000
  70
    32
  0
VERTEX
  8
0
  5
A889
 10
130.660
 20
244.066
 30
0.000000
  70
    32
  0
VERTEX
  8
0
  5
A88A
 10
130.652
 20
244.079
 30
0.000000
  70
    32
  0
VERTEX
  8
0
  5
A88B
 10
130.643
 20
244.092
 30
0.000000
  70
    32
  0
VERTEX
  8
0
  5
A88C
 10
130.634
 20
244.105
 30
0.000000
  70
    32
  0
VERTEX
  8
0
  5
A88D
 10
130.624
 20
244.118
 30
0.000000
  70
    32
  0
VERTEX
  8
0
  5
A88E
 10
130.614
 20
244.130
 30
0.000000
  70
    32
  0
VERTEX
  8
0
  5
A88F
 10
130.604
 20
244.142
 30
0.000000
  70
    32
  0
VERTEX
  8
0
  5
A890
 10
130.593
 20
244.154
 30
0.000000
  70
    32
  0
VERTEX
  8
0
  5
A891
 10
130.582
 20
244.166
 30
0.000000
  70
    32
  0
VERTEX
  8
0
  5
A892
 10
130.570
 20
244.177
 30
0.000000
  70
    32
  0
VERTEX
  8
0
  5
A893
 10
130.558
 20
244.188
 30
0.000000
  70
    32
  0
VERTEX
  8
0
  5
A894
 10
130.546
 20
244.199
 30
0.000000
  70
    32
  0
VERTEX
  8
0
  5
A895
 10
130.534
 20
244.210
 30
0.000000
  70
    32
  0
VERTEX
  8
0
  5
A896
 10
130.521
 20
244.221
 30
0.000000
  70
    32
  0
VERTEX
  8
0
  5
A897
 10
130.508
 20
244.231
 30
0.000000
  70
    32
  0
VERTEX
  8
0
  5
A898
 10
130.494
 20
244.241
 30
0.000000
  70
    32
  0
VERTEX
  8
0
  5
A899
 10
130.480
 20
244.251
 30
0.000000
  70
    32
  0
VERTEX
  8
0
  5
A89A
 10
130.466
 20
244.260
 30
0.000000
  70
    32
  0
VERTEX
  8
0
  5
A89B
 10
130.452
 20
244.270
 30
0.000000
  70
    32
  0
VERTEX
  8
0
  5
A89C
 10
130.437
 20
244.278
 30
0.000000
  70
    32
  0
VERTEX
  8
0
  5
A89D
 10
130.422
 20
244.287
 30
0.000000
  70
    32
  0
VERTEX
  8
0
  5
A89E
 10
130.407
 20
244.295
 30
0.000000
  70
    32
  0
VERTEX
  8
0
  5
A89F
 10
130.392
 20
244.303
 30
0.000000
  70
    32
  0
VERTEX
  8
0
  5
A8A0
 10
130.376
 20
244.311
 30
0.000000
  70
    32
  0
VERTEX
  8
0
  5
A8A1
 10
130.360
 20
244.319
 30
0.000000
  70
    32
  0
VERTEX
  8
0
  5
A8A2
 10
130.344
 20
244.326
 30
0.000000
  70
    32
  0
VERTEX
  8
0
  5
A8A3
 10
130.328
 20
244.332
 30
0.000000
  70
    32
  0
VERTEX
  8
0
  5
A8A4
 10
130.311
 20
244.339
 30
0.000000
  70
    32
  0
VERTEX
  8
0
  5
A8A5
 10
130.294
 20
244.345
 30
0.000000
  70
    32
  0
VERTEX
  8
0
  5
A8A6
 10
130.277
 20
244.351
 30
0.000000
  70
    32
  0
VERTEX
  8
0
  5
A8A7
 10
130.260
 20
244.356
 30
0.000000
  70
    32
  0
VERTEX
  8
0
  5
A8A8
 10
130.243
 20
244.361
 30
0.000000
  70
    32
  0
VERTEX
  8
0
  5
A8A9
 10
130.226
 20
244.366
 30
0.000000
  70
    32
  0
VERTEX
  8
0
  5
A8AA
 10
130.208
 20
244.371
 30
0.000000
  70
    32
  0
VERTEX
  8
0
  5
A8AB
 10
130.190
 20
244.375
 30
0.000000
  70
    32
  0
VERTEX
  8
0
  5
A8AC
 10
130.173
 20
244.379
 30
0.000000
  70
    32
  0
VERTEX
  8
0
  5
A8AD
 10
130.155
 20
244.382
 30
0.000000
  70
    32
  0
VERTEX
  8
0
  5
A8AE
 10
130.137
 20
244.385
 30
0.000000
  70
    32
  0
VERTEX
  8
0
  5
A8AF
 10
130.119
 20
244.388
 30
0.000000
  70
    32
  0
VERTEX
  8
0
  5
A8B0
 10
130.100
 20
244.390
 30
0.000000
  70
    32
  0
VERTEX
  8
0
  5
A8B1
 10
130.082
 20
244.392
 30
0.000000
  70
    32
  0
VERTEX
  8
0
  5
A8B2
 10
130.064
 20
244.394
 30
0.000000
  70
    32
  0
VERTEX
  8
0
  5
A8B3
 10
130.046
 20
244.395
 30
0.000000
  70
    32
  0
VERTEX
  8
0
  5
A8B4
 10
130.027
 20
244.396
 30
0.000000
  70
    32
  0
VERTEX
  8
0
  5
A8B5
 10
130.009
 20
244.396
 30
0.000000
  70
    32
  0
VERTEX
  8
0
  5
A8B6
 10
129.990
 20
244.397
 30
0.000000
  70
    32
  0
SEQEND
  8
0
  5
A8B7
  0
POLYLINE
  5
95C3
  8
0
 10
105.49043716449791
 20
244.39656053297509
 30
0.0
 66
     1
 70
     8
  0
VERTEX
  8
0
  5
A8B8
 10
105.490
 20
244.397
 30
0.000000
  70
    32
  0
VERTEX
  8
0
  5
A8B9
 10
105.472
 20
244.396
 30
0.000000
  70
    32
  0
VERTEX
  8
0
  5
A8BA
 10
105.454
 20
244.396
 30
0.000000
  70
    32
  0
VERTEX
  8
0
  5
A8BB
 10
105.435
 20
244.395
 30
0.000000
  70
    32
  0
VERTEX
  8
0
  5
A8BC
 10
105.417
 20
244.394
 30
0.000000
  70
    32
  0
VERTEX
  8
0
  5
A8BD
 10
105.399
 20
244.392
 30
0.000000
  70
    32
  0
VERTEX
  8
0
  5
A8BE
 10
105.380
 20
244.390
 30
0.000000
  70
    32
  0
VERTEX
  8
0
  5
A8BF
 10
105.362
 20
244.388
 30
0.000000
  70
    32
  0
VERTEX
  8
0
  5
A8C0
 10
105.344
 20
244.385
 30
0.000000
  70
    32
  0
VERTEX
  8
0
  5
A8C1
 10
105.326
 20
244.382
 30
0.000000
  70
    32
  0
VERTEX
  8
0
  5
A8C2
 10
105.308
 20
244.379
 30
0.000000
  70
    32
  0
VERTEX
  8
0
  5
A8C3
 10
105.290
 20
244.375
 30
0.000000
  70
    32
  0
VERTEX
  8
0
  5
A8C4
 10
105.273
 20
244.371
 30
0.000000
  70
    32
  0
VERTEX
  8
0
  5
A8C5
 10
105.255
 20
244.366
 30
0.000000
  70
    32
  0
VERTEX
  8
0
  5
A8C6
 10
105.238
 20
244.361
 30
0.000000
  70
    32
  0
VERTEX
  8
0
  5
A8C7
 10
105.221
 20
244.356
 30
0.000000
  70
    32
  0
VERTEX
  8
0
  5
A8C8
 10
105.203
 20
244.351
 30
0.000000
  70
    32
  0
VERTEX
  8
0
  5
A8C9
 10
105.187
 20
244.345
 30
0.000000
  70
    32
  0
VERTEX
  8
0
  5
A8CA
 10
105.170
 20
244.339
 30
0.000000
  70
    32
  0
VERTEX
  8
0
  5
A8CB
 10
105.153
 20
244.332
 30
0.000000
  70
    32
  0
VERTEX
  8
0
  5
A8CC
 10
105.137
 20
244.326
 30
0.000000
  70
    32
  0
VERTEX
  8
0
  5
A8CD
 10
105.121
 20
244.319
 30
0.000000
  70
    32
  0
VERTEX
  8
0
  5
A8CE
 10
105.105
 20
244.311
 30
0.000000
  70
    32
  0
VERTEX
  8
0
  5
A8CF
 10
105.089
 20
244.303
 30
0.000000
  70
    32
  0
VERTEX
  8
0
  5
A8D0
 10
105.074
 20
244.295
 30
0.000000
  70
    32
  0
VERTEX
  8
0
  5
A8D1
 10
105.059
 20
244.287
 30
0.000000
  70
    32
  0
VERTEX
  8
0
  5
A8D2
 10
105.044
 20
244.278
 30
0.000000
  70
    32
  0
VERTEX
  8
0
  5
A8D3
 10
105.029
 20
244.270
 30
0.000000
  70
    32
  0
VERTEX
  8
0
  5
A8D4
 10
105.015
 20
244.260
 30
0.000000
  70
    32
  0
VERTEX
  8
0
  5
A8D5
 10
105.001
 20
244.251
 30
0.000000
  70
    32
  0
VERTEX
  8
0
  5
A8D6
 10
104.987
 20
244.241
 30
0.000000
  70
    32
  0
VERTEX
  8
0
  5
A8D7
 10
104.973
 20
244.231
 30
0.000000
  70
    32
  0
VERTEX
  8
0
  5
A8D8
 10
104.960
 20
244.221
 30
0.000000
  70
    32
  0
VERTEX
  8
0
  5
A8D9
 10
104.947
 20
244.210
 30
0.000000
  70
    32
  0
VERTEX
  8
0
  5
A8DA
 10
104.935
 20
244.199
 30
0.000000
  70
    32
  0
VERTEX
  8
0
  5
A8DB
 10
104.923
 20
244.188
 30
0.000000
  70
    32
  0
VERTEX
  8
0
  5
A8DC
 10
104.911
 20
244.177
 30
0.000000
  70
    32
  0
VERTEX
  8
0
  5
A8DD
 10
104.899
 20
244.166
 30
0.000000
  70
    32
  0
VERTEX
  8
0
  5
A8DE
 10
104.888
 20
244.154
 30
0.000000
  70
    32
  0
VERTEX
  8
0
  5
A8DF
 10
104.877
 20
244.142
 30
0.000000
  70
    32
  0
VERTEX
  8
0
  5
A8E0
 10
104.867
 20
244.130
 30
0.000000
  70
    32
  0
VERTEX
  8
0
  5
A8E1
 10
104.857
 20
244.118
 30
0.000000
  70
    32
  0
VERTEX
  8
0
  5
A8E2
 10
104.847
 20
244.105
 30
0.000000
  70
    32
  0
VERTEX
  8
0
  5
A8E3
 10
104.838
 20
244.092
 30
0.000000
  70
    32
  0
VERTEX
  8
0
  5
A8E4
 10
104.829
 20
244.079
 30
0.000000
  70
    32
  0
VERTEX
  8
0
  5
A8E5
 10
104.821
 20
244.066
 30
0.000000
  70
    32
  0
VERTEX
  8
0
  5
A8E6
 10
104.812
 20
244.053
 30
0.000000
  70
    32
  0
VERTEX
  8
0
  5
A8E7
 10
104.805
 20
244.040
 30
0.000000
  70
    32
  0
VERTEX
  8
0
  5
A8E8
 10
104.798
 20
244.026
 30
0.000000
  70
    32
  0
VERTEX
  8
0
  5
A8E9
 10
104.791
 20
244.012
 30
0.000000
  70
    32
  0
VERTEX
  8
0
  5
A8EA
 10
104.784
 20
243.999
 30
0.000000
  70
    32
  0
VERTEX
  8
0
  5
A8EB
 10
104.778
 20
243.985
 30
0.000000
  70
    32
  0
VERTEX
  8
0
  5
A8EC
 10
104.773
 20
243.971
 30
0.000000
  70
    32
  0
VERTEX
  8
0
  5
A8ED
 10
104.768
 20
243.957
 30
0.000000
  70
    32
  0
VERTEX
  8
0
  5
A8EE
 10
104.763
 20
243.942
 30
0.000000
  70
    32
  0
VERTEX
  8
0
  5
A8EF
 10
104.759
 20
243.928
 30
0.000000
  70
    32
  0
VERTEX
  8
0
  5
A8F0
 10
104.755
 20
243.914
 30
0.000000
  70
    32
  0
VERTEX
  8
0
  5
A8F1
 10
104.751
 20
243.899
 30
0.000000
  70
    32
  0
VERTEX
  8
0
  5
A8F2
 10
104.749
 20
243.885
 30
0.000000
  70
    32
  0
VERTEX
  8
0
  5
A8F3
 10
104.746
 20
243.870
 30
0.000000
  70
    32
  0
VERTEX
  8
0
  5
A8F4
 10
104.744
 20
243.855
 30
0.000000
  70
    32
  0
VERTEX
  8
0
  5
A8F5
 10
104.742
 20
243.841
 30
0.000000
  70
    32
  0
VERTEX
  8
0
  5
A8F6
 10
104.741
 20
243.826
 30
0.000000
  70
    32
  0
VERTEX
  8
0
  5
A8F7
 10
104.741
 20
243.811
 30
0.000000
  70
    32
  0
VERTEX
  8
0
  5
A8F8
 10
104.740
 20
243.797
 30
0.000000
  70
    32
  0
VERTEX
  8
0
  5
A8F9
 10
104.741
 20
243.782
 30
0.000000
  70
    32
  0
VERTEX
  8
0
  5
A8FA
 10
104.741
 20
243.767
 30
0.000000
  70
    32
  0
VERTEX
  8
0
  5
A8FB
 10
104.742
 20
243.752
 30
0.000000
  70
    32
  0
VERTEX
  8
0
  5
A8FC
 10
104.744
 20
243.738
 30
0.000000
  70
    32
  0
VERTEX
  8
0
  5
A8FD
 10
104.746
 20
243.723
 30
0.000000
  70
    32
  0
VERTEX
  8
0
  5
A8FE
 10
104.749
 20
243.709
 30
0.000000
  70
    32
  0
VERTEX
  8
0
  5
A8FF
 10
104.751
 20
243.694
 30
0.000000
  70
    32
  0
VERTEX
  8
0
  5
A900
 10
104.755
 20
243.680
 30
0.000000
  70
    32
  0
VERTEX
  8
0
  5
A901
 10
104.759
 20
243.665
 30
0.000000
  70
    32
  0
VERTEX
  8
0
  5
A902
 10
104.763
 20
243.651
 30
0.000000
  70
    32
  0
VERTEX
  8
0
  5
A903
 10
104.768
 20
243.637
 30
0.000000
  70
    32
  0
VERTEX
  8
0
  5
A904
 10
104.773
 20
243.622
 30
0.000000
  70
    32
  0
VERTEX
  8
0
  5
A905
 10
104.778
 20
243.608
 30
0.000000
  70
    32
  0
VERTEX
  8
0
  5
A906
 10
104.784
 20
243.594
 30
0.000000
  70
    32
  0
VERTEX
  8
0
  5
A907
 10
104.791
 20
243.581
 30
0.000000
  70
    32
  0
VERTEX
  8
0
  5
A908
 10
104.798
 20
243.567
 30
0.000000
  70
    32
  0
VERTEX
  8
0
  5
A909
 10
104.805
 20
243.553
 30
0.000000
  70
    32
  0
VERTEX
  8
0
  5
A90A
 10
104.812
 20
243.540
 30
0.000000
  70
    32
  0
VERTEX
  8
0
  5
A90B
 10
104.821
 20
243.527
 30
0.000000
  70
    32
  0
VERTEX
  8
0
  5
A90C
 10
104.829
 20
243.514
 30
0.000000
  70
    32
  0
VERTEX
  8
0
  5
A90D
 10
104.838
 20
243.501
 30
0.000000
  70
    32
  0
VERTEX
  8
0
  5
A90E
 10
104.847
 20
243.488
 30
0.000000
  70
    32
  0
VERTEX
  8
0
  5
A90F
 10
104.857
 20
243.476
 30
0.000000
  70
    32
  0
VERTEX
  8
0
  5
A910
 10
104.867
 20
243.463
 30
0.000000
  70
    32
  0
VERTEX
  8
0
  5
A911
 10
104.877
 20
243.451
 30
0.000000
  70
    32
  0
VERTEX
  8
0
  5
A912
 10
104.888
 20
243.439
 30
0.000000
  70
    32
  0
VERTEX
  8
0
  5
A913
 10
104.899
 20
243.427
 30
0.000000
  70
    32
  0
VERTEX
  8
0
  5
A914
 10
104.911
 20
243.416
 30
0.000000
  70
    32
  0
VERTEX
  8
0
  5
A915
 10
104.923
 20
243.405
 30
0.000000
  70
    32
  0
VERTEX
  8
0
  5
A916
 10
104.935
 20
243.394
 30
0.000000
  70
    32
  0
VERTEX
  8
0
  5
A917
 10
104.947
 20
243.383
 30
0.000000
  70
    32
  0
VERTEX
  8
0
  5
A918
 10
104.960
 20
243.372
 30
0.000000
  70
    32
  0
VERTEX
  8
0
  5
A919
 10
104.973
 20
243.362
 30
0.000000
  70
    32
  0
VERTEX
  8
0
  5
A91A
 10
104.987
 20
243.352
 30
0.000000
  70
    32
  0
VERTEX
  8
0
  5
A91B
 10
105.001
 20
243.342
 30
0.000000
  70
    32
  0
VERTEX
  8
0
  5
A91C
 10
105.015
 20
243.333
 30
0.000000
  70
    32
  0
VERTEX
  8
0
  5
A91D
 10
105.029
 20
243.324
 30
0.000000
  70
    32
  0
VERTEX
  8
0
  5
A91E
 10
105.044
 20
243.315
 30
0.000000
  70
    32
  0
VERTEX
  8
0
  5
A91F
 10
105.059
 20
243.306
 30
0.000000
  70
    32
  0
VERTEX
  8
0
  5
A920
 10
105.074
 20
243.298
 30
0.000000
  70
    32
  0
VERTEX
  8
0
  5
A921
 10
105.089
 20
243.290
 30
0.000000
  70
    32
  0
VERTEX
  8
0
  5
A922
 10
105.105
 20
243.282
 30
0.000000
  70
    32
  0
VERTEX
  8
0
  5
A923
 10
105.121
 20
243.275
 30
0.000000
  70
    32
  0
VERTEX
  8
0
  5
A924
 10
105.137
 20
243.267
 30
0.000000
  70
    32
  0
VERTEX
  8
0
  5
A925
 10
105.153
 20
243.261
 30
0.000000
  70
    32
  0
VERTEX
  8
0
  5
A926
 10
105.170
 20
243.254
 30
0.000000
  70
    32
  0
VERTEX
  8
0
  5
A927
 10
105.187
 20
243.248
 30
0.000000
  70
    32
  0
VERTEX
  8
0
  5
A928
 10
105.203
 20
243.242
 30
0.000000
  70
    32
  0
VERTEX
  8
0
  5
A929
 10
105.221
 20
243.237
 30
0.000000
  70
    32
  0
VERTEX
  8
0
  5
A92A
 10
105.238
 20
243.232
 30
0.000000
  70
    32
  0
VERTEX
  8
0
  5
A92B
 10
105.255
 20
243.227
 30
0.000000
  70
    32
  0
VERTEX
  8
0
  5
A92C
 10
105.273
 20
243.222
 30
0.000000
  70
    32
  0
VERTEX
  8
0
  5
A92D
 10
105.290
 20
243.218
 30
0.000000
  70
    32
  0
VERTEX
  8
0
  5
A92E
 10
105.308
 20
243.215
 30
0.000000
  70
    32
  0
VERTEX
  8
0
  5
A92F
 10
105.326
 20
243.211
 30
0.000000
  70
    32
  0
VERTEX
  8
0
  5
A930
 10
105.344
 20
243.208
 30
0.000000
  70
    32
  0
VERTEX
  8
0
  5
A931
 10
105.362
 20
243.205
 30
0.000000
  70
    32
  0
VERTEX
  8
0
  5
A932
 10
105.380
 20
243.203
 30
0.000000
  70
    32
  0
VERTEX
  8
0
  5
A933
 10
105.399
 20
243.201
 30
0.000000
  70
    32
  0
VERTEX
  8
0
  5
A934
 10
105.417
 20
243.199
 30
0.000000
  70
    32
  0
VERTEX
  8
0
  5
A935
 10
105.435
 20
243.198
 30
0.000000
  70
    32
  0
VERTEX
  8
0
  5
A936
 10
105.454
 20
243.197
 30
0.000000
  70
    32
  0
VERTEX
  8
0
  5
A937
 10
105.472
 20
243.197
 30
0.000000
  70
    32
  0
VERTEX
  8
0
  5
A938
 10
105.490
 20
243.197
 30
0.000000
  70
    32
  0
SEQEND
  8
0
  5
A939
  0
ARC
  5
95CA
  8
0
 10
117.7404371644981
 20
241.6965605329751
 30
0.0
 40
5.0000000000000249
 50
45.572995999194482
 51
134.4270040008056
  0
LINE
  5
95DE
  8
0
 10
107.74043738801549
 20
235.1965627979516
 30
0.0
 11
107.74043738801549
 21
213.99656155817499
 31
0.0
  0
LINE
  5
95DF
  8
0
 10
127.7404369409807
 20
235.1965627979516
 30
0.0
 11
127.7404369409807
 21
213.99656155817499
 31
0.0
  0
LINE
  5
95E2
  8
0
 10
126.9404372676437
 20
213.1965605329751
 30
0.0
 11
108.5404371644981
 21
213.1965605329751
 31
0.0
  0
ARC
  5
95E4
  8
0
 10
108.5404371644981
 20
213.99656053297511
 30
0.0
 40
0.8000000000000042
 50
180.0
 51
270.0000000000008
  0
ARC
  5
95E5
  8
0
 10
126.94043716449811
 20
213.99656053297511
 30
0.0
 40
0.7999999999999972
 50
270.0000000000008
 51
0.0
  0
LINE
  5
95EC
  8
0
 10
136.940438076449
 20
175.19656041376581
 30
0.0
 11
98.540436252546897
 21
175.19656041376581
 31
0.0
  0
LINE
  5
95EE
  8
0
 10
137.49081619043409
 20
232.1965641688584
 30
0.0
 11
137.49081619043409
 21
235.1965627979516
 31
0.0
  0
LINE
  5
95EF
  8
0
 10
137.49081619043409
 20
232.1965641688584
 30
0.0
 11
137.7404367174631
 21
232.1965641688584
 31
0.0
  0
LINE
  5
95F0
  8
0
 10
97.740437611532784
 20
232.1965641688584
 30
0.0
 11
97.990058138561835
 21
232.1965641688584
 31
0.0
  0
LINE
  5
95F1
  8
0
 10
97.990058138561835
 20
232.1965641688584
 30
0.0
 11
97.990058138561849
 21
235.1965627979516
 31
0.0
  0
LINE
  5
95F5
  8
0
 10
160.2404376115328
 20
155.1965605329751
 30
0.0
 11
75.240437164497962
 21
155.1965605329751
 31
0.0
  0
LINE
  5
95F7
  8
0
 10
76.040435358477225
 20
170.196560197699
 30
0.0
 11
159.44043716031999
 21
170.1965605329751
 31
0.0
  0
LINE
  5
9602
  8
0
 10
98.540436252546897
 20
173.19655975811469
 30
0.0
 11
136.940438076449
 21
173.19655975811469
 31
0.0
  0
LINE
  5
9607
  8
0
 10
117.7404371644981
 20
207.19656193368431
 30
0.0
 11
117.7404371644981
 21
213.19655919187059
 31
0.0
  0
LINE
  5
9619
  8
0
 10
123.740437216652
 20
267.94656178467272
 30
0.0
 11
111.7404371123439
 21
267.94656178467272
 31
0.0
  0
LINE
  5
961B
  8
0
 10
122.490437011761
 20
269.19656059257977
 30
0.0
 11
112.99043731723479
 21
269.19656059257977
 31
0.0
  0
LINE
  5
961D
  8
0
 10
117.7404371644981
 20
189.6965599965333
 30
0.0
 11
117.7404371644981
 21
196.69655928127759
 31
0.0
  0
LINE
  5
961E
  8
0
 10
109.24043670256211
 20
189.6965599965333
 30
0.0
 11
109.24043670256211
 21
196.69655928127759
 31
0.0
  0
LINE
  5
961F
  8
0
 10
126.2404376264341
 20
189.6965599965333
 30
0.0
 11
109.24043670256211
 21
189.6965599965333
 31
0.0
  0
LINE
  5
9620
  8
0
 10
126.2404376264341
 20
196.69655928127759
 30
0.0
 11
109.24043670256211
 21
196.69655928127759
 31
0.0
  0
LINE
  5
9621
  8
0
 10
126.2404376264341
 20
189.6965599965333
 30
0.0
 11
126.2404376264341
 21
196.69655928127759
 31
0.0
  0
LINE
  5
9624
  8
0
 10
121.24043727253149
 20
242.06258574240201
 30
0.0
 11
114.2404370564647
 21
242.06258574240201
 31
0.0
  0
LINE
  5
9625
  8
0
 10
121.24043727253149
 20
245.26727417223449
 30
0.0
 11
114.2404370564647
 21
245.26727417223449
 31
0.0
  0
LINE
  5
9681
  8
0
 10
105.6064625825411
 20
246.19656273834701
 30
0.0
 11
115.5609877403504
 21
246.19656273834701
 31
0.0
  0
LINE
  5
9682
  8
0
 10
119.9198865886456
 20
246.19656273834701
 30
0.0
 11
129.8744117464548
 21
246.19656273834701
 31
0.0
  0
LINE
  5
9683
  8
0
 10
130.2208218346959
 20
244.39656207077499
 30
0.0
 11
121.24043727253139
 21
244.39656207077499
 31
0.0
  0
LINE
  5
9684
  8
0
 10
114.2404370564646
 20
244.39656207077499
 30
0.0
 11
105.2600524943
 21
244.39656207077499
 31
0.0
  0
LINE
  5
9685
  8
0
 10
108.2404374699717
 20
246.19656273834701
 30
0.0
 11
108.2404374699717
 21
260.2037138652085
 31
0.0
  0
LINE
  5
9687
  8
0
 10
117.740437164498
 20
246.69656375162589
 30
0.0
 11
117.740437164498
 21
260.2037138652085
 31
0.0
  0
LINE
  5
968B
  8
0
 10
126.99043728370719
 20
261.19656333439337
 30
0.0
 11
108.4904370452886
 21
261.19656333439337
 31
0.0
  0
LINE
  5
968C
  8
0
 10
127.2404368590241
 20
246.19656273834701
 30
0.0
 11
127.2404368590241
 21
260.2037138652085
 31
0.0
  0
LINE
  5
968D
  8
0
 10
137.7404367174631
 20
232.69655773155679
 30
0.0
 11
137.5141569967991
 21
232.69655773155679
 31
0.0
  0
LINE
  5
968E
  8
0
 10
137.5141569967991
 20
232.69655773155679
 30
0.0
 11
137.5141569967991
 21
235.1965627979516
 31
0.0
  0
LINE
  5
9690
  8
0
 10
137.5141569967991
 20
235.1965627979516
 30
0.0
 11
97.966717332196822
 21
235.1965627979516
 31
0.0
  0
LINE
  5
9691
  8
0
 10
97.966717332196822
 20
232.69655773155679
 30
0.0
 11
97.966717332196822
 21
235.1965627979516
 31
0.0
  0
LINE
  5
9692
  8
0
 10
97.966717332196822
 20
232.69655773155679
 30
0.0
 11
97.740437611532784
 21
232.69655773155679
 31
0.0
  0
LINE
  5
9695
  8
0
 10
98.740437775445571
 20
243.19656410925381
 30
0.0
 11
114.2404370564646
 21
243.19656410925381
 31
0.0
  0
LINE
  5
9696
  8
0
 10
121.24043727253139
 20
243.19656410925381
 30
0.0
 11
136.7404365535503
 21
243.19656410925381
 31
0.0
  0
LINE
  5
9697
  8
0
 10
97.990058138561835
 20
232.69655773155679
 30
0.0
 11
97.966717332196822
 21
232.69655773155679
 31
0.0
  0
LINE
  5
9698
  8
0
 10
137.5141569967991
 20
232.69655773155679
 30
0.0
 11
137.49081619043409
 21
232.69655773155679
 31
0.0
  0
LINE
  5
969C
  8
0
 10
131.07377082068979
 20
206.1965599071263
 30
0.0
 11
122.7404370527393
 21
206.1965599071263
 31
0.0
  0
LINE
  5
969D
  8
0
 10
112.7404372762567
 20
206.1965599071263
 30
0.0
 11
104.40710350830609
 21
206.1965599071263
 31
0.0
  0
LINE
  5
96A4
  8
0
 10
104.40710350830609
 20
206.1965599071263
 30
0.0
 11
104.40710350830609
 21
235.1965627979516
 31
0.0
  0
LINE
  5
96A7
  8
0
 10
131.07377082068979
 20
235.1965627979516
 30
0.0
 11
131.07377082068979
 21
206.1965599071263
 31
0.0
  0
LINE
  5
96AC
  8
1
 10
95.240436270428333
 20
172.196560197699
 30
0.0
 11
95.240436270428333
 21
153.1965605329751
 31
0.0
  0
LINE
  5
96B2
  8
1
 10
140.24043805856769
 20
172.196560197699
 30
0.0
 11
140.24043805856769
 21
153.1965605329751
 31
0.0
  0
LINE
  5
96BD
  8
1
 10
117.74043716449791
 20
274.1965613674401
 30
0.0
 11
117.74043716449791
 21
150.1965605329751
 31
0.0
  0
POLYLINE
  5
9AEB
  8
0
 10
349.99043738801549
 20
243.1965605329751
 30
0.0
 66
     1
 70
     8
  0
VERTEX
  8
0
  5
A93A
 10
349.990
 20
243.197
 30
0.000000
  70
    32
  0
VERTEX
  8
0
  5
A93B
 10
350.009
 20
243.197
 30
0.000000
  70
    32
  0
VERTEX
  8
0
  5
A93C
 10
350.027
 20
243.197
 30
0.000000
  70
    32
  0
VERTEX
  8
0
  5
A93D
 10
350.046
 20
243.198
 30
0.000000
  70
    32
  0
VERTEX
  8
0
  5
A93E
 10
350.064
 20
243.199
 30
0.000000
  70
    32
  0
VERTEX
  8
0
  5
A93F
 10
350.082
 20
243.201
 30
0.000000
  70
    32
  0
VERTEX
  8
0
  5
A940
 10
350.100
 20
243.203
 30
0.000000
  70
    32
  0
VERTEX
  8
0
  5
A941
 10
350.119
 20
243.205
 30
0.000000
  70
    32
  0
VERTEX
  8
0
  5
A942
 10
350.137
 20
243.208
 30
0.000000
  70
    32
  0
VERTEX
  8
0
  5
A943
 10
350.155
 20
243.211
 30
0.000000
  70
    32
  0
VERTEX
  8
0
  5
A944
 10
350.173
 20
243.215
 30
0.000000
  70
    32
  0
VERTEX
  8
0
  5
A945
 10
350.190
 20
243.218
 30
0.000000
  70
    32
  0
VERTEX
  8
0
  5
A946
 10
350.208
 20
243.222
 30
0.000000
  70
    32
  0
VERTEX
  8
0
  5
A947
 10
350.226
 20
243.227
 30
0.000000
  70
    32
  0
VERTEX
  8
0
  5
A948
 10
350.243
 20
243.232
 30
0.000000
  70
    32
  0
VERTEX
  8
0
  5
A949
 10
350.260
 20
243.237
 30
0.000000
  70
    32
  0
VERTEX
  8
0
  5
A94A
 10
350.277
 20
243.242
 30
0.000000
  70
    32
  0
VERTEX
  8
0
  5
A94B
 10
350.294
 20
243.248
 30
0.000000
  70
    32
  0
VERTEX
  8
0
  5
A94C
 10
350.311
 20
243.254
 30
0.000000
  70
    32
  0
VERTEX
  8
0
  5
A94D
 10
350.328
 20
243.261
 30
0.000000
  70
    32
  0
VERTEX
  8
0
  5
A94E
 10
350.344
 20
243.267
 30
0.000000
  70
    32
  0
VERTEX
  8
0
  5
A94F
 10
350.360
 20
243.275
 30
0.000000
  70
    32
  0
VERTEX
  8
0
  5
A950
 10
350.376
 20
243.282
 30
0.000000
  70
    32
  0
VERTEX
  8
0
  5
A951
 10
350.392
 20
243.290
 30
0.000000
  70
    32
  0
VERTEX
  8
0
  5
A952
 10
350.407
 20
243.298
 30
0.000000
  70
    32
  0
VERTEX
  8
0
  5
A953
 10
350.422
 20
243.306
 30
0.000000
  70
    32
  0
VERTEX
  8
0
  5
A954
 10
350.437
 20
243.315
 30
0.000000
  70
    32
  0
VERTEX
  8
0
  5
A955
 10
350.452
 20
243.324
 30
0.000000
  70
    32
  0
VERTEX
  8
0
  5
A956
 10
350.466
 20
243.333
 30
0.000000
  70
    32
  0
VERTEX
  8
0
  5
A957
 10
350.480
 20
243.342
 30
0.000000
  70
    32
  0
VERTEX
  8
0
  5
A958
 10
350.494
 20
243.352
 30
0.000000
  70
    32
  0
VERTEX
  8
0
  5
A959
 10
350.508
 20
243.362
 30
0.000000
  70
    32
  0
VERTEX
  8
0
  5
A95A
 10
350.521
 20
243.372
 30
0.000000
  70
    32
  0
VERTEX
  8
0
  5
A95B
 10
350.534
 20
243.383
 30
0.000000
  70
    32
  0
VERTEX
  8
0
  5
A95C
 10
350.546
 20
243.394
 30
0.000000
  70
    32
  0
VERTEX
  8
0
  5
A95D
 10
350.558
 20
243.405
 30
0.000000
  70
    32
  0
VERTEX
  8
0
  5
A95E
 10
350.570
 20
243.416
 30
0.000000
  70
    32
  0
VERTEX
  8
0
  5
A95F
 10
350.582
 20
243.427
 30
0.000000
  70
    32
  0
VERTEX
  8
0
  5
A960
 10
350.593
 20
243.439
 30
0.000000
  70
    32
  0
VERTEX
  8
0
  5
A961
 10
350.604
 20
243.451
 30
0.000000
  70
    32
  0
VERTEX
  8
0
  5
A962
 10
350.614
 20
243.463
 30
0.000000
  70
    32
  0
VERTEX
  8
0
  5
A963
 10
350.624
 20
243.476
 30
0.000000
  70
    32
  0
VERTEX
  8
0
  5
A964
 10
350.634
 20
243.488
 30
0.000000
  70
    32
  0
VERTEX
  8
0
  5
A965
 10
350.643
 20
243.501
 30
0.000000
  70
    32
  0
VERTEX
  8
0
  5
A966
 10
350.652
 20
243.514
 30
0.000000
  70
    32
  0
VERTEX
  8
0
  5
A967
 10
350.660
 20
243.527
 30
0.000000
  70
    32
  0
VERTEX
  8
0
  5
A968
 10
350.668
 20
243.540
 30
0.000000
  70
    32
  0
VERTEX
  8
0
  5
A969
 10
350.676
 20
243.553
 30
0.000000
  70
    32
  0
VERTEX
  8
0
  5
A96A
 10
350.683
 20
243.567
 30
0.000000
  70
    32
  0
VERTEX
  8
0
  5
A96B
 10
350.690
 20
243.581
 30
0.000000
  70
    32
  0
VERTEX
  8
0
  5
A96C
 10
350.697
 20
243.594
 30
0.000000
  70
    32
  0
VERTEX
  8
0
  5
A96D
 10
350.703
 20
243.608
 30
0.000000
  70
    32
  0
VERTEX
  8
0
  5
A96E
 10
350.708
 20
243.622
 30
0.000000
  70
    32
  0
VERTEX
  8
0
  5
A96F
 10
350.713
 20
243.637
 30
0.000000
  70
    32
  0
VERTEX
  8
0
  5
A970
 10
350.718
 20
243.651
 30
0.000000
  70
    32
  0
VERTEX
  8
0
  5
A971
 10
350.722
 20
243.665
 30
0.000000
  70
    32
  0
VERTEX
  8
0
  5
A972
 10
350.726
 20
243.680
 30
0.000000
  70
    32
  0
VERTEX
  8
0
  5
A973
 10
350.729
 20
243.694
 30
0.000000
  70
    32
  0
VERTEX
  8
0
  5
A974
 10
350.732
 20
243.709
 30
0.000000
  70
    32
  0
VERTEX
  8
0
  5
A975
 10
350.735
 20
243.723
 30
0.000000
  70
    32
  0
VERTEX
  8
0
  5
A976
 10
350.737
 20
243.738
 30
0.000000
  70
    32
  0
VERTEX
  8
0
  5
A977
 10
350.738
 20
243.752
 30
0.000000
  70
    32
  0
VERTEX
  8
0
  5
A978
 10
350.740
 20
243.767
 30
0.000000
  70
    32
  0
VERTEX
  8
0
  5
A979
 10
350.740
 20
243.782
 30
0.000000
  70
    32
  0
VERTEX
  8
0
  5
A97A
 10
350.740
 20
243.797
 30
0.000000
  70
    32
  0
VERTEX
  8
0
  5
A97B
 10
350.740
 20
243.811
 30
0.000000
  70
    32
  0
VERTEX
  8
0
  5
A97C
 10
350.740
 20
243.826
 30
0.000000
  70
    32
  0
VERTEX
  8
0
  5
A97D
 10
350.738
 20
243.841
 30
0.000000
  70
    32
  0
VERTEX
  8
0
  5
A97E
 10
350.737
 20
243.855
 30
0.000000
  70
    32
  0
VERTEX
  8
0
  5
A97F
 10
350.735
 20
243.870
 30
0.000000
  70
    32
  0
VERTEX
  8
0
  5
A980
 10
350.732
 20
243.885
 30
0.000000
  70
    32
  0
VERTEX
  8
0
  5
A981
 10
350.729
 20
243.899
 30
0.000000
  70
    32
  0
VERTEX
  8
0
  5
A982
 10
350.726
 20
243.914
 30
0.000000
  70
    32
  0
VERTEX
  8
0
  5
A983
 10
350.722
 20
243.928
 30
0.000000
  70
    32
  0
VERTEX
  8
0
  5
A984
 10
350.718
 20
243.942
 30
0.000000
  70
    32
  0
VERTEX
  8
0
  5
A985
 10
350.713
 20
243.957
 30
0.000000
  70
    32
  0
VERTEX
  8
0
  5
A986
 10
350.708
 20
243.971
 30
0.000000
  70
    32
  0
VERTEX
  8
0
  5
A987
 10
350.703
 20
243.985
 30
0.000000
  70
    32
  0
VERTEX
  8
0
  5
A988
 10
350.697
 20
243.999
 30
0.000000
  70
    32
  0
VERTEX
  8
0
  5
A989
 10
350.690
 20
244.012
 30
0.000000
  70
    32
  0
VERTEX
  8
0
  5
A98A
 10
350.683
 20
244.026
 30
0.000000
  70
    32
  0
VERTEX
  8
0
  5
A98B
 10
350.676
 20
244.040
 30
0.000000
  70
    32
  0
VERTEX
  8
0
  5
A98C
 10
350.668
 20
244.053
 30
0.000000
  70
    32
  0
VERTEX
  8
0
  5
A98D
 10
350.660
 20
244.066
 30
0.000000
  70
    32
  0
VERTEX
  8
0
  5
A98E
 10
350.652
 20
244.079
 30
0.000000
  70
    32
  0
VERTEX
  8
0
  5
A98F
 10
350.643
 20
244.092
 30
0.000000
  70
    32
  0
VERTEX
  8
0
  5
A990
 10
350.634
 20
244.105
 30
0.000000
  70
    32
  0
VERTEX
  8
0
  5
A991
 10
350.624
 20
244.118
 30
0.000000
  70
    32
  0
VERTEX
  8
0
  5
A992
 10
350.614
 20
244.130
 30
0.000000
  70
    32
  0
VERTEX
  8
0
  5
A993
 10
350.604
 20
244.142
 30
0.000000
  70
    32
  0
VERTEX
  8
0
  5
A994
 10
350.593
 20
244.154
 30
0.000000
  70
    32
  0
VERTEX
  8
0
  5
A995
 10
350.582
 20
244.166
 30
0.000000
  70
    32
  0
VERTEX
  8
0
  5
A996
 10
350.570
 20
244.177
 30
0.000000
  70
    32
  0
VERTEX
  8
0
  5
A997
 10
350.558
 20
244.188
 30
0.000000
  70
    32
  0
VERTEX
  8
0
  5
A998
 10
350.546
 20
244.199
 30
0.000000
  70
    32
  0
VERTEX
  8
0
  5
A999
 10
350.534
 20
244.210
 30
0.000000
  70
    32
  0
VERTEX
  8
0
  5
A99A
 10
350.521
 20
244.221
 30
0.000000
  70
    32
  0
VERTEX
  8
0
  5
A99B
 10
350.508
 20
244.231
 30
0.000000
  70
    32
  0
VERTEX
  8
0
  5
A99C
 10
350.494
 20
244.241
 30
0.000000
  70
    32
  0
VERTEX
  8
0
  5
A99D
 10
350.480
 20
244.251
 30
0.000000
  70
    32
  0
VERTEX
  8
0
  5
A99E
 10
350.466
 20
244.260
 30
0.000000
  70
    32
  0
VERTEX
  8
0
  5
A99F
 10
350.452
 20
244.270
 30
0.000000
  70
    32
  0
VERTEX
  8
0
  5
A9A0
 10
350.437
 20
244.278
 30
0.000000
  70
    32
  0
VERTEX
  8
0
  5
A9A1
 10
350.422
 20
244.287
 30
0.000000
  70
    32
  0
VERTEX
  8
0
  5
A9A2
 10
350.407
 20
244.295
 30
0.000000
  70
    32
  0
VERTEX
  8
0
  5
A9A3
 10
350.392
 20
244.303
 30
0.000000
  70
    32
  0
VERTEX
  8
0
  5
A9A4
 10
350.376
 20
244.311
 30
0.000000
  70
    32
  0
VERTEX
  8
0
  5
A9A5
 10
350.360
 20
244.319
 30
0.000000
  70
    32
  0
VERTEX
  8
0
  5
A9A6
 10
350.344
 20
244.326
 30
0.000000
  70
    32
  0
VERTEX
  8
0
  5
A9A7
 10
350.328
 20
244.332
 30
0.000000
  70
    32
  0
VERTEX
  8
0
  5
A9A8
 10
350.311
 20
244.339
 30
0.000000
  70
    32
  0
VERTEX
  8
0
  5
A9A9
 10
350.294
 20
244.345
 30
0.000000
  70
    32
  0
VERTEX
  8
0
  5
A9AA
 10
350.277
 20
244.351
 30
0.000000
  70
    32
  0
VERTEX
  8
0
  5
A9AB
 10
350.260
 20
244.356
 30
0.000000
  70
    32
  0
VERTEX
  8
0
  5
A9AC
 10
350.243
 20
244.361
 30
0.000000
  70
    32
  0
VERTEX
  8
0
  5
A9AD
 10
350.226
 20
244.366
 30
0.000000
  70
    32
  0
VERTEX
  8
0
  5
A9AE
 10
350.208
 20
244.371
 30
0.000000
  70
    32
  0
VERTEX
  8
0
  5
A9AF
 10
350.190
 20
244.375
 30
0.000000
  70
    32
  0
VERTEX
  8
0
  5
A9B0
 10
350.173
 20
244.379
 30
0.000000
  70
    32
  0
VERTEX
  8
0
  5
A9B1
 10
350.155
 20
244.382
 30
0.000000
  70
    32
  0
VERTEX
  8
0
  5
A9B2
 10
350.137
 20
244.385
 30
0.000000
  70
    32
  0
VERTEX
  8
0
  5
A9B3
 10
350.119
 20
244.388
 30
0.000000
  70
    32
  0
VERTEX
  8
0
  5
A9B4
 10
350.100
 20
244.390
 30
0.000000
  70
    32
  0
VERTEX
  8
0
  5
A9B5
 10
350.082
 20
244.392
 30
0.000000
  70
    32
  0
VERTEX
  8
0
  5
A9B6
 10
350.064
 20
244.394
 30
0.000000
  70
    32
  0
VERTEX
  8
0
  5
A9B7
 10
350.046
 20
244.395
 30
0.000000
  70
    32
  0
VERTEX
  8
0
  5
A9B8
 10
350.027
 20
244.396
 30
0.000000
  70
    32
  0
VERTEX
  8
0
  5
A9B9
 10
350.009
 20
244.396
 30
0.000000
  70
    32
  0
VERTEX
  8
0
  5
A9BA
 10
349.990
 20
244.397
 30
0.000000
  70
    32
  0
SEQEND
  8
0
  5
A9BB
  0
POLYLINE
  5
9AEC
  8
0
 10
325.49043738801549
 20
244.39656053297509
 30
0.0
 66
     1
 70
     8
  0
VERTEX
  8
0
  5
A9BC
 10
325.490
 20
244.397
 30
0.000000
  70
    32
  0
VERTEX
  8
0
  5
A9BD
 10
325.472
 20
244.396
 30
0.000000
  70
    32
  0
VERTEX
  8
0
  5
A9BE
 10
325.454
 20
244.396
 30
0.000000
  70
    32
  0
VERTEX
  8
0
  5
A9BF
 10
325.435
 20
244.395
 30
0.000000
  70
    32
  0
VERTEX
  8
0
  5
A9C0
 10
325.417
 20
244.394
 30
0.000000
  70
    32
  0
VERTEX
  8
0
  5
A9C1
 10
325.399
 20
244.392
 30
0.000000
  70
    32
  0
VERTEX
  8
0
  5
A9C2
 10
325.380
 20
244.390
 30
0.000000
  70
    32
  0
VERTEX
  8
0
  5
A9C3
 10
325.362
 20
244.388
 30
0.000000
  70
    32
  0
VERTEX
  8
0
  5
A9C4
 10
325.344
 20
244.385
 30
0.000000
  70
    32
  0
VERTEX
  8
0
  5
A9C5
 10
325.326
 20
244.382
 30
0.000000
  70
    32
  0
VERTEX
  8
0
  5
A9C6
 10
325.308
 20
244.379
 30
0.000000
  70
    32
  0
VERTEX
  8
0
  5
A9C7
 10
325.290
 20
244.375
 30
0.000000
  70
    32
  0
VERTEX
  8
0
  5
A9C8
 10
325.273
 20
244.371
 30
0.000000
  70
    32
  0
VERTEX
  8
0
  5
A9C9
 10
325.255
 20
244.366
 30
0.000000
  70
    32
  0
VERTEX
  8
0
  5
A9CA
 10
325.238
 20
244.361
 30
0.000000
  70
    32
  0
VERTEX
  8
0
  5
A9CB
 10
325.221
 20
244.356
 30
0.000000
  70
    32
  0
VERTEX
  8
0
  5
A9CC
 10
325.203
 20
244.351
 30
0.000000
  70
    32
  0
VERTEX
  8
0
  5
A9CD
 10
325.187
 20
244.345
 30
0.000000
  70
    32
  0
VERTEX
  8
0
  5
A9CE
 10
325.170
 20
244.339
 30
0.000000
  70
    32
  0
VERTEX
  8
0
  5
A9CF
 10
325.153
 20
244.332
 30
0.000000
  70
    32
  0
VERTEX
  8
0
  5
A9D0
 10
325.137
 20
244.326
 30
0.000000
  70
    32
  0
VERTEX
  8
0
  5
A9D1
 10
325.121
 20
244.319
 30
0.000000
  70
    32
  0
VERTEX
  8
0
  5
A9D2
 10
325.105
 20
244.311
 30
0.000000
  70
    32
  0
VERTEX
  8
0
  5
A9D3
 10
325.089
 20
244.303
 30
0.000000
  70
    32
  0
VERTEX
  8
0
  5
A9D4
 10
325.074
 20
244.295
 30
0.000000
  70
    32
  0
VERTEX
  8
0
  5
A9D5
 10
325.059
 20
244.287
 30
0.000000
  70
    32
  0
VERTEX
  8
0
  5
A9D6
 10
325.044
 20
244.278
 30
0.000000
  70
    32
  0
VERTEX
  8
0
  5
A9D7
 10
325.029
 20
244.270
 30
0.000000
  70
    32
  0
VERTEX
  8
0
  5
A9D8
 10
325.015
 20
244.260
 30
0.000000
  70
    32
  0
VERTEX
  8
0
  5
A9D9
 10
325.001
 20
244.251
 30
0.000000
  70
    32
  0
VERTEX
  8
0
  5
A9DA
 10
324.987
 20
244.241
 30
0.000000
  70
    32
  0
VERTEX
  8
0
  5
A9DB
 10
324.973
 20
244.231
 30
0.000000
  70
    32
  0
VERTEX
  8
0
  5
A9DC
 10
324.960
 20
244.221
 30
0.000000
  70
    32
  0
VERTEX
  8
0
  5
A9DD
 10
324.947
 20
244.210
 30
0.000000
  70
    32
  0
VERTEX
  8
0
  5
A9DE
 10
324.935
 20
244.199
 30
0.000000
  70
    32
  0
VERTEX
  8
0
  5
A9DF
 10
324.923
 20
244.188
 30
0.000000
  70
    32
  0
VERTEX
  8
0
  5
A9E0
 10
324.911
 20
244.177
 30
0.000000
  70
    32
  0
VERTEX
  8
0
  5
A9E1
 10
324.899
 20
244.166
 30
0.000000
  70
    32
  0
VERTEX
  8
0
  5
A9E2
 10
324.888
 20
244.154
 30
0.000000
  70
    32
  0
VERTEX
  8
0
  5
A9E3
 10
324.877
 20
244.142
 30
0.000000
  70
    32
  0
VERTEX
  8
0
  5
A9E4
 10
324.867
 20
244.130
 30
0.000000
  70
    32
  0
VERTEX
  8
0
  5
A9E5
 10
324.857
 20
244.118
 30
0.000000
  70
    32
  0
VERTEX
  8
0
  5
A9E6
 10
324.847
 20
244.105
 30
0.000000
  70
    32
  0
VERTEX
  8
0
  5
A9E7
 10
324.838
 20
244.092
 30
0.000000
  70
    32
  0
VERTEX
  8
0
  5
A9E8
 10
324.829
 20
244.079
 30
0.000000
  70
    32
  0
VERTEX
  8
0
  5
A9E9
 10
324.821
 20
244.066
 30
0.000000
  70
    32
  0
VERTEX
  8
0
  5
A9EA
 10
324.812
 20
244.053
 30
0.000000
  70
    32
  0
VERTEX
  8
0
  5
A9EB
 10
324.805
 20
244.040
 30
0.000000
  70
    32
  0
VERTEX
  8
0
  5
A9EC
 10
324.798
 20
244.026
 30
0.000000
  70
    32
  0
VERTEX
  8
0
  5
A9ED
 10
324.791
 20
244.012
 30
0.000000
  70
    32
  0
VERTEX
  8
0
  5
A9EE
 10
324.784
 20
243.999
 30
0.000000
  70
    32
  0
VERTEX
  8
0
  5
A9EF
 10
324.778
 20
243.985
 30
0.000000
  70
    32
  0
VERTEX
  8
0
  5
A9F0
 10
324.773
 20
243.971
 30
0.000000
  70
    32
  0
VERTEX
  8
0
  5
A9F1
 10
324.768
 20
243.957
 30
0.000000
  70
    32
  0
VERTEX
  8
0
  5
A9F2
 10
324.763
 20
243.942
 30
0.000000
  70
    32
  0
VERTEX
  8
0
  5
A9F3
 10
324.759
 20
243.928
 30
0.000000
  70
    32
  0
VERTEX
  8
0
  5
A9F4
 10
324.755
 20
243.914
 30
0.000000
  70
    32
  0
VERTEX
  8
0
  5
A9F5
 10
324.751
 20
243.899
 30
0.000000
  70
    32
  0
VERTEX
  8
0
  5
A9F6
 10
324.749
 20
243.885
 30
0.000000
  70
    32
  0
VERTEX
  8
0
  5
A9F7
 10
324.746
 20
243.870
 30
0.000000
  70
    32
  0
VERTEX
  8
0
  5
A9F8
 10
324.744
 20
243.855
 30
0.000000
  70
    32
  0
VERTEX
  8
0
  5
A9F9
 10
324.742
 20
243.841
 30
0.000000
  70
    32
  0
VERTEX
  8
0
  5
A9FA
 10
324.741
 20
243.826
 30
0.000000
  70
    32
  0
VERTEX
  8
0
  5
A9FB
 10
324.741
 20
243.811
 30
0.000000
  70
    32
  0
VERTEX
  8
0
  5
A9FC
 10
324.740
 20
243.797
 30
0.000000
  70
    32
  0
VERTEX
  8
0
  5
A9FD
 10
324.741
 20
243.782
 30
0.000000
  70
    32
  0
VERTEX
  8
0
  5
A9FE
 10
324.741
 20
243.767
 30
0.000000
  70
    32
  0
VERTEX
  8
0
  5
A9FF
 10
324.742
 20
243.752
 30
0.000000
  70
    32
  0
VERTEX
  8
0
  5
AA00
 10
324.744
 20
243.738
 30
0.000000
  70
    32
  0
VERTEX
  8
0
  5
AA01
 10
324.746
 20
243.723
 30
0.000000
  70
    32
  0
VERTEX
  8
0
  5
AA02
 10
324.749
 20
243.709
 30
0.000000
  70
    32
  0
VERTEX
  8
0
  5
AA03
 10
324.751
 20
243.694
 30
0.000000
  70
    32
  0
VERTEX
  8
0
  5
AA04
 10
324.755
 20
243.680
 30
0.000000
  70
    32
  0
VERTEX
  8
0
  5
AA05
 10
324.759
 20
243.665
 30
0.000000
  70
    32
  0
VERTEX
  8
0
  5
AA06
 10
324.763
 20
243.651
 30
0.000000
  70
    32
  0
VERTEX
  8
0
  5
AA07
 10
324.768
 20
243.637
 30
0.000000
  70
    32
  0
VERTEX
  8
0
  5
AA08
 10
324.773
 20
243.622
 30
0.000000
  70
    32
  0
VERTEX
  8
0
  5
AA09
 10
324.778
 20
243.608
 30
0.000000
  70
    32
  0
VERTEX
  8
0
  5
AA0A
 10
324.784
 20
243.594
 30
0.000000
  70
    32
  0
VERTEX
  8
0
  5
AA0B
 10
324.791
 20
243.581
 30
0.000000
  70
    32
  0
VERTEX
  8
0
  5
AA0C
 10
324.798
 20
243.567
 30
0.000000
  70
    32
  0
VERTEX
  8
0
  5
AA0D
 10
324.805
 20
243.553
 30
0.000000
  70
    32
  0
VERTEX
  8
0
  5
AA0E
 10
324.812
 20
243.540
 30
0.000000
  70
    32
  0
VERTEX
  8
0
  5
AA0F
 10
324.821
 20
243.527
 30
0.000000
  70
    32
  0
VERTEX
  8
0
  5
AA10
 10
324.829
 20
243.514
 30
0.000000
  70
    32
  0
VERTEX
  8
0
  5
AA11
 10
324.838
 20
243.501
 30
0.000000
  70
    32
  0
VERTEX
  8
0
  5
AA12
 10
324.847
 20
243.488
 30
0.000000
  70
    32
  0
VERTEX
  8
0
  5
AA13
 10
324.857
 20
243.476
 30
0.000000
  70
    32
  0
VERTEX
  8
0
  5
AA14
 10
324.867
 20
243.463
 30
0.000000
  70
    32
  0
VERTEX
  8
0
  5
AA15
 10
324.877
 20
243.451
 30
0.000000
  70
    32
  0
VERTEX
  8
0
  5
AA16
 10
324.888
 20
243.439
 30
0.000000
  70
    32
  0
VERTEX
  8
0
  5
AA17
 10
324.899
 20
243.427
 30
0.000000
  70
    32
  0
VERTEX
  8
0
  5
AA18
 10
324.911
 20
243.416
 30
0.000000
  70
    32
  0
VERTEX
  8
0
  5
AA19
 10
324.923
 20
243.405
 30
0.000000
  70
    32
  0
VERTEX
  8
0
  5
AA1A
 10
324.935
 20
243.394
 30
0.000000
  70
    32
  0
VERTEX
  8
0
  5
AA1B
 10
324.947
 20
243.383
 30
0.000000
  70
    32
  0
VERTEX
  8
0
  5
AA1C
 10
324.960
 20
243.372
 30
0.000000
  70
    32
  0
VERTEX
  8
0
  5
AA1D
 10
324.973
 20
243.362
 30
0.000000
  70
    32
  0
VERTEX
  8
0
  5
AA1E
 10
324.987
 20
243.352
 30
0.000000
  70
    32
  0
VERTEX
  8
0
  5
AA1F
 10
325.001
 20
243.342
 30
0.000000
  70
    32
  0
VERTEX
  8
0
  5
AA20
 10
325.015
 20
243.333
 30
0.000000
  70
    32
  0
VERTEX
  8
0
  5
AA21
 10
325.029
 20
243.324
 30
0.000000
  70
    32
  0
VERTEX
  8
0
  5
AA22
 10
325.044
 20
243.315
 30
0.000000
  70
    32
  0
VERTEX
  8
0
  5
AA23
 10
325.059
 20
243.306
 30
0.000000
  70
    32
  0
VERTEX
  8
0
  5
AA24
 10
325.074
 20
243.298
 30
0.000000
  70
    32
  0
VERTEX
  8
0
  5
AA25
 10
325.089
 20
243.290
 30
0.000000
  70
    32
  0
VERTEX
  8
0
  5
AA26
 10
325.105
 20
243.282
 30
0.000000
  70
    32
  0
VERTEX
  8
0
  5
AA27
 10
325.121
 20
243.275
 30
0.000000
  70
    32
  0
VERTEX
  8
0
  5
AA28
 10
325.137
 20
243.267
 30
0.000000
  70
    32
  0
VERTEX
  8
0
  5
AA29
 10
325.153
 20
243.261
 30
0.000000
  70
    32
  0
VERTEX
  8
0
  5
AA2A
 10
325.170
 20
243.254
 30
0.000000
  70
    32
  0
VERTEX
  8
0
  5
AA2B
 10
325.187
 20
243.248
 30
0.000000
  70
    32
  0
VERTEX
  8
0
  5
AA2C
 10
325.203
 20
243.242
 30
0.000000
  70
    32
  0
VERTEX
  8
0
  5
AA2D
 10
325.221
 20
243.237
 30
0.000000
  70
    32
  0
VERTEX
  8
0
  5
AA2E
 10
325.238
 20
243.232
 30
0.000000
  70
    32
  0
VERTEX
  8
0
  5
AA2F
 10
325.255
 20
243.227
 30
0.000000
  70
    32
  0
VERTEX
  8
0
  5
AA30
 10
325.273
 20
243.222
 30
0.000000
  70
    32
  0
VERTEX
  8
0
  5
AA31
 10
325.290
 20
243.218
 30
0.000000
  70
    32
  0
VERTEX
  8
0
  5
AA32
 10
325.308
 20
243.215
 30
0.000000
  70
    32
  0
VERTEX
  8
0
  5
AA33
 10
325.326
 20
243.211
 30
0.000000
  70
    32
  0
VERTEX
  8
0
  5
AA34
 10
325.344
 20
243.208
 30
0.000000
  70
    32
  0
VERTEX
  8
0
  5
AA35
 10
325.362
 20
243.205
 30
0.000000
  70
    32
  0
VERTEX
  8
0
  5
AA36
 10
325.380
 20
243.203
 30
0.000000
  70
    32
  0
VERTEX
  8
0
  5
AA37
 10
325.399
 20
243.201
 30
0.000000
  70
    32
  0
VERTEX
  8
0
  5
AA38
 10
325.417
 20
243.199
 30
0.000000
  70
    32
  0
VERTEX
  8
0
  5
AA39
 10
325.435
 20
243.198
 30
0.000000
  70
    32
  0
VERTEX
  8
0
  5
AA3A
 10
325.454
 20
243.197
 30
0.000000
  70
    32
  0
VERTEX
  8
0
  5
AA3B
 10
325.472
 20
243.197
 30
0.000000
  70
    32
  0
VERTEX
  8
0
  5
AA3C
 10
325.490
 20
243.197
 30
0.000000
  70
    32
  0
SEQEND
  8
0
  5
AA3D
  0
ARC
  5
9AEF
  8
0
 10
318.54043738801562
 20
175.99656053297511
 30
0.0
 40
0.7999999999999972
 50
180.0
 51
270.0000000000008
  0
ARC
  5
9AF0
  8
0
 10
356.94043738801548
 20
175.99656053297511
 30
0.0
 40
0.7999999999999972
 50
270.0000000000008
 51
0.0
  0
ARC
  5
9AF1
  8
0
 10
379.44043738801548
 20
169.39656053297509
 30
0.0
 40
0.7999999999999972
 50
0.0
 51
90.0
  0
ARC
  5
9AF8
  8
0
 10
296.04043738801562
 20
169.39656053297509
 30
0.0
 40
0.7999999999999972
 50
90.0
 51
180.0
  0
ARC
  5
9AFB
  8
0
 10
322.24043738801549
 20
174.6965605329751
 30
0.0
 40
1.500000000000014
 50
270.0000000000008
 51
0.0
  0
ARC
  5
9AFC
  8
0
 10
353.24043738801549
 20
174.6965605329751
 30
0.0
 40
1.5
 50
180.0
 51
270.0000000000008
  0
LINE
  5
9B0B
  8
0
 10
343.74043744016961
 20
267.94656178467261
 30
0.0
 11
331.74043733586137
 21
267.94656178467261
 31
0.0
  0
LINE
  5
9B0C
  8
0
 10
342.49043723527859
 20
269.19656059257971
 30
0.0
 11
332.9904375407524
 21
269.19656059257971
 31
0.0
  0
LINE
  5
9B64
  8
0
 10
317.74043783505027
 20
232.1965641688584
 30
0.0
 11
317.99005836207942
 21
232.1965641688584
 31
0.0
  0
LINE
  5
9B65
  8
0
 10
317.99005836207942
 20
232.1965641688584
 30
0.0
 11
317.99005836207942
 21
234.3965641569375
 31
0.0
  0
LINE
  5
9B67
  8
0
 10
357.49081641395162
 20
232.1965641688584
 30
0.0
 11
357.49081641395162
 21
234.3965641569375
 31
0.0
  0
LINE
  5
9B68
  8
0
 10
357.49081641395162
 20
232.1965641688584
 30
0.0
 11
357.74043694098071
 21
232.1965641688584
 31
0.0
  0
LINE
  5
9B78
  8
0
 10
356.94043829996662
 20
175.19656041376581
 30
0.0
 11
318.54043647606437
 21
175.19656041376581
 31
0.0
  0
LINE
  5
9B7D
  8
0
 10
380.24043738801549
 20
155.1965605329751
 30
0.0
 11
295.24043738801538
 21
155.1965605329751
 31
0.0
  0
LINE
  5
9B86
  8
0
 10
318.54043647606437
 20
173.19655975811469
 30
0.0
 11
356.94043829996662
 21
173.19655975811469
 31
0.0
  0
LINE
  5
9B8F
  8
0
 10
325.60646280605857
 20
246.1965627383469
 30
0.0
 11
349.87441196997241
 21
246.1965627383469
 31
0.0
  0
LINE
  5
9B90
  8
0
 10
350.22082205821351
 20
244.39656207077491
 30
0.0
 11
325.26005271781747
 21
244.39656207077491
 31
0.0
  0
LINE
  5
9B91
  8
0
 10
337.74043738801549
 20
246.1965627383469
 30
0.0
 11
337.74043738801538
 21
260.2037138652085
 31
0.0
  0
LINE
  5
9B93
  8
0
 10
347.24043708254169
 20
246.1965627383469
 30
0.0
 11
347.24043708254169
 21
260.2037138652085
 31
0.0
  0
LINE
  5
9B97
  8
0
 10
346.99043750722478
 20
261.19656333439337
 30
0.0
 11
328.4904372688062
 21
261.19656333439337
 31
0.0
  0
LINE
  5
9B98
  8
0
 10
328.2404376934893
 20
246.1965627383469
 30
0.0
 11
328.2404376934893
 21
260.2037138652085
 31
0.0
  0
LINE
  5
9B99
  8
0
 10
317.96671755571441
 20
232.69655773155679
 30
0.0
 11
317.96671755571441
 21
235.1965627979516
 31
0.0
  0
LINE
  5
9B9A
  8
0
 10
317.96671755571441
 20
232.69655773155679
 30
0.0
 11
317.74043783505027
 21
232.69655773155679
 31
0.0
  0
LINE
  5
9B9B
  8
0
 10
357.74043694098071
 20
232.69655773155679
 30
0.0
 11
357.51415722031658
 21
232.69655773155679
 31
0.0
  0
LINE
  5
9B9C
  8
0
 10
357.51415722031658
 20
232.69655773155679
 30
0.0
 11
357.51415722031658
 21
235.1965627979516
 31
0.0
  0
LINE
  5
9B9D
  8
0
 10
357.51415722031658
 20
235.1965627979516
 30
0.0
 11
317.96671755571441
 21
235.1965627979516
 31
0.0
  0
LINE
  5
9B9F
  8
0
 10
318.7404379989631
 20
243.19656410925381
 30
0.0
 11
356.74043677706788
 21
243.19656410925381
 31
0.0
  0
LINE
  5
9BA0
  8
0
 10
357.51415722031658
 20
232.69655773155679
 30
0.0
 11
357.49081641395162
 21
232.69655773155679
 31
0.0
  0
LINE
  5
9BA1
  8
0
 10
317.99005836207942
 20
232.69655773155679
 30
0.0
 11
317.96671755571441
 21
232.69655773155679
 31
0.0
  0
LINE
  5
9BA5
  8
1
 10
360.24043828208522
 20
172.196560197699
 30
0.0
 11
360.24043828208522
 21
153.1965605329751
 31
0.0
  0
LINE
  5
9BAD
  8
1
 10
315.24043649394582
 20
172.196560197699
 30
0.0
 11
315.24043649394582
 21
153.1965605329751
 31
0.0
  0
LINE
  5
9FE8
  8
0
 10
332.9904375407524
 20
269.19656059257971
 30
0.0
 11
331.74043733586137
 21
267.94656178467261
 31
0.0
  0
LINE
  5
9FE9
  8
0
 10
331.74043733586137
 20
267.94656178467261
 30
0.0
 11
331.74043733586137
 21
261.19656333439337
 31
0.0
  0
LINE
  5
9FEA
  8
0
 10
328.4904372688062
 20
261.19656333439337
 30
0.0
 11
328.2404376934893
 21
261.05222323648923
 31
0.0
  0
LINE
  5
9FEB
  8
0
 10
328.2404376934893
 20
261.05222323648923
 30
0.0
 11
328.24043769348953
 21
260.2037138652085
 31
0.0
  0
LINE
  5
9FEC
  8
0
 10
342.49043723527859
 20
269.19656059257971
 30
0.0
 11
343.74043744016961
 21
267.94656178467261
 31
0.0
  0
LINE
  5
9FED
  8
0
 10
343.74043744016961
 20
267.94656178467261
 30
0.0
 11
343.74043744016961
 21
261.19656333439337
 31
0.0
  0
LINE
  5
9FEE
  8
0
 10
346.99043750722478
 20
261.19656333439337
 30
0.0
 11
347.24043708254169
 21
261.05222323648923
 31
0.0
  0
LINE
  5
9FEF
  8
0
 10
347.24043708254169
 20
261.05222323648923
 30
0.0
 11
347.24043708254169
 21
260.2037138652085
 31
0.0
  0
LINE
  5
9FF0
  8
0
 10
349.87441196997241
 20
246.1965627383469
 30
0.0
 11
350.7404376562364
 21
245.69656172506799
 31
0.0
  0
LINE
  5
9FF1
  8
0
 10
350.7404376562364
 20
245.69656172506799
 30
0.0
 11
350.7404376562364
 21
244.69655969850999
 31
0.0
  0
LINE
  5
9FF2
  8
0
 10
350.7404376562364
 20
244.69655969850999
 30
0.0
 11
350.22082205821351
 21
244.39656207077491
 31
0.0
  0
LINE
  5
9FF3
  8
0
 10
325.60646280605857
 20
246.1965627383469
 30
0.0
 11
324.74043711979459
 21
245.69656172506799
 31
0.0
  0
LINE
  5
9FF4
  8
0
 10
324.74043711979459
 20
245.69656172506799
 30
0.0
 11
324.74043711979459
 21
244.69655969850999
 31
0.0
  0
LINE
  5
9FF5
  8
0
 10
324.74043711979459
 20
244.69655969850999
 30
0.0
 11
325.26005271781747
 21
244.39656207077491
 31
0.0
  0
LINE
  5
9FF6
  8
0
 10
318.7404379989631
 20
243.19656410925381
 30
0.0
 11
317.74043783505027
 21
242.19656208269581
 31
0.0
  0
LINE
  5
9FF7
  8
0
 10
317.74043783505027
 20
242.19656208269581
 30
0.0
 11
317.74043783505027
 21
232.69655773155679
 31
0.0
  0
LINE
  5
9FF8
  8
0
 10
317.74043783505027
 20
232.1965641688584
 30
0.0
 11
317.74043783505027
 21
175.99656091742509
 31
0.0
  0
LINE
  5
9FFB
  8
0
 10
323.74043730158883
 20
175.19656041376581
 30
0.0
 11
323.74043738801549
 21
174.6965605329751
 31
0.0
  0
LINE
  5
9FFC
  8
0
 10
318.54043647606437
 20
173.19655975811469
 30
0.0
 11
317.74043783505027
 21
172.39656111710059
 31
0.0
  0
LINE
  5
9FFD
  8
0
 10
317.74043783505027
 20
172.39656111710059
 30
0.0
 11
317.74043783505027
 21
170.196560197699
 31
0.0
  0
LINE
  5
9FFE
  8
0
 10
295.24043738801549
 20
169.39656053297509
 30
0.0
 11
295.24043738801549
 21
155.1965605329751
 31
0.0
  0
LINE
  5
9FFF
  8
0
 10
380.24043738801549
 20
169.39656053297509
 30
0.0
 11
380.24043738801549
 21
155.1965605329751
 31
0.0
  0
LINE
  5
A000
  8
0
 10
351.74043782014922
 20
175.19656041376581
 30
0.0
 11
351.74043782014922
 21
174.69656093530651
 31
0.0
  0
LINE
  5
A001
  8
0
 10
356.94043829996662
 20
173.19655975811469
 30
0.0
 11
357.74043694098071
 21
172.39656111710059
 31
0.0
  0
LINE
  5
A002
  8
0
 10
357.74043694098071
 20
172.39656111710059
 30
0.0
 11
357.74043694098071
 21
170.196560197699
 31
0.0
  0
LINE
  5
A003
  8
0
 10
357.74043738801549
 20
175.99656053297511
 30
0.0
 11
357.74043738801549
 21
232.1965641688584
 31
0.0
  0
LINE
  5
A004
  8
0
 10
357.74043694098071
 20
232.69655773155679
 30
0.0
 11
357.74043694098071
 21
242.19656208269581
 31
0.0
  0
LINE
  5
A005
  8
0
 10
357.74043694098071
 20
242.19656208269581
 30
0.0
 11
356.74043677706788
 21
243.19656410925381
 31
0.0
  0
POLYLINE
  5
A006
  8
0
 10
239.99043784995141
 20
243.19656130783551
 30
0.0
 66
     1
 70
     8
  0
VERTEX
  8
0
  5
AA3E
 10
239.990
 20
243.197
 30
0.000000
  70
    32
  0
VERTEX
  8
0
  5
AA3F
 10
240.009
 20
243.197
 30
0.000000
  70
    32
  0
VERTEX
  8
0
  5
AA40
 10
240.027
 20
243.197
 30
0.000000
  70
    32
  0
VERTEX
  8
0
  5
AA41
 10
240.046
 20
243.198
 30
0.000000
  70
    32
  0
VERTEX
  8
0
  5
AA42
 10
240.064
 20
243.199
 30
0.000000
  70
    32
  0
VERTEX
  8
0
  5
AA43
 10
240.082
 20
243.201
 30
0.000000
  70
    32
  0
VERTEX
  8
0
  5
AA44
 10
240.100
 20
243.203
 30
0.000000
  70
    32
  0
VERTEX
  8
0
  5
AA45
 10
240.119
 20
243.205
 30
0.000000
  70
    32
  0
VERTEX
  8
0
  5
AA46
 10
240.137
 20
243.208
 30
0.000000
  70
    32
  0
VERTEX
  8
0
  5
AA47
 10
240.155
 20
243.211
 30
0.000000
  70
    32
  0
VERTEX
  8
0
  5
AA48
 10
240.173
 20
243.215
 30
0.000000
  70
    32
  0
VERTEX
  8
0
  5
AA49
 10
240.190
 20
243.218
 30
0.000000
  70
    32
  0
VERTEX
  8
0
  5
AA4A
 10
240.208
 20
243.222
 30
0.000000
  70
    32
  0
VERTEX
  8
0
  5
AA4B
 10
240.226
 20
243.227
 30
0.000000
  70
    32
  0
VERTEX
  8
0
  5
AA4C
 10
240.243
 20
243.232
 30
0.000000
  70
    32
  0
VERTEX
  8
0
  5
AA4D
 10
240.260
 20
243.237
 30
0.000000
  70
    32
  0
VERTEX
  8
0
  5
AA4E
 10
240.277
 20
243.242
 30
0.000000
  70
    32
  0
VERTEX
  8
0
  5
AA4F
 10
240.294
 20
243.248
 30
0.000000
  70
    32
  0
VERTEX
  8
0
  5
AA50
 10
240.311
 20
243.254
 30
0.000000
  70
    32
  0
VERTEX
  8
0
  5
AA51
 10
240.328
 20
243.261
 30
0.000000
  70
    32
  0
VERTEX
  8
0
  5
AA52
 10
240.344
 20
243.267
 30
0.000000
  70
    32
  0
VERTEX
  8
0
  5
AA53
 10
240.360
 20
243.275
 30
0.000000
  70
    32
  0
VERTEX
  8
0
  5
AA54
 10
240.376
 20
243.282
 30
0.000000
  70
    32
  0
VERTEX
  8
0
  5
AA55
 10
240.392
 20
243.290
 30
0.000000
  70
    32
  0
VERTEX
  8
0
  5
AA56
 10
240.407
 20
243.298
 30
0.000000
  70
    32
  0
VERTEX
  8
0
  5
AA57
 10
240.422
 20
243.306
 30
0.000000
  70
    32
  0
VERTEX
  8
0
  5
AA58
 10
240.437
 20
243.315
 30
0.000000
  70
    32
  0
VERTEX
  8
0
  5
AA59
 10
240.452
 20
243.324
 30
0.000000
  70
    32
  0
VERTEX
  8
0
  5
AA5A
 10
240.466
 20
243.333
 30
0.000000
  70
    32
  0
VERTEX
  8
0
  5
AA5B
 10
240.480
 20
243.342
 30
0.000000
  70
    32
  0
VERTEX
  8
0
  5
AA5C
 10
240.494
 20
243.352
 30
0.000000
  70
    32
  0
VERTEX
  8
0
  5
AA5D
 10
240.508
 20
243.362
 30
0.000000
  70
    32
  0
VERTEX
  8
0
  5
AA5E
 10
240.521
 20
243.372
 30
0.000000
  70
    32
  0
VERTEX
  8
0
  5
AA5F
 10
240.534
 20
243.383
 30
0.000000
  70
    32
  0
VERTEX
  8
0
  5
AA60
 10
240.546
 20
243.394
 30
0.000000
  70
    32
  0
VERTEX
  8
0
  5
AA61
 10
240.558
 20
243.405
 30
0.000000
  70
    32
  0
VERTEX
  8
0
  5
AA62
 10
240.570
 20
243.416
 30
0.000000
  70
    32
  0
VERTEX
  8
0
  5
AA63
 10
240.582
 20
243.427
 30
0.000000
  70
    32
  0
VERTEX
  8
0
  5
AA64
 10
240.593
 20
243.439
 30
0.000000
  70
    32
  0
VERTEX
  8
0
  5
AA65
 10
240.604
 20
243.451
 30
0.000000
  70
    32
  0
VERTEX
  8
0
  5
AA66
 10
240.614
 20
243.463
 30
0.000000
  70
    32
  0
VERTEX
  8
0
  5
AA67
 10
240.624
 20
243.476
 30
0.000000
  70
    32
  0
VERTEX
  8
0
  5
AA68
 10
240.634
 20
243.488
 30
0.000000
  70
    32
  0
VERTEX
  8
0
  5
AA69
 10
240.643
 20
243.501
 30
0.000000
  70
    32
  0
VERTEX
  8
0
  5
AA6A
 10
240.652
 20
243.514
 30
0.000000
  70
    32
  0
VERTEX
  8
0
  5
AA6B
 10
240.660
 20
243.527
 30
0.000000
  70
    32
  0
VERTEX
  8
0
  5
AA6C
 10
240.668
 20
243.540
 30
0.000000
  70
    32
  0
VERTEX
  8
0
  5
AA6D
 10
240.676
 20
243.553
 30
0.000000
  70
    32
  0
VERTEX
  8
0
  5
AA6E
 10
240.683
 20
243.567
 30
0.000000
  70
    32
  0
VERTEX
  8
0
  5
AA6F
 10
240.690
 20
243.581
 30
0.000000
  70
    32
  0
VERTEX
  8
0
  5
AA70
 10
240.697
 20
243.594
 30
0.000000
  70
    32
  0
VERTEX
  8
0
  5
AA71
 10
240.703
 20
243.608
 30
0.000000
  70
    32
  0
VERTEX
  8
0
  5
AA72
 10
240.708
 20
243.622
 30
0.000000
  70
    32
  0
VERTEX
  8
0
  5
AA73
 10
240.713
 20
243.637
 30
0.000000
  70
    32
  0
VERTEX
  8
0
  5
AA74
 10
240.718
 20
243.651
 30
0.000000
  70
    32
  0
VERTEX
  8
0
  5
AA75
 10
240.722
 20
243.665
 30
0.000000
  70
    32
  0
VERTEX
  8
0
  5
AA76
 10
240.726
 20
243.680
 30
0.000000
  70
    32
  0
VERTEX
  8
0
  5
AA77
 10
240.729
 20
243.694
 30
0.000000
  70
    32
  0
VERTEX
  8
0
  5
AA78
 10
240.732
 20
243.709
 30
0.000000
  70
    32
  0
VERTEX
  8
0
  5
AA79
 10
240.735
 20
243.723
 30
0.000000
  70
    32
  0
VERTEX
  8
0
  5
AA7A
 10
240.737
 20
243.738
 30
0.000000
  70
    32
  0
VERTEX
  8
0
  5
AA7B
 10
240.738
 20
243.752
 30
0.000000
  70
    32
  0
VERTEX
  8
0
  5
AA7C
 10
240.740
 20
243.767
 30
0.000000
  70
    32
  0
VERTEX
  8
0
  5
AA7D
 10
240.740
 20
243.782
 30
0.000000
  70
    32
  0
VERTEX
  8
0
  5
AA7E
 10
240.740
 20
243.797
 30
0.000000
  70
    32
  0
VERTEX
  8
0
  5
AA7F
 10
240.740
 20
243.811
 30
0.000000
  70
    32
  0
VERTEX
  8
0
  5
AA80
 10
240.740
 20
243.826
 30
0.000000
  70
    32
  0
VERTEX
  8
0
  5
AA81
 10
240.738
 20
243.841
 30
0.000000
  70
    32
  0
VERTEX
  8
0
  5
AA82
 10
240.737
 20
243.855
 30
0.000000
  70
    32
  0
VERTEX
  8
0
  5
AA83
 10
240.735
 20
243.870
 30
0.000000
  70
    32
  0
VERTEX
  8
0
  5
AA84
 10
240.732
 20
243.885
 30
0.000000
  70
    32
  0
VERTEX
  8
0
  5
AA85
 10
240.729
 20
243.899
 30
0.000000
  70
    32
  0
VERTEX
  8
0
  5
AA86
 10
240.726
 20
243.914
 30
0.000000
  70
    32
  0
VERTEX
  8
0
  5
AA87
 10
240.722
 20
243.928
 30
0.000000
  70
    32
  0
VERTEX
  8
0
  5
AA88
 10
240.718
 20
243.942
 30
0.000000
  70
    32
  0
VERTEX
  8
0
  5
AA89
 10
240.713
 20
243.957
 30
0.000000
  70
    32
  0
VERTEX
  8
0
  5
AA8A
 10
240.708
 20
243.971
 30
0.000000
  70
    32
  0
VERTEX
  8
0
  5
AA8B
 10
240.703
 20
243.985
 30
0.000000
  70
    32
  0
VERTEX
  8
0
  5
AA8C
 10
240.697
 20
243.999
 30
0.000000
  70
    32
  0
VERTEX
  8
0
  5
AA8D
 10
240.690
 20
244.012
 30
0.000000
  70
    32
  0
VERTEX
  8
0
  5
AA8E
 10
240.683
 20
244.026
 30
0.000000
  70
    32
  0
VERTEX
  8
0
  5
AA8F
 10
240.676
 20
244.040
 30
0.000000
  70
    32
  0
VERTEX
  8
0
  5
AA90
 10
240.668
 20
244.053
 30
0.000000
  70
    32
  0
VERTEX
  8
0
  5
AA91
 10
240.660
 20
244.066
 30
0.000000
  70
    32
  0
VERTEX
  8
0
  5
AA92
 10
240.652
 20
244.079
 30
0.000000
  70
    32
  0
VERTEX
  8
0
  5
AA93
 10
240.643
 20
244.092
 30
0.000000
  70
    32
  0
VERTEX
  8
0
  5
AA94
 10
240.634
 20
244.105
 30
0.000000
  70
    32
  0
VERTEX
  8
0
  5
AA95
 10
240.624
 20
244.118
 30
0.000000
  70
    32
  0
VERTEX
  8
0
  5
AA96
 10
240.614
 20
244.130
 30
0.000000
  70
    32
  0
VERTEX
  8
0
  5
AA97
 10
240.604
 20
244.142
 30
0.000000
  70
    32
  0
VERTEX
  8
0
  5
AA98
 10
240.593
 20
244.154
 30
0.000000
  70
    32
  0
VERTEX
  8
0
  5
AA99
 10
240.582
 20
244.166
 30
0.000000
  70
    32
  0
VERTEX
  8
0
  5
AA9A
 10
240.570
 20
244.177
 30
0.000000
  70
    32
  0
VERTEX
  8
0
  5
AA9B
 10
240.558
 20
244.188
 30
0.000000
  70
    32
  0
VERTEX
  8
0
  5
AA9C
 10
240.546
 20
244.199
 30
0.000000
  70
    32
  0
VERTEX
  8
0
  5
AA9D
 10
240.534
 20
244.210
 30
0.000000
  70
    32
  0
VERTEX
  8
0
  5
AA9E
 10
240.521
 20
244.221
 30
0.000000
  70
    32
  0
VERTEX
  8
0
  5
AA9F
 10
240.508
 20
244.231
 30
0.000000
  70
    32
  0
VERTEX
  8
0
  5
AAA0
 10
240.494
 20
244.241
 30
0.000000
  70
    32
  0
VERTEX
  8
0
  5
AAA1
 10
240.480
 20
244.251
 30
0.000000
  70
    32
  0
VERTEX
  8
0
  5
AAA2
 10
240.466
 20
244.260
 30
0.000000
  70
    32
  0
VERTEX
  8
0
  5
AAA3
 10
240.452
 20
244.270
 30
0.000000
  70
    32
  0
VERTEX
  8
0
  5
AAA4
 10
240.437
 20
244.278
 30
0.000000
  70
    32
  0
VERTEX
  8
0
  5
AAA5
 10
240.422
 20
244.287
 30
0.000000
  70
    32
  0
VERTEX
  8
0
  5
AAA6
 10
240.407
 20
244.295
 30
0.000000
  70
    32
  0
VERTEX
  8
0
  5
AAA7
 10
240.392
 20
244.303
 30
0.000000
  70
    32
  0
VERTEX
  8
0
  5
AAA8
 10
240.376
 20
244.311
 30
0.000000
  70
    32
  0
VERTEX
  8
0
  5
AAA9
 10
240.360
 20
244.319
 30
0.000000
  70
    32
  0
VERTEX
  8
0
  5
AAAA
 10
240.344
 20
244.326
 30
0.000000
  70
    32
  0
VERTEX
  8
0
  5
AAAB
 10
240.328
 20
244.332
 30
0.000000
  70
    32
  0
VERTEX
  8
0
  5
AAAC
 10
240.311
 20
244.339
 30
0.000000
  70
    32
  0
VERTEX
  8
0
  5
AAAD
 10
240.294
 20
244.345
 30
0.000000
  70
    32
  0
VERTEX
  8
0
  5
AAAE
 10
240.277
 20
244.351
 30
0.000000
  70
    32
  0
VERTEX
  8
0
  5
AAAF
 10
240.260
 20
244.356
 30
0.000000
  70
    32
  0
VERTEX
  8
0
  5
AAB0
 10
240.243
 20
244.361
 30
0.000000
  70
    32
  0
VERTEX
  8
0
  5
AAB1
 10
240.226
 20
244.366
 30
0.000000
  70
    32
  0
VERTEX
  8
0
  5
AAB2
 10
240.208
 20
244.371
 30
0.000000
  70
    32
  0
VERTEX
  8
0
  5
AAB3
 10
240.190
 20
244.375
 30
0.000000
  70
    32
  0
VERTEX
  8
0
  5
AAB4
 10
240.173
 20
244.379
 30
0.000000
  70
    32
  0
VERTEX
  8
0
  5
AAB5
 10
240.155
 20
244.382
 30
0.000000
  70
    32
  0
VERTEX
  8
0
  5
AAB6
 10
240.137
 20
244.385
 30
0.000000
  70
    32
  0
VERTEX
  8
0
  5
AAB7
 10
240.119
 20
244.388
 30
0.000000
  70
    32
  0
VERTEX
  8
0
  5
AAB8
 10
240.100
 20
244.390
 30
0.000000
  70
    32
  0
VERTEX
  8
0
  5
AAB9
 10
240.082
 20
244.392
 30
0.000000
  70
    32
  0
VERTEX
  8
0
  5
AABA
 10
240.064
 20
244.394
 30
0.000000
  70
    32
  0
VERTEX
  8
0
  5
AABB
 10
240.046
 20
244.395
 30
0.000000
  70
    32
  0
VERTEX
  8
0
  5
AABC
 10
240.027
 20
244.396
 30
0.000000
  70
    32
  0
VERTEX
  8
0
  5
AABD
 10
240.009
 20
244.396
 30
0.000000
  70
    32
  0
VERTEX
  8
0
  5
AABE
 10
239.990
 20
244.397
 30
0.000000
  70
    32
  0
SEQEND
  8
0
  5
AABF
  0
LINE
  5
A007
  8
0
 10
240.74043811817231
 20
245.6965624999284
 30
0.0
 11
240.74043811817231
 21
244.69656047337051
 31
0.0
  0
LINE
  5
A008
  8
0
 10
239.87441243190821
 20
246.19656351320739
 30
0.0
 11
240.74043811817231
 21
245.6965624999284
 31
0.0
  0
LINE
  5
A009
  8
0
 10
240.74043811817231
 20
244.69656047337051
 30
0.0
 11
240.22082252014931
 21
244.3965628456354
 31
0.0
  0
LINE
  5
A00A
  8
0
 10
214.7404375817305
 20
244.69656047337051
 30
0.0
 11
215.26005317975341
 21
244.3965628456354
 31
0.0
  0
LINE
  5
A00B
  8
0
 10
215.60646326799451
 20
246.19656351320739
 30
0.0
 11
214.7404375817305
 21
245.6965624999284
 31
0.0
  0
POLYLINE
  5
A00C
  8
0
 10
215.49043784995141
 20
244.3965613078355
 30
0.0
 66
     1
 70
     8
  0
VERTEX
  8
0
  5
AAC0
 10
215.490
 20
244.397
 30
0.000000
  70
    32
  0
VERTEX
  8
0
  5
AAC1
 10
215.472
 20
244.396
 30
0.000000
  70
    32
  0
VERTEX
  8
0
  5
AAC2
 10
215.454
 20
244.396
 30
0.000000
  70
    32
  0
VERTEX
  8
0
  5
AAC3
 10
215.435
 20
244.395
 30
0.000000
  70
    32
  0
VERTEX
  8
0
  5
AAC4
 10
215.417
 20
244.394
 30
0.000000
  70
    32
  0
VERTEX
  8
0
  5
AAC5
 10
215.399
 20
244.392
 30
0.000000
  70
    32
  0
VERTEX
  8
0
  5
AAC6
 10
215.380
 20
244.390
 30
0.000000
  70
    32
  0
VERTEX
  8
0
  5
AAC7
 10
215.362
 20
244.388
 30
0.000000
  70
    32
  0
VERTEX
  8
0
  5
AAC8
 10
215.344
 20
244.385
 30
0.000000
  70
    32
  0
VERTEX
  8
0
  5
AAC9
 10
215.326
 20
244.382
 30
0.000000
  70
    32
  0
VERTEX
  8
0
  5
AACA
 10
215.308
 20
244.379
 30
0.000000
  70
    32
  0
VERTEX
  8
0
  5
AACB
 10
215.290
 20
244.375
 30
0.000000
  70
    32
  0
VERTEX
  8
0
  5
AACC
 10
215.273
 20
244.371
 30
0.000000
  70
    32
  0
VERTEX
  8
0
  5
AACD
 10
215.255
 20
244.366
 30
0.000000
  70
    32
  0
VERTEX
  8
0
  5
AACE
 10
215.238
 20
244.361
 30
0.000000
  70
    32
  0
VERTEX
  8
0
  5
AACF
 10
215.221
 20
244.356
 30
0.000000
  70
    32
  0
VERTEX
  8
0
  5
AAD0
 10
215.203
 20
244.351
 30
0.000000
  70
    32
  0
VERTEX
  8
0
  5
AAD1
 10
215.187
 20
244.345
 30
0.000000
  70
    32
  0
VERTEX
  8
0
  5
AAD2
 10
215.170
 20
244.339
 30
0.000000
  70
    32
  0
VERTEX
  8
0
  5
AAD3
 10
215.153
 20
244.332
 30
0.000000
  70
    32
  0
VERTEX
  8
0
  5
AAD4
 10
215.137
 20
244.326
 30
0.000000
  70
    32
  0
VERTEX
  8
0
  5
AAD5
 10
215.121
 20
244.319
 30
0.000000
  70
    32
  0
VERTEX
  8
0
  5
AAD6
 10
215.105
 20
244.311
 30
0.000000
  70
    32
  0
VERTEX
  8
0
  5
AAD7
 10
215.089
 20
244.303
 30
0.000000
  70
    32
  0
VERTEX
  8
0
  5
AAD8
 10
215.074
 20
244.295
 30
0.000000
  70
    32
  0
VERTEX
  8
0
  5
AAD9
 10
215.059
 20
244.287
 30
0.000000
  70
    32
  0
VERTEX
  8
0
  5
AADA
 10
215.044
 20
244.278
 30
0.000000
  70
    32
  0
VERTEX
  8
0
  5
AADB
 10
215.029
 20
244.270
 30
0.000000
  70
    32
  0
VERTEX
  8
0
  5
AADC
 10
215.015
 20
244.260
 30
0.000000
  70
    32
  0
VERTEX
  8
0
  5
AADD
 10
215.001
 20
244.251
 30
0.000000
  70
    32
  0
VERTEX
  8
0
  5
AADE
 10
214.987
 20
244.241
 30
0.000000
  70
    32
  0
VERTEX
  8
0
  5
AADF
 10
214.973
 20
244.231
 30
0.000000
  70
    32
  0
VERTEX
  8
0
  5
AAE0
 10
214.960
 20
244.221
 30
0.000000
  70
    32
  0
VERTEX
  8
0
  5
AAE1
 10
214.947
 20
244.210
 30
0.000000
  70
    32
  0
VERTEX
  8
0
  5
AAE2
 10
214.935
 20
244.199
 30
0.000000
  70
    32
  0
VERTEX
  8
0
  5
AAE3
 10
214.923
 20
244.188
 30
0.000000
  70
    32
  0
VERTEX
  8
0
  5
AAE4
 10
214.911
 20
244.177
 30
0.000000
  70
    32
  0
VERTEX
  8
0
  5
AAE5
 10
214.899
 20
244.166
 30
0.000000
  70
    32
  0
VERTEX
  8
0
  5
AAE6
 10
214.888
 20
244.154
 30
0.000000
  70
    32
  0
VERTEX
  8
0
  5
AAE7
 10
214.877
 20
244.142
 30
0.000000
  70
    32
  0
VERTEX
  8
0
  5
AAE8
 10
214.867
 20
244.130
 30
0.000000
  70
    32
  0
VERTEX
  8
0
  5
AAE9
 10
214.857
 20
244.118
 30
0.000000
  70
    32
  0
VERTEX
  8
0
  5
AAEA
 10
214.847
 20
244.105
 30
0.000000
  70
    32
  0
VERTEX
  8
0
  5
AAEB
 10
214.838
 20
244.092
 30
0.000000
  70
    32
  0
VERTEX
  8
0
  5
AAEC
 10
214.829
 20
244.079
 30
0.000000
  70
    32
  0
VERTEX
  8
0
  5
AAED
 10
214.821
 20
244.066
 30
0.000000
  70
    32
  0
VERTEX
  8
0
  5
AAEE
 10
214.812
 20
244.053
 30
0.000000
  70
    32
  0
VERTEX
  8
0
  5
AAEF
 10
214.805
 20
244.040
 30
0.000000
  70
    32
  0
VERTEX
  8
0
  5
AAF0
 10
214.798
 20
244.026
 30
0.000000
  70
    32
  0
VERTEX
  8
0
  5
AAF1
 10
214.791
 20
244.012
 30
0.000000
  70
    32
  0
VERTEX
  8
0
  5
AAF2
 10
214.784
 20
243.999
 30
0.000000
  70
    32
  0
VERTEX
  8
0
  5
AAF3
 10
214.778
 20
243.985
 30
0.000000
  70
    32
  0
VERTEX
  8
0
  5
AAF4
 10
214.773
 20
243.971
 30
0.000000
  70
    32
  0
VERTEX
  8
0
  5
AAF5
 10
214.768
 20
243.957
 30
0.000000
  70
    32
  0
VERTEX
  8
0
  5
AAF6
 10
214.763
 20
243.942
 30
0.000000
  70
    32
  0
VERTEX
  8
0
  5
AAF7
 10
214.759
 20
243.928
 30
0.000000
  70
    32
  0
VERTEX
  8
0
  5
AAF8
 10
214.755
 20
243.914
 30
0.000000
  70
    32
  0
VERTEX
  8
0
  5
AAF9
 10
214.751
 20
243.899
 30
0.000000
  70
    32
  0
VERTEX
  8
0
  5
AAFA
 10
214.749
 20
243.885
 30
0.000000
  70
    32
  0
VERTEX
  8
0
  5
AAFB
 10
214.746
 20
243.870
 30
0.000000
  70
    32
  0
VERTEX
  8
0
  5
AAFC
 10
214.744
 20
243.855
 30
0.000000
  70
    32
  0
VERTEX
  8
0
  5
AAFD
 10
214.742
 20
243.841
 30
0.000000
  70
    32
  0
VERTEX
  8
0
  5
AAFE
 10
214.741
 20
243.826
 30
0.000000
  70
    32
  0
VERTEX
  8
0
  5
AAFF
 10
214.741
 20
243.811
 30
0.000000
  70
    32
  0
VERTEX
  8
0
  5
AB00
 10
214.740
 20
243.797
 30
0.000000
  70
    32
  0
VERTEX
  8
0
  5
AB01
 10
214.741
 20
243.782
 30
0.000000
  70
    32
  0
VERTEX
  8
0
  5
AB02
 10
214.741
 20
243.767
 30
0.000000
  70
    32
  0
VERTEX
  8
0
  5
AB03
 10
214.742
 20
243.752
 30
0.000000
  70
    32
  0
VERTEX
  8
0
  5
AB04
 10
214.744
 20
243.738
 30
0.000000
  70
    32
  0
VERTEX
  8
0
  5
AB05
 10
214.746
 20
243.723
 30
0.000000
  70
    32
  0
VERTEX
  8
0
  5
AB06
 10
214.749
 20
243.709
 30
0.000000
  70
    32
  0
VERTEX
  8
0
  5
AB07
 10
214.751
 20
243.694
 30
0.000000
  70
    32
  0
VERTEX
  8
0
  5
AB08
 10
214.755
 20
243.680
 30
0.000000
  70
    32
  0
VERTEX
  8
0
  5
AB09
 10
214.759
 20
243.665
 30
0.000000
  70
    32
  0
VERTEX
  8
0
  5
AB0A
 10
214.763
 20
243.651
 30
0.000000
  70
    32
  0
VERTEX
  8
0
  5
AB0B
 10
214.768
 20
243.637
 30
0.000000
  70
    32
  0
VERTEX
  8
0
  5
AB0C
 10
214.773
 20
243.622
 30
0.000000
  70
    32
  0
VERTEX
  8
0
  5
AB0D
 10
214.778
 20
243.608
 30
0.000000
  70
    32
  0
VERTEX
  8
0
  5
AB0E
 10
214.784
 20
243.594
 30
0.000000
  70
    32
  0
VERTEX
  8
0
  5
AB0F
 10
214.791
 20
243.581
 30
0.000000
  70
    32
  0
VERTEX
  8
0
  5
AB10
 10
214.798
 20
243.567
 30
0.000000
  70
    32
  0
VERTEX
  8
0
  5
AB11
 10
214.805
 20
243.553
 30
0.000000
  70
    32
  0
VERTEX
  8
0
  5
AB12
 10
214.812
 20
243.540
 30
0.000000
  70
    32
  0
VERTEX
  8
0
  5
AB13
 10
214.821
 20
243.527
 30
0.000000
  70
    32
  0
VERTEX
  8
0
  5
AB14
 10
214.829
 20
243.514
 30
0.000000
  70
    32
  0
VERTEX
  8
0
  5
AB15
 10
214.838
 20
243.501
 30
0.000000
  70
    32
  0
VERTEX
  8
0
  5
AB16
 10
214.847
 20
243.488
 30
0.000000
  70
    32
  0
VERTEX
  8
0
  5
AB17
 10
214.857
 20
243.476
 30
0.000000
  70
    32
  0
VERTEX
  8
0
  5
AB18
 10
214.867
 20
243.463
 30
0.000000
  70
    32
  0
VERTEX
  8
0
  5
AB19
 10
214.877
 20
243.451
 30
0.000000
  70
    32
  0
VERTEX
  8
0
  5
AB1A
 10
214.888
 20
243.439
 30
0.000000
  70
    32
  0
VERTEX
  8
0
  5
AB1B
 10
214.899
 20
243.427
 30
0.000000
  70
    32
  0
VERTEX
  8
0
  5
AB1C
 10
214.911
 20
243.416
 30
0.000000
  70
    32
  0
VERTEX
  8
0
  5
AB1D
 10
214.923
 20
243.405
 30
0.000000
  70
    32
  0
VERTEX
  8
0
  5
AB1E
 10
214.935
 20
243.394
 30
0.000000
  70
    32
  0
VERTEX
  8
0
  5
AB1F
 10
214.947
 20
243.383
 30
0.000000
  70
    32
  0
VERTEX
  8
0
  5
AB20
 10
214.960
 20
243.372
 30
0.000000
  70
    32
  0
VERTEX
  8
0
  5
AB21
 10
214.973
 20
243.362
 30
0.000000
  70
    32
  0
VERTEX
  8
0
  5
AB22
 10
214.987
 20
243.352
 30
0.000000
  70
    32
  0
VERTEX
  8
0
  5
AB23
 10
215.001
 20
243.342
 30
0.000000
  70
    32
  0
VERTEX
  8
0
  5
AB24
 10
215.015
 20
243.333
 30
0.000000
  70
    32
  0
VERTEX
  8
0
  5
AB25
 10
215.029
 20
243.324
 30
0.000000
  70
    32
  0
VERTEX
  8
0
  5
AB26
 10
215.044
 20
243.315
 30
0.000000
  70
    32
  0
VERTEX
  8
0
  5
AB27
 10
215.059
 20
243.306
 30
0.000000
  70
    32
  0
VERTEX
  8
0
  5
AB28
 10
215.074
 20
243.298
 30
0.000000
  70
    32
  0
VERTEX
  8
0
  5
AB29
 10
215.089
 20
243.290
 30
0.000000
  70
    32
  0
VERTEX
  8
0
  5
AB2A
 10
215.105
 20
243.282
 30
0.000000
  70
    32
  0
VERTEX
  8
0
  5
AB2B
 10
215.121
 20
243.275
 30
0.000000
  70
    32
  0
VERTEX
  8
0
  5
AB2C
 10
215.137
 20
243.267
 30
0.000000
  70
    32
  0
VERTEX
  8
0
  5
AB2D
 10
215.153
 20
243.261
 30
0.000000
  70
    32
  0
VERTEX
  8
0
  5
AB2E
 10
215.170
 20
243.254
 30
0.000000
  70
    32
  0
VERTEX
  8
0
  5
AB2F
 10
215.187
 20
243.248
 30
0.000000
  70
    32
  0
VERTEX
  8
0
  5
AB30
 10
215.203
 20
243.242
 30
0.000000
  70
    32
  0
VERTEX
  8
0
  5
AB31
 10
215.221
 20
243.237
 30
0.000000
  70
    32
  0
VERTEX
  8
0
  5
AB32
 10
215.238
 20
243.232
 30
0.000000
  70
    32
  0
VERTEX
  8
0
  5
AB33
 10
215.255
 20
243.227
 30
0.000000
  70
    32
  0
VERTEX
  8
0
  5
AB34
 10
215.273
 20
243.222
 30
0.000000
  70
    32
  0
VERTEX
  8
0
  5
AB35
 10
215.290
 20
243.218
 30
0.000000
  70
    32
  0
VERTEX
  8
0
  5
AB36
 10
215.308
 20
243.215
 30
0.000000
  70
    32
  0
VERTEX
  8
0
  5
AB37
 10
215.326
 20
243.211
 30
0.000000
  70
    32
  0
VERTEX
  8
0
  5
AB38
 10
215.344
 20
243.208
 30
0.000000
  70
    32
  0
VERTEX
  8
0
  5
AB39
 10
215.362
 20
243.205
 30
0.000000
  70
    32
  0
VERTEX
  8
0
  5
AB3A
 10
215.380
 20
243.203
 30
0.000000
  70
    32
  0
VERTEX
  8
0
  5
AB3B
 10
215.399
 20
243.201
 30
0.000000
  70
    32
  0
VERTEX
  8
0
  5
AB3C
 10
215.417
 20
243.199
 30
0.000000
  70
    32
  0
VERTEX
  8
0
  5
AB3D
 10
215.435
 20
243.198
 30
0.000000
  70
    32
  0
VERTEX
  8
0
  5
AB3E
 10
215.454
 20
243.197
 30
0.000000
  70
    32
  0
VERTEX
  8
0
  5
AB3F
 10
215.472
 20
243.197
 30
0.000000
  70
    32
  0
VERTEX
  8
0
  5
AB40
 10
215.490
 20
243.197
 30
0.000000
  70
    32
  0
SEQEND
  8
0
  5
AB41
  0
LINE
  5
A00D
  8
0
 10
214.7404375817305
 20
245.6965624999284
 30
0.0
 11
214.7404375817305
 21
244.69656047337051
 31
0.0
  0
LINE
  5
A00E
  8
0
 10
130.74043743271881
 20
244.6965596985101
 30
0.0
 11
130.2208218346959
 21
244.39656207077499
 31
0.0
  0
LINE
  5
A00F
  8
0
 10
130.74043743271881
 20
245.69656172506799
 30
0.0
 11
130.74043743271881
 21
244.6965596985101
 31
0.0
  0
LINE
  5
A010
  8
0
 10
129.8744117464548
 20
246.19656273834701
 30
0.0
 11
130.74043743271881
 21
245.69656172506799
 31
0.0
  0
LINE
  5
A011
  8
0
 10
104.740436896277
 20
244.6965596985101
 30
0.0
 11
105.2600524943
 21
244.39656207077499
 31
0.0
  0
LINE
  5
A012
  8
0
 10
104.740436896277
 20
245.69656172506799
 30
0.0
 11
104.740436896277
 21
244.6965596985101
 31
0.0
  0
LINE
  5
A013
  8
0
 10
105.6064625825411
 20
246.19656273834701
 30
0.0
 11
104.740436896277
 21
245.69656172506799
 31
0.0
  0
ARC
  5
A014
  8
0
 10
342.49043723526881
 20
247.33323706875569
 30
0.0
 40
13.71902589533738
 50
69.742828538245888
 51
110.2571714616675
  0
ARC
  5
A015
  8
0
 10
332.9904375407591
 20
247.3332370687568
 30
0.0
 40
13.71902589533738
 50
69.742828538319387
 51
110.2571714617409
  0
ARC
  5
A016
  8
0
 10
122.4904370117432
 20
247.33323706875811
 30
0.0
 40
13.71902589533738
 50
69.742828538245902
 51
110.2571714616675
  0
ARC
  5
A017
  8
0
 10
112.9904373172335
 20
247.33323706875919
 30
0.0
 40
13.71902589533738
 50
69.742828538319358
 51
110.2571714617409
  0
LINE
  5
A018
  8
0
 10
126.99043728370719
 20
261.19656333439337
 30
0.0
 11
127.2404368590241
 21
261.05222323648923
 31
0.0
  0
LINE
  5
A019
  8
0
 10
127.2404368590241
 20
261.05222323648923
 30
0.0
 11
127.2404368590241
 21
260.2037138652085
 31
0.0
  0
LINE
  5
A01A
  8
0
 10
108.4904370452886
 20
261.19656333439337
 30
0.0
 11
108.2404374699717
 21
261.05222323648923
 31
0.0
  0
LINE
  5
A01B
  8
0
 10
108.2404374699717
 20
261.05222323648923
 30
0.0
 11
108.2404374699635
 21
260.20371386520588
 31
0.0
  0
LINE
  5
A01C
  8
0
 10
112.99043731723479
 20
269.19656059257977
 30
0.0
 11
111.7404371123439
 21
267.94656178467272
 31
0.0
  0
LINE
  5
A01D
  8
0
 10
111.7404371123439
 20
267.94656178467272
 30
0.0
 11
111.7404371123439
 21
261.19656333439337
 31
0.0
  0
LINE
  5
A01E
  8
0
 10
122.490437011761
 20
269.19656059257977
 30
0.0
 11
123.740437216652
 21
267.94656178467272
 31
0.0
  0
LINE
  5
A01F
  8
0
 10
123.740437216652
 20
267.94656178467272
 30
0.0
 11
123.740437216652
 21
261.19656333439337
 31
0.0
  0
LINE
  5
A020
  8
0
 10
98.740437775445571
 20
243.19656410925381
 30
0.0
 11
97.740437611532784
 21
242.19656208269589
 31
0.0
  0
LINE
  5
A021
  8
0
 10
97.740437611532784
 20
242.19656208269589
 30
0.0
 11
97.740437611532784
 21
232.69655773155679
 31
0.0
  0
LINE
  5
A022
  8
0
 10
97.740437611532784
 20
232.1965641688584
 30
0.0
 11
97.740437164497934
 21
175.99656053297511
 31
0.0
  0
LINE
  5
A023
  8
0
 10
103.7404370780712
 20
175.19656041376581
 30
0.0
 11
103.74043716449791
 21
174.6965605329751
 31
0.0
  0
LINE
  5
A024
  8
0
 10
98.540436252546897
 20
173.19655975811469
 30
0.0
 11
97.740437611532784
 21
172.39656111710059
 31
0.0
  0
LINE
  5
A025
  8
0
 10
97.740437611532784
 20
172.39656111710059
 30
0.0
 11
97.740437611532784
 21
170.196560197699
 31
0.0
  0
LINE
  5
A026
  8
0
 10
75.240437164497962
 20
169.39656053297509
 30
0.0
 11
75.240437164497962
 21
155.1965605329751
 31
0.0
  0
LINE
  5
A027
  8
0
 10
160.2404376115328
 20
169.3965606253623
 30
0.0
 11
160.2404376115328
 21
155.1965605329751
 31
0.0
  0
LINE
  5
A028
  8
0
 10
131.74043759663161
 20
175.19656041376581
 30
0.0
 11
131.74043759663161
 21
174.69656093530651
 31
0.0
  0
LINE
  5
A029
  8
0
 10
136.940438076449
 20
173.19655975811469
 30
0.0
 11
137.7404367174631
 21
172.39656111710059
 31
0.0
  0
LINE
  5
A02A
  8
0
 10
137.7404367174631
 20
172.39656111710059
 30
0.0
 11
137.7404367174631
 21
170.196560197699
 31
0.0
  0
LINE
  5
A02B
  8
0
 10
137.74043716449791
 20
175.99656053297511
 30
0.0
 11
137.7404367174631
 21
232.1965641688584
 31
0.0
  0
LINE
  5
A02C
  8
0
 10
137.7404367174631
 20
232.69655773155679
 30
0.0
 11
137.7404367174631
 21
242.19656208269589
 31
0.0
  0
LINE
  5
A02D
  8
0
 10
137.7404367174631
 20
242.19656208269589
 30
0.0
 11
136.7404365535503
 21
243.19656410925381
 31
0.0
  0
LINE
  5
A02E
  8
0
 10
121.24043727253149
 20
245.26727417223449
 30
0.0
 11
121.24043727253149
 21
242.06258574240201
 31
0.0
  0
LINE
  5
A02F
  8
0
 10
121.24043727253149
 20
242.06258574240201
 30
0.0
 11
122.7404370527394
 21
241.196560056138
 31
0.0
  0
LINE
  5
A030
  8
0
 10
114.2404370564647
 20
245.26727417223449
 30
0.0
 11
114.2404370564647
 21
242.06258574240201
 31
0.0
  0
LINE
  5
A031
  8
0
 10
114.2404370564647
 20
242.06258574240201
 30
0.0
 11
112.7404372762568
 21
241.196560056138
 31
0.0
  0
LINE
  5
A032
  8
0
 10
112.7404372762568
 20
207.19656193368431
 30
0.0
 11
112.7404372762568
 21
196.6965592812775
 31
0.0
  0
LINE
  5
A033
  8
0
 10
122.7404370527394
 20
207.19656193368431
 30
0.0
 11
122.7404370527394
 21
196.69655928127759
 31
0.0
  0
LINE
  5
A034
  8
0
 10
222.99043753702699
 20
269.19656136744021
 30
0.0
 11
221.740437332136
 21
267.94656255953311
 31
0.0
  0
LINE
  5
A035
  8
0
 10
221.740437332136
 20
267.94656255953311
 30
0.0
 11
221.740437332136
 21
261.19656333439337
 31
0.0
  0
LINE
  5
A04A
  8
0
 10
218.4904372650808
 20
261.19656410925381
 30
0.0
 11
216.77078272734559
 21
260.20371464007019
 31
0.0
  0
LINE
  5
A04B
  8
0
 10
232.49043723155319
 20
269.19656136744021
 30
0.0
 11
233.74043790210541
 21
267.94656255953311
 31
0.0
  0
LINE
  5
A04C
  8
0
 10
233.74043790210541
 20
267.94656255953311
 30
0.0
 11
233.74043790210541
 21
261.19656333439337
 31
0.0
  0
LINE
  5
A04D
  8
0
 10
236.99043796916069
 20
261.19656410925381
 30
0.0
 11
238.71009157557549
 21
260.20371464006888
 31
0.0
  0
LINE
  5
A04E
  8
0
 10
246.7404372390038
 20
243.1965648841142
 30
0.0
 11
247.74043740291651
 21
242.1965628575563
 31
0.0
  0
LINE
  5
A04F
  8
0
 10
247.74043740291651
 20
242.1965628575563
 30
0.0
 11
247.74043740291651
 21
235.19656357281201
 31
0.0
  0
LINE
  5
A050
  8
0
 10
246.9404387619025
 20
235.19656357281201
 30
0.0
 11
247.74043740291651
 21
234.39656493179791
 31
0.0
  0
LINE
  5
A051
  8
0
 10
247.74043740291651
 20
234.39656493179791
 30
0.0
 11
247.7404374029183
 21
175.9965591151265
 31
0.0
  0
LINE
  5
A056
  8
0
 10
241.74043828208499
 20
175.19656041376581
 30
0.0
 11
241.74043828208499
 21
174.69656089525961
 31
0.0
  0
LINE
  5
A057
  8
0
 10
246.94043876190241
 20
173.19655975811469
 30
0.0
 11
247.7404374029166
 21
172.39656113526141
 31
0.0
  0
LINE
  5
A059
  8
0
 10
207.74043829698621
 20
206.19656068198671
 30
0.0
 11
207.74043829698451
 21
175.9965591151265
 31
0.0
  0
LINE
  5
A05A
  8
0
 10
213.74043695215639
 20
175.19656041376581
 30
0.0
 11
213.74043695215639
 21
174.69656089525961
 31
0.0
  0
LINE
  5
A05B
  8
0
 10
208.54043693800031
 20
173.19655975811469
 30
0.0
 11
207.74043829698621
 21
172.39656113526141
 31
0.0
  0
LINE
  5
A05E
  8
0
 10
187.7404368813759
 20
207.19656270854469
 30
0.0
 11
187.7404368813759
 21
196.696560056138
 31
0.0
  0
LINE
  5
A05F
  8
0
 10
177.74043524224811
 20
207.19656270854469
 30
0.0
 11
177.74043524224811
 21
196.696560056138
 31
0.0
  0
LINE
  5
A061
  8
0
 10
172.74043628532939
 20
234.39656493179791
 30
0.0
 11
172.74043628532939
 21
213.99656200428419
 31
0.0
  0
LINE
  5
A062
  8
0
 10
179.2404345567947
 20
245.26727494709479
 30
0.0
 11
179.2404345567947
 21
242.06258651726239
 31
0.0
  0
LINE
  5
A063
  8
0
 10
179.2404345567947
 20
242.06258651726239
 30
0.0
 11
177.74043524224811
 21
241.19656083099841
 31
0.0
  0
LINE
  5
A064
  8
0
 10
186.24043756682931
 20
245.26727494709479
 30
0.0
 11
186.24043756682931
 21
242.06258651726239
 31
0.0
  0
LINE
  5
A065
  8
0
 10
186.24043756682931
 20
242.06258651726239
 30
0.0
 11
187.7404368813759
 21
241.19656083099841
 31
0.0
  0
LINE
  5
A066
  8
0
 10
173.54043492634349
 20
235.19656357281201
 30
0.0
 11
172.74043628532939
 21
234.39656493179791
 31
0.0
  0
LINE
  5
A067
  8
0
 10
208.74043846089899
 20
243.1965648841142
 30
0.0
 11
207.74043829698621
 21
242.1965628575563
 31
0.0
  0
LINE
  5
A068
  8
0
 10
207.74043829698621
 20
242.1965628575563
 30
0.0
 11
207.74043829698621
 21
235.19656357281201
 31
0.0
  0
LINE
  5
A072
  8
0
 10
222.25561005954211
 20
347.38895360986209
 30
0.0
 11
233.22526471648871
 21
347.38895360986209
 31
0.0
  0
LINE
  5
A073
  8
0
 10
233.22526471648871
 20
347.38895360986209
 30
0.0
 11
238.71009204496539
 21
337.88895391533617
 31
0.0
  0
LINE
  5
A074
  8
0
 10
238.71009204496539
 20
337.88895391533617
 30
0.0
 11
233.22526471648871
 21
328.38895422080969
 31
0.0
  0
LINE
  5
A075
  8
0
 10
233.22526471648871
 20
328.38895422080969
 30
0.0
 11
222.25561005954211
 21
328.38895422080969
 31
0.0
  0
LINE
  5
A076
  8
0
 10
222.25561005954211
 20
328.38895422080969
 30
0.0
 11
216.77078273106881
 21
337.88895391533589
 31
0.0
  0
LINE
  5
A077
  8
0
 10
216.77078273106881
 20
337.88895391533589
 30
0.0
 11
222.25561005954199
 21
347.38895360986209
 31
0.0
  0
ARC
  5
A07A
  8
0
 10
227.74043738429009
 20
242.8573572450826
 30
0.0
 40
18.192840506577468
 50
72.453318543988033
 51
107.546681456012
  0
ARC
  5
A07B
  8
0
 10
235.96767814416941
 20
256.19405433094079
 30
0.0
 40
4.8577985984757976
 50
55.629762836619733
 51
124.3702371633802
  0
ARC
  5
A07D
  8
0
 10
219.51319615875161
 20
256.19405433094209
 30
0.0
 40
4.8577985984757976
 50
55.629762836619733
 51
124.3702371633802
  0
LINE
  5
A07E
  8
1
 10
337.74043738801538
 20
274.1965613674401
 30
0.0
 11
337.74043738801538
 21
150.1965605329751
 31
0.0
  0
LINE
  5
A088
  8
3
 10
121.92843716449801
 20
196.69655928127759
 30
0.0
 11
121.92843716449801
 21
207.19656193368431
 31
0.0
  0
LINE
  5
A089
  8
3
 10
113.5524371644978
 20
196.69655928127759
 30
0.0
 11
113.5524371644978
 21
207.19656193368431
 31
0.0
  0
LINE
  5
A0BA
  8
3
 10
112.68743716449789
 20
261.19656333439337
 30
0.0
 11
112.68743716449789
 21
268.89356178467273
 31
0.0
  0
LINE
  5
A0BB
  8
3
 10
122.793437164498
 20
261.19656333439337
 30
0.0
 11
122.7934371644979
 21
268.89356178467261
 31
0.0
  0
LINE
  5
A0BC
  8
3
 10
232.79343738801541
 20
261.19656333439337
 30
0.0
 11
232.79343738801541
 21
268.89356178467261
 31
0.0
  0
LINE
  5
A0BD
  8
3
 10
222.6874373880153
 20
261.19656333439337
 30
0.0
 11
222.6874373880153
 21
268.89356178467273
 31
0.0
  0
LINE
  5
A0BE
  8
3
 10
342.79343738801538
 20
261.19656333439337
 30
0.0
 11
342.79343738801538
 21
268.89356100981212
 31
0.0
  0
LINE
  5
A0BF
  8
3
 10
332.68743738801538
 20
261.19656333439337
 30
0.0
 11
332.68743738801538
 21
268.89356100981217
 31
0.0
  0
CIRCLE
  5
A0C5
  8
3
 10
227.74043738801541
 20
337.88895391533617
 30
0.0
 40
5.0530000000000248
  0
LINE
  5
A109
  8
3
 10
178.5524360618117
 20
196.696560056138
 30
0.0
 11
178.5524360618117
 21
207.1965627085446
 31
0.0
  0
LINE
  5
A10A
  8
3
 10
186.92843606181191
 20
196.696560056138
 30
0.0
 11
186.92843606181191
 21
207.1965627085446
 31
0.0
  0
LINE
  5
A10B
  8
3
 10
488.55243871421879
 20
196.696560056138
 30
0.0
 11
488.55243871421879
 21
207.1965627085446
 31
0.0
  0
LINE
  5
A10C
  8
3
 10
496.928438714219
 20
196.696560056138
 30
0.0
 11
496.928438714219
 21
207.1965627085446
 31
0.0
  0
LINE
  5
A10D
  8
3
 10
452.79343738801549
 20
261.19656333439337
 30
0.0
 11
452.79343738801549
 21
268.89356178467273
 31
0.0
  0
LINE
  5
A10E
  8
3
 10
442.68743738801538
 20
261.19656333439337
 30
0.0
 11
442.68743738801538
 21
268.89356178467261
 31
0.0
  0
ARC
  5
A10F
  8
0
 10
455.96767861727932
 20
256.19405433094209
 30
0.0
 40
4.8577985984757976
 50
55.629762836619733
 51
124.3702371633802
  0
ARC
  5
A110
  8
0
 10
439.51319663186132
 20
256.19405433094079
 30
0.0
 40
4.8577985984757976
 50
55.629762836619733
 51
124.3702371633802
  0
ARC
  5
A111
  8
0
 10
447.74043739174073
 20
242.8573572450826
 30
0.0
 40
18.192840506577468
 50
72.453318543988047
 51
107.5466814560119
  0
LINE
  5
A11A
  8
0
 10
467.74043647904449
 20
242.1965628575563
 30
0.0
 11
467.74043647904449
 21
235.19656357281201
 31
0.0
  0
LINE
  5
A11B
  8
0
 10
466.74043631513177
 20
243.1965648841142
 30
0.0
 11
467.74043647904449
 21
242.1965628575563
 31
0.0
  0
LINE
  5
A11C
  8
0
 10
489.24043720920139
 20
242.06258651726239
 30
0.0
 11
487.74043789465492
 21
241.19656083099841
 31
0.0
  0
LINE
  5
A11D
  8
0
 10
489.24043720920139
 20
245.26727494709479
 30
0.0
 11
489.24043720920139
 21
242.06258651726239
 31
0.0
  0
LINE
  5
A11E
  8
0
 10
496.24044021923612
 20
242.06258651726239
 30
0.0
 11
497.74043953378271
 21
241.19656083099841
 31
0.0
  0
LINE
  5
A11F
  8
0
 10
496.24044021923612
 20
245.26727494709479
 30
0.0
 11
496.24044021923612
 21
242.06258651726239
 31
0.0
  0
LINE
  5
A120
  8
0
 10
497.74043953378271
 20
207.19656270854469
 30
0.0
 11
497.74043953378271
 21
196.696560056138
 31
0.0
  0
LINE
  5
A121
  8
0
 10
487.74043789465492
 20
207.19656270854469
 30
0.0
 11
487.74043789465492
 21
196.696560056138
 31
0.0
  0
LINE
  5
A123
  8
0
 10
466.94043783803039
 20
173.19655975811469
 30
0.0
 11
467.74043647904449
 21
172.39656113526141
 31
0.0
  0
LINE
  5
A124
  8
0
 10
461.74043782387429
 20
175.19656041376581
 30
0.0
 11
461.74043782387429
 21
174.69656089525961
 31
0.0
  0
LINE
  5
A125
  8
0
 10
467.74043647904449
 20
206.19656068198671
 30
0.0
 11
467.7404364790462
 21
175.9965591151265
 31
0.0
  0
LINE
  5
A127
  8
0
 10
428.54043601412832
 20
173.19655975811469
 30
0.0
 11
427.74043737311422
 21
172.39656113526141
 31
0.0
  0
LINE
  5
A128
  8
0
 10
433.74043649394571
 20
175.19656041376581
 30
0.0
 11
433.74043649394571
 21
174.69656089525961
 31
0.0
  0
LINE
  5
A12E
  8
0
 10
428.54043601412832
 20
235.19656357281201
 30
0.0
 11
427.74043737311422
 21
234.39656493179791
 31
0.0
  0
LINE
  5
A12F
  8
0
 10
427.74043737311422
 20
242.1965628575563
 30
0.0
 11
427.74043737311422
 21
235.19656357281201
 31
0.0
  0
LINE
  5
A130
  8
0
 10
428.74043753702699
 20
243.1965648841142
 30
0.0
 11
427.74043737311422
 21
242.1965628575563
 31
0.0
  0
LINE
  5
A131
  8
0
 10
438.49043680687009
 20
261.19656410925381
 30
0.0
 11
436.7707832004553
 21
260.20371464006888
 31
0.0
  0
LINE
  5
A132
  8
0
 10
441.74043687392532
 20
267.94656255953311
 30
0.0
 11
441.74043687392532
 21
261.19656333439337
 31
0.0
  0
LINE
  5
A133
  8
0
 10
442.99043754447757
 20
269.19656136744021
 30
0.0
 11
441.74043687392532
 21
267.94656255953311
 31
0.0
  0
LINE
  5
A134
  8
0
 10
456.99043751095002
 20
261.19656410925381
 30
0.0
 11
458.71009204868511
 21
260.20371464007019
 31
0.0
  0
LINE
  5
A135
  8
0
 10
453.74043744389468
 20
267.94656255953311
 30
0.0
 11
453.74043744389468
 21
261.19656333439337
 31
0.0
  0
LINE
  5
A136
  8
0
 10
452.49043723900382
 20
269.19656136744021
 30
0.0
 11
453.74043744389468
 21
267.94656255953311
 31
0.0
  0
LINE
  5
A137
  8
0
 10
460.74043719430028
 20
245.6965624999284
 30
0.0
 11
460.74043719430028
 21
244.69656047337051
 31
0.0
  0
POLYLINE
  5
A138
  8
0
 10
459.99043692607933
 20
244.3965613078355
 30
0.0
 66
     1
 70
     8
  0
VERTEX
  8
0
  5
AB42
 10
459.990
 20
244.397
 30
0.000000
  70
    32
  0
VERTEX
  8
0
  5
AB43
 10
460.009
 20
244.396
 30
0.000000
  70
    32
  0
VERTEX
  8
0
  5
AB44
 10
460.027
 20
244.396
 30
0.000000
  70
    32
  0
VERTEX
  8
0
  5
AB45
 10
460.046
 20
244.395
 30
0.000000
  70
    32
  0
VERTEX
  8
0
  5
AB46
 10
460.064
 20
244.394
 30
0.000000
  70
    32
  0
VERTEX
  8
0
  5
AB47
 10
460.082
 20
244.392
 30
0.000000
  70
    32
  0
VERTEX
  8
0
  5
AB48
 10
460.100
 20
244.390
 30
0.000000
  70
    32
  0
VERTEX
  8
0
  5
AB49
 10
460.119
 20
244.388
 30
0.000000
  70
    32
  0
VERTEX
  8
0
  5
AB4A
 10
460.137
 20
244.385
 30
0.000000
  70
    32
  0
VERTEX
  8
0
  5
AB4B
 10
460.155
 20
244.382
 30
0.000000
  70
    32
  0
VERTEX
  8
0
  5
AB4C
 10
460.173
 20
244.379
 30
0.000000
  70
    32
  0
VERTEX
  8
0
  5
AB4D
 10
460.190
 20
244.375
 30
0.000000
  70
    32
  0
VERTEX
  8
0
  5
AB4E
 10
460.208
 20
244.371
 30
0.000000
  70
    32
  0
VERTEX
  8
0
  5
AB4F
 10
460.226
 20
244.366
 30
0.000000
  70
    32
  0
VERTEX
  8
0
  5
AB50
 10
460.243
 20
244.361
 30
0.000000
  70
    32
  0
VERTEX
  8
0
  5
AB51
 10
460.260
 20
244.356
 30
0.000000
  70
    32
  0
VERTEX
  8
0
  5
AB52
 10
460.277
 20
244.351
 30
0.000000
  70
    32
  0
VERTEX
  8
0
  5
AB53
 10
460.294
 20
244.345
 30
0.000000
  70
    32
  0
VERTEX
  8
0
  5
AB54
 10
460.311
 20
244.339
 30
0.000000
  70
    32
  0
VERTEX
  8
0
  5
AB55
 10
460.328
 20
244.332
 30
0.000000
  70
    32
  0
VERTEX
  8
0
  5
AB56
 10
460.344
 20
244.326
 30
0.000000
  70
    32
  0
VERTEX
  8
0
  5
AB57
 10
460.360
 20
244.319
 30
0.000000
  70
    32
  0
VERTEX
  8
0
  5
AB58
 10
460.376
 20
244.311
 30
0.000000
  70
    32
  0
VERTEX
  8
0
  5
AB59
 10
460.392
 20
244.303
 30
0.000000
  70
    32
  0
VERTEX
  8
0
  5
AB5A
 10
460.407
 20
244.295
 30
0.000000
  70
    32
  0
VERTEX
  8
0
  5
AB5B
 10
460.422
 20
244.287
 30
0.000000
  70
    32
  0
VERTEX
  8
0
  5
AB5C
 10
460.437
 20
244.278
 30
0.000000
  70
    32
  0
VERTEX
  8
0
  5
AB5D
 10
460.452
 20
244.270
 30
0.000000
  70
    32
  0
VERTEX
  8
0
  5
AB5E
 10
460.466
 20
244.260
 30
0.000000
  70
    32
  0
VERTEX
  8
0
  5
AB5F
 10
460.480
 20
244.251
 30
0.000000
  70
    32
  0
VERTEX
  8
0
  5
AB60
 10
460.494
 20
244.241
 30
0.000000
  70
    32
  0
VERTEX
  8
0
  5
AB61
 10
460.508
 20
244.231
 30
0.000000
  70
    32
  0
VERTEX
  8
0
  5
AB62
 10
460.521
 20
244.221
 30
0.000000
  70
    32
  0
VERTEX
  8
0
  5
AB63
 10
460.534
 20
244.210
 30
0.000000
  70
    32
  0
VERTEX
  8
0
  5
AB64
 10
460.546
 20
244.199
 30
0.000000
  70
    32
  0
VERTEX
  8
0
  5
AB65
 10
460.558
 20
244.188
 30
0.000000
  70
    32
  0
VERTEX
  8
0
  5
AB66
 10
460.570
 20
244.177
 30
0.000000
  70
    32
  0
VERTEX
  8
0
  5
AB67
 10
460.582
 20
244.166
 30
0.000000
  70
    32
  0
VERTEX
  8
0
  5
AB68
 10
460.593
 20
244.154
 30
0.000000
  70
    32
  0
VERTEX
  8
0
  5
AB69
 10
460.604
 20
244.142
 30
0.000000
  70
    32
  0
VERTEX
  8
0
  5
AB6A
 10
460.614
 20
244.130
 30
0.000000
  70
    32
  0
VERTEX
  8
0
  5
AB6B
 10
460.624
 20
244.118
 30
0.000000
  70
    32
  0
VERTEX
  8
0
  5
AB6C
 10
460.634
 20
244.105
 30
0.000000
  70
    32
  0
VERTEX
  8
0
  5
AB6D
 10
460.643
 20
244.092
 30
0.000000
  70
    32
  0
VERTEX
  8
0
  5
AB6E
 10
460.652
 20
244.079
 30
0.000000
  70
    32
  0
VERTEX
  8
0
  5
AB6F
 10
460.660
 20
244.066
 30
0.000000
  70
    32
  0
VERTEX
  8
0
  5
AB70
 10
460.668
 20
244.053
 30
0.000000
  70
    32
  0
VERTEX
  8
0
  5
AB71
 10
460.676
 20
244.040
 30
0.000000
  70
    32
  0
VERTEX
  8
0
  5
AB72
 10
460.683
 20
244.026
 30
0.000000
  70
    32
  0
VERTEX
  8
0
  5
AB73
 10
460.690
 20
244.012
 30
0.000000
  70
    32
  0
VERTEX
  8
0
  5
AB74
 10
460.697
 20
243.999
 30
0.000000
  70
    32
  0
VERTEX
  8
0
  5
AB75
 10
460.703
 20
243.985
 30
0.000000
  70
    32
  0
VERTEX
  8
0
  5
AB76
 10
460.708
 20
243.971
 30
0.000000
  70
    32
  0
VERTEX
  8
0
  5
AB77
 10
460.713
 20
243.957
 30
0.000000
  70
    32
  0
VERTEX
  8
0
  5
AB78
 10
460.718
 20
243.942
 30
0.000000
  70
    32
  0
VERTEX
  8
0
  5
AB79
 10
460.722
 20
243.928
 30
0.000000
  70
    32
  0
VERTEX
  8
0
  5
AB7A
 10
460.726
 20
243.914
 30
0.000000
  70
    32
  0
VERTEX
  8
0
  5
AB7B
 10
460.729
 20
243.899
 30
0.000000
  70
    32
  0
VERTEX
  8
0
  5
AB7C
 10
460.732
 20
243.885
 30
0.000000
  70
    32
  0
VERTEX
  8
0
  5
AB7D
 10
460.735
 20
243.870
 30
0.000000
  70
    32
  0
VERTEX
  8
0
  5
AB7E
 10
460.737
 20
243.855
 30
0.000000
  70
    32
  0
VERTEX
  8
0
  5
AB7F
 10
460.738
 20
243.841
 30
0.000000
  70
    32
  0
VERTEX
  8
0
  5
AB80
 10
460.740
 20
243.826
 30
0.000000
  70
    32
  0
VERTEX
  8
0
  5
AB81
 10
460.740
 20
243.811
 30
0.000000
  70
    32
  0
VERTEX
  8
0
  5
AB82
 10
460.740
 20
243.797
 30
0.000000
  70
    32
  0
VERTEX
  8
0
  5
AB83
 10
460.740
 20
243.782
 30
0.000000
  70
    32
  0
VERTEX
  8
0
  5
AB84
 10
460.740
 20
243.767
 30
0.000000
  70
    32
  0
VERTEX
  8
0
  5
AB85
 10
460.738
 20
243.752
 30
0.000000
  70
    32
  0
VERTEX
  8
0
  5
AB86
 10
460.737
 20
243.738
 30
0.000000
  70
    32
  0
VERTEX
  8
0
  5
AB87
 10
460.735
 20
243.723
 30
0.000000
  70
    32
  0
VERTEX
  8
0
  5
AB88
 10
460.732
 20
243.709
 30
0.000000
  70
    32
  0
VERTEX
  8
0
  5
AB89
 10
460.729
 20
243.694
 30
0.000000
  70
    32
  0
VERTEX
  8
0
  5
AB8A
 10
460.726
 20
243.680
 30
0.000000
  70
    32
  0
VERTEX
  8
0
  5
AB8B
 10
460.722
 20
243.665
 30
0.000000
  70
    32
  0
VERTEX
  8
0
  5
AB8C
 10
460.718
 20
243.651
 30
0.000000
  70
    32
  0
VERTEX
  8
0
  5
AB8D
 10
460.713
 20
243.637
 30
0.000000
  70
    32
  0
VERTEX
  8
0
  5
AB8E
 10
460.708
 20
243.622
 30
0.000000
  70
    32
  0
VERTEX
  8
0
  5
AB8F
 10
460.703
 20
243.608
 30
0.000000
  70
    32
  0
VERTEX
  8
0
  5
AB90
 10
460.697
 20
243.594
 30
0.000000
  70
    32
  0
VERTEX
  8
0
  5
AB91
 10
460.690
 20
243.581
 30
0.000000
  70
    32
  0
VERTEX
  8
0
  5
AB92
 10
460.683
 20
243.567
 30
0.000000
  70
    32
  0
VERTEX
  8
0
  5
AB93
 10
460.676
 20
243.553
 30
0.000000
  70
    32
  0
VERTEX
  8
0
  5
AB94
 10
460.668
 20
243.540
 30
0.000000
  70
    32
  0
VERTEX
  8
0
  5
AB95
 10
460.660
 20
243.527
 30
0.000000
  70
    32
  0
VERTEX
  8
0
  5
AB96
 10
460.652
 20
243.514
 30
0.000000
  70
    32
  0
VERTEX
  8
0
  5
AB97
 10
460.643
 20
243.501
 30
0.000000
  70
    32
  0
VERTEX
  8
0
  5
AB98
 10
460.634
 20
243.488
 30
0.000000
  70
    32
  0
VERTEX
  8
0
  5
AB99
 10
460.624
 20
243.476
 30
0.000000
  70
    32
  0
VERTEX
  8
0
  5
AB9A
 10
460.614
 20
243.463
 30
0.000000
  70
    32
  0
VERTEX
  8
0
  5
AB9B
 10
460.604
 20
243.451
 30
0.000000
  70
    32
  0
VERTEX
  8
0
  5
AB9C
 10
460.593
 20
243.439
 30
0.000000
  70
    32
  0
VERTEX
  8
0
  5
AB9D
 10
460.582
 20
243.427
 30
0.000000
  70
    32
  0
VERTEX
  8
0
  5
AB9E
 10
460.570
 20
243.416
 30
0.000000
  70
    32
  0
VERTEX
  8
0
  5
AB9F
 10
460.558
 20
243.405
 30
0.000000
  70
    32
  0
VERTEX
  8
0
  5
ABA0
 10
460.546
 20
243.394
 30
0.000000
  70
    32
  0
VERTEX
  8
0
  5
ABA1
 10
460.534
 20
243.383
 30
0.000000
  70
    32
  0
VERTEX
  8
0
  5
ABA2
 10
460.521
 20
243.372
 30
0.000000
  70
    32
  0
VERTEX
  8
0
  5
ABA3
 10
460.508
 20
243.362
 30
0.000000
  70
    32
  0
VERTEX
  8
0
  5
ABA4
 10
460.494
 20
243.352
 30
0.000000
  70
    32
  0
VERTEX
  8
0
  5
ABA5
 10
460.480
 20
243.342
 30
0.000000
  70
    32
  0
VERTEX
  8
0
  5
ABA6
 10
460.466
 20
243.333
 30
0.000000
  70
    32
  0
VERTEX
  8
0
  5
ABA7
 10
460.452
 20
243.324
 30
0.000000
  70
    32
  0
VERTEX
  8
0
  5
ABA8
 10
460.437
 20
243.315
 30
0.000000
  70
    32
  0
VERTEX
  8
0
  5
ABA9
 10
460.422
 20
243.306
 30
0.000000
  70
    32
  0
VERTEX
  8
0
  5
ABAA
 10
460.407
 20
243.298
 30
0.000000
  70
    32
  0
VERTEX
  8
0
  5
ABAB
 10
460.392
 20
243.290
 30
0.000000
  70
    32
  0
VERTEX
  8
0
  5
ABAC
 10
460.376
 20
243.282
 30
0.000000
  70
    32
  0
VERTEX
  8
0
  5
ABAD
 10
460.360
 20
243.275
 30
0.000000
  70
    32
  0
VERTEX
  8
0
  5
ABAE
 10
460.344
 20
243.267
 30
0.000000
  70
    32
  0
VERTEX
  8
0
  5
ABAF
 10
460.328
 20
243.261
 30
0.000000
  70
    32
  0
VERTEX
  8
0
  5
ABB0
 10
460.311
 20
243.254
 30
0.000000
  70
    32
  0
VERTEX
  8
0
  5
ABB1
 10
460.294
 20
243.248
 30
0.000000
  70
    32
  0
VERTEX
  8
0
  5
ABB2
 10
460.277
 20
243.242
 30
0.000000
  70
    32
  0
VERTEX
  8
0
  5
ABB3
 10
460.260
 20
243.237
 30
0.000000
  70
    32
  0
VERTEX
  8
0
  5
ABB4
 10
460.243
 20
243.232
 30
0.000000
  70
    32
  0
VERTEX
  8
0
  5
ABB5
 10
460.226
 20
243.227
 30
0.000000
  70
    32
  0
VERTEX
  8
0
  5
ABB6
 10
460.208
 20
243.222
 30
0.000000
  70
    32
  0
VERTEX
  8
0
  5
ABB7
 10
460.190
 20
243.218
 30
0.000000
  70
    32
  0
VERTEX
  8
0
  5
ABB8
 10
460.173
 20
243.215
 30
0.000000
  70
    32
  0
VERTEX
  8
0
  5
ABB9
 10
460.155
 20
243.211
 30
0.000000
  70
    32
  0
VERTEX
  8
0
  5
ABBA
 10
460.137
 20
243.208
 30
0.000000
  70
    32
  0
VERTEX
  8
0
  5
ABBB
 10
460.119
 20
243.205
 30
0.000000
  70
    32
  0
VERTEX
  8
0
  5
ABBC
 10
460.100
 20
243.203
 30
0.000000
  70
    32
  0
VERTEX
  8
0
  5
ABBD
 10
460.082
 20
243.201
 30
0.000000
  70
    32
  0
VERTEX
  8
0
  5
ABBE
 10
460.064
 20
243.199
 30
0.000000
  70
    32
  0
VERTEX
  8
0
  5
ABBF
 10
460.046
 20
243.198
 30
0.000000
  70
    32
  0
VERTEX
  8
0
  5
ABC0
 10
460.027
 20
243.197
 30
0.000000
  70
    32
  0
VERTEX
  8
0
  5
ABC1
 10
460.009
 20
243.197
 30
0.000000
  70
    32
  0
VERTEX
  8
0
  5
ABC2
 10
459.990
 20
243.197
 30
0.000000
  70
    32
  0
SEQEND
  8
0
  5
ABC3
  0
LINE
  5
A139
  8
0
 10
459.87441150803619
 20
246.19656351320739
 30
0.0
 11
460.74043719430028
 21
245.6965624999284
 31
0.0
  0
LINE
  5
A13A
  8
0
 10
460.74043719430028
 20
244.69656047337051
 30
0.0
 11
460.22082159627729
 21
244.3965628456354
 31
0.0
  0
LINE
  5
A13B
  8
0
 10
434.74043665785848
 20
244.69656047337051
 30
0.0
 11
435.26005225588142
 21
244.3965628456354
 31
0.0
  0
LINE
  5
A13C
  8
0
 10
435.60646234412252
 20
246.19656351320739
 30
0.0
 11
434.74043665785848
 21
245.6965624999284
 31
0.0
  0
LINE
  5
A13D
  8
0
 10
434.74043665785848
 20
245.6965624999284
 30
0.0
 11
434.74043665785848
 21
244.69656047337051
 31
0.0
  0
POLYLINE
  5
A13E
  8
0
 10
435.49043692607933
 20
243.19656130783551
 30
0.0
 66
     1
 70
     8
  0
VERTEX
  8
0
  5
ABC4
 10
435.490
 20
243.197
 30
0.000000
  70
    32
  0
VERTEX
  8
0
  5
ABC5
 10
435.472
 20
243.197
 30
0.000000
  70
    32
  0
VERTEX
  8
0
  5
ABC6
 10
435.454
 20
243.197
 30
0.000000
  70
    32
  0
VERTEX
  8
0
  5
ABC7
 10
435.435
 20
243.198
 30
0.000000
  70
    32
  0
VERTEX
  8
0
  5
ABC8
 10
435.417
 20
243.199
 30
0.000000
  70
    32
  0
VERTEX
  8
0
  5
ABC9
 10
435.399
 20
243.201
 30
0.000000
  70
    32
  0
VERTEX
  8
0
  5
ABCA
 10
435.380
 20
243.203
 30
0.000000
  70
    32
  0
VERTEX
  8
0
  5
ABCB
 10
435.362
 20
243.205
 30
0.000000
  70
    32
  0
VERTEX
  8
0
  5
ABCC
 10
435.344
 20
243.208
 30
0.000000
  70
    32
  0
VERTEX
  8
0
  5
ABCD
 10
435.326
 20
243.211
 30
0.000000
  70
    32
  0
VERTEX
  8
0
  5
ABCE
 10
435.308
 20
243.215
 30
0.000000
  70
    32
  0
VERTEX
  8
0
  5
ABCF
 10
435.290
 20
243.218
 30
0.000000
  70
    32
  0
VERTEX
  8
0
  5
ABD0
 10
435.273
 20
243.222
 30
0.000000
  70
    32
  0
VERTEX
  8
0
  5
ABD1
 10
435.255
 20
243.227
 30
0.000000
  70
    32
  0
VERTEX
  8
0
  5
ABD2
 10
435.238
 20
243.232
 30
0.000000
  70
    32
  0
VERTEX
  8
0
  5
ABD3
 10
435.221
 20
243.237
 30
0.000000
  70
    32
  0
VERTEX
  8
0
  5
ABD4
 10
435.203
 20
243.242
 30
0.000000
  70
    32
  0
VERTEX
  8
0
  5
ABD5
 10
435.187
 20
243.248
 30
0.000000
  70
    32
  0
VERTEX
  8
0
  5
ABD6
 10
435.170
 20
243.254
 30
0.000000
  70
    32
  0
VERTEX
  8
0
  5
ABD7
 10
435.153
 20
243.261
 30
0.000000
  70
    32
  0
VERTEX
  8
0
  5
ABD8
 10
435.137
 20
243.267
 30
0.000000
  70
    32
  0
VERTEX
  8
0
  5
ABD9
 10
435.121
 20
243.275
 30
0.000000
  70
    32
  0
VERTEX
  8
0
  5
ABDA
 10
435.105
 20
243.282
 30
0.000000
  70
    32
  0
VERTEX
  8
0
  5
ABDB
 10
435.089
 20
243.290
 30
0.000000
  70
    32
  0
VERTEX
  8
0
  5
ABDC
 10
435.074
 20
243.298
 30
0.000000
  70
    32
  0
VERTEX
  8
0
  5
ABDD
 10
435.059
 20
243.306
 30
0.000000
  70
    32
  0
VERTEX
  8
0
  5
ABDE
 10
435.044
 20
243.315
 30
0.000000
  70
    32
  0
VERTEX
  8
0
  5
ABDF
 10
435.029
 20
243.324
 30
0.000000
  70
    32
  0
VERTEX
  8
0
  5
ABE0
 10
435.015
 20
243.333
 30
0.000000
  70
    32
  0
VERTEX
  8
0
  5
ABE1
 10
435.001
 20
243.342
 30
0.000000
  70
    32
  0
VERTEX
  8
0
  5
ABE2
 10
434.987
 20
243.352
 30
0.000000
  70
    32
  0
VERTEX
  8
0
  5
ABE3
 10
434.973
 20
243.362
 30
0.000000
  70
    32
  0
VERTEX
  8
0
  5
ABE4
 10
434.960
 20
243.372
 30
0.000000
  70
    32
  0
VERTEX
  8
0
  5
ABE5
 10
434.947
 20
243.383
 30
0.000000
  70
    32
  0
VERTEX
  8
0
  5
ABE6
 10
434.935
 20
243.394
 30
0.000000
  70
    32
  0
VERTEX
  8
0
  5
ABE7
 10
434.923
 20
243.405
 30
0.000000
  70
    32
  0
VERTEX
  8
0
  5
ABE8
 10
434.911
 20
243.416
 30
0.000000
  70
    32
  0
VERTEX
  8
0
  5
ABE9
 10
434.899
 20
243.427
 30
0.000000
  70
    32
  0
VERTEX
  8
0
  5
ABEA
 10
434.888
 20
243.439
 30
0.000000
  70
    32
  0
VERTEX
  8
0
  5
ABEB
 10
434.877
 20
243.451
 30
0.000000
  70
    32
  0
VERTEX
  8
0
  5
ABEC
 10
434.867
 20
243.463
 30
0.000000
  70
    32
  0
VERTEX
  8
0
  5
ABED
 10
434.857
 20
243.476
 30
0.000000
  70
    32
  0
VERTEX
  8
0
  5
ABEE
 10
434.847
 20
243.488
 30
0.000000
  70
    32
  0
VERTEX
  8
0
  5
ABEF
 10
434.838
 20
243.501
 30
0.000000
  70
    32
  0
VERTEX
  8
0
  5
ABF0
 10
434.829
 20
243.514
 30
0.000000
  70
    32
  0
VERTEX
  8
0
  5
ABF1
 10
434.821
 20
243.527
 30
0.000000
  70
    32
  0
VERTEX
  8
0
  5
ABF2
 10
434.812
 20
243.540
 30
0.000000
  70
    32
  0
VERTEX
  8
0
  5
ABF3
 10
434.805
 20
243.553
 30
0.000000
  70
    32
  0
VERTEX
  8
0
  5
ABF4
 10
434.798
 20
243.567
 30
0.000000
  70
    32
  0
VERTEX
  8
0
  5
ABF5
 10
434.791
 20
243.581
 30
0.000000
  70
    32
  0
VERTEX
  8
0
  5
ABF6
 10
434.784
 20
243.594
 30
0.000000
  70
    32
  0
VERTEX
  8
0
  5
ABF7
 10
434.778
 20
243.608
 30
0.000000
  70
    32
  0
VERTEX
  8
0
  5
ABF8
 10
434.773
 20
243.622
 30
0.000000
  70
    32
  0
VERTEX
  8
0
  5
ABF9
 10
434.768
 20
243.637
 30
0.000000
  70
    32
  0
VERTEX
  8
0
  5
ABFA
 10
434.763
 20
243.651
 30
0.000000
  70
    32
  0
VERTEX
  8
0
  5
ABFB
 10
434.759
 20
243.665
 30
0.000000
  70
    32
  0
VERTEX
  8
0
  5
ABFC
 10
434.755
 20
243.680
 30
0.000000
  70
    32
  0
VERTEX
  8
0
  5
ABFD
 10
434.751
 20
243.694
 30
0.000000
  70
    32
  0
VERTEX
  8
0
  5
ABFE
 10
434.749
 20
243.709
 30
0.000000
  70
    32
  0
VERTEX
  8
0
  5
ABFF
 10
434.746
 20
243.723
 30
0.000000
  70
    32
  0
VERTEX
  8
0
  5
AC00
 10
434.744
 20
243.738
 30
0.000000
  70
    32
  0
VERTEX
  8
0
  5
AC01
 10
434.742
 20
243.752
 30
0.000000
  70
    32
  0
VERTEX
  8
0
  5
AC02
 10
434.741
 20
243.767
 30
0.000000
  70
    32
  0
VERTEX
  8
0
  5
AC03
 10
434.741
 20
243.782
 30
0.000000
  70
    32
  0
VERTEX
  8
0
  5
AC04
 10
434.740
 20
243.797
 30
0.000000
  70
    32
  0
VERTEX
  8
0
  5
AC05
 10
434.741
 20
243.811
 30
0.000000
  70
    32
  0
VERTEX
  8
0
  5
AC06
 10
434.741
 20
243.826
 30
0.000000
  70
    32
  0
VERTEX
  8
0
  5
AC07
 10
434.742
 20
243.841
 30
0.000000
  70
    32
  0
VERTEX
  8
0
  5
AC08
 10
434.744
 20
243.855
 30
0.000000
  70
    32
  0
VERTEX
  8
0
  5
AC09
 10
434.746
 20
243.870
 30
0.000000
  70
    32
  0
VERTEX
  8
0
  5
AC0A
 10
434.749
 20
243.885
 30
0.000000
  70
    32
  0
VERTEX
  8
0
  5
AC0B
 10
434.751
 20
243.899
 30
0.000000
  70
    32
  0
VERTEX
  8
0
  5
AC0C
 10
434.755
 20
243.914
 30
0.000000
  70
    32
  0
VERTEX
  8
0
  5
AC0D
 10
434.759
 20
243.928
 30
0.000000
  70
    32
  0
VERTEX
  8
0
  5
AC0E
 10
434.763
 20
243.942
 30
0.000000
  70
    32
  0
VERTEX
  8
0
  5
AC0F
 10
434.768
 20
243.957
 30
0.000000
  70
    32
  0
VERTEX
  8
0
  5
AC10
 10
434.773
 20
243.971
 30
0.000000
  70
    32
  0
VERTEX
  8
0
  5
AC11
 10
434.778
 20
243.985
 30
0.000000
  70
    32
  0
VERTEX
  8
0
  5
AC12
 10
434.784
 20
243.999
 30
0.000000
  70
    32
  0
VERTEX
  8
0
  5
AC13
 10
434.791
 20
244.012
 30
0.000000
  70
    32
  0
VERTEX
  8
0
  5
AC14
 10
434.798
 20
244.026
 30
0.000000
  70
    32
  0
VERTEX
  8
0
  5
AC15
 10
434.805
 20
244.040
 30
0.000000
  70
    32
  0
VERTEX
  8
0
  5
AC16
 10
434.812
 20
244.053
 30
0.000000
  70
    32
  0
VERTEX
  8
0
  5
AC17
 10
434.821
 20
244.066
 30
0.000000
  70
    32
  0
VERTEX
  8
0
  5
AC18
 10
434.829
 20
244.079
 30
0.000000
  70
    32
  0
VERTEX
  8
0
  5
AC19
 10
434.838
 20
244.092
 30
0.000000
  70
    32
  0
VERTEX
  8
0
  5
AC1A
 10
434.847
 20
244.105
 30
0.000000
  70
    32
  0
VERTEX
  8
0
  5
AC1B
 10
434.857
 20
244.118
 30
0.000000
  70
    32
  0
VERTEX
  8
0
  5
AC1C
 10
434.867
 20
244.130
 30
0.000000
  70
    32
  0
VERTEX
  8
0
  5
AC1D
 10
434.877
 20
244.142
 30
0.000000
  70
    32
  0
VERTEX
  8
0
  5
AC1E
 10
434.888
 20
244.154
 30
0.000000
  70
    32
  0
VERTEX
  8
0
  5
AC1F
 10
434.899
 20
244.166
 30
0.000000
  70
    32
  0
VERTEX
  8
0
  5
AC20
 10
434.911
 20
244.177
 30
0.000000
  70
    32
  0
VERTEX
  8
0
  5
AC21
 10
434.923
 20
244.188
 30
0.000000
  70
    32
  0
VERTEX
  8
0
  5
AC22
 10
434.935
 20
244.199
 30
0.000000
  70
    32
  0
VERTEX
  8
0
  5
AC23
 10
434.947
 20
244.210
 30
0.000000
  70
    32
  0
VERTEX
  8
0
  5
AC24
 10
434.960
 20
244.221
 30
0.000000
  70
    32
  0
VERTEX
  8
0
  5
AC25
 10
434.973
 20
244.231
 30
0.000000
  70
    32
  0
VERTEX
  8
0
  5
AC26
 10
434.987
 20
244.241
 30
0.000000
  70
    32
  0
VERTEX
  8
0
  5
AC27
 10
435.001
 20
244.251
 30
0.000000
  70
    32
  0
VERTEX
  8
0
  5
AC28
 10
435.015
 20
244.260
 30
0.000000
  70
    32
  0
VERTEX
  8
0
  5
AC29
 10
435.029
 20
244.270
 30
0.000000
  70
    32
  0
VERTEX
  8
0
  5
AC2A
 10
435.044
 20
244.278
 30
0.000000
  70
    32
  0
VERTEX
  8
0
  5
AC2B
 10
435.059
 20
244.287
 30
0.000000
  70
    32
  0
VERTEX
  8
0
  5
AC2C
 10
435.074
 20
244.295
 30
0.000000
  70
    32
  0
VERTEX
  8
0
  5
AC2D
 10
435.089
 20
244.303
 30
0.000000
  70
    32
  0
VERTEX
  8
0
  5
AC2E
 10
435.105
 20
244.311
 30
0.000000
  70
    32
  0
VERTEX
  8
0
  5
AC2F
 10
435.121
 20
244.319
 30
0.000000
  70
    32
  0
VERTEX
  8
0
  5
AC30
 10
435.137
 20
244.326
 30
0.000000
  70
    32
  0
VERTEX
  8
0
  5
AC31
 10
435.153
 20
244.332
 30
0.000000
  70
    32
  0
VERTEX
  8
0
  5
AC32
 10
435.170
 20
244.339
 30
0.000000
  70
    32
  0
VERTEX
  8
0
  5
AC33
 10
435.187
 20
244.345
 30
0.000000
  70
    32
  0
VERTEX
  8
0
  5
AC34
 10
435.203
 20
244.351
 30
0.000000
  70
    32
  0
VERTEX
  8
0
  5
AC35
 10
435.221
 20
244.356
 30
0.000000
  70
    32
  0
VERTEX
  8
0
  5
AC36
 10
435.238
 20
244.361
 30
0.000000
  70
    32
  0
VERTEX
  8
0
  5
AC37
 10
435.255
 20
244.366
 30
0.000000
  70
    32
  0
VERTEX
  8
0
  5
AC38
 10
435.273
 20
244.371
 30
0.000000
  70
    32
  0
VERTEX
  8
0
  5
AC39
 10
435.290
 20
244.375
 30
0.000000
  70
    32
  0
VERTEX
  8
0
  5
AC3A
 10
435.308
 20
244.379
 30
0.000000
  70
    32
  0
VERTEX
  8
0
  5
AC3B
 10
435.326
 20
244.382
 30
0.000000
  70
    32
  0
VERTEX
  8
0
  5
AC3C
 10
435.344
 20
244.385
 30
0.000000
  70
    32
  0
VERTEX
  8
0
  5
AC3D
 10
435.362
 20
244.388
 30
0.000000
  70
    32
  0
VERTEX
  8
0
  5
AC3E
 10
435.380
 20
244.390
 30
0.000000
  70
    32
  0
VERTEX
  8
0
  5
AC3F
 10
435.399
 20
244.392
 30
0.000000
  70
    32
  0
VERTEX
  8
0
  5
AC40
 10
435.417
 20
244.394
 30
0.000000
  70
    32
  0
VERTEX
  8
0
  5
AC41
 10
435.435
 20
244.395
 30
0.000000
  70
    32
  0
VERTEX
  8
0
  5
AC42
 10
435.454
 20
244.396
 30
0.000000
  70
    32
  0
VERTEX
  8
0
  5
AC43
 10
435.472
 20
244.396
 30
0.000000
  70
    32
  0
VERTEX
  8
0
  5
AC44
 10
435.490
 20
244.397
 30
0.000000
  70
    32
  0
SEQEND
  8
0
  5
AC45
  0
LINE
  5
A13F
  8
1
 10
492.74043738801549
 20
185.75506407662479
 30
0.0
 11
492.74043738801549
 21
251.76486082088789
 31
0.0
  0
LINE
  5
A140
  8
1
 10
447.74043738801538
 20
150.1965605329751
 30
0.0
 11
447.74043738801538
 21
274.1965613674401
 31
0.0
  0
LINE
  5
A142
  8
1
 10
492.74044057686388
 20
234.39656493179791
 30
0.0
 11
492.74044057686388
 21
213.9965623330354
 31
0.0
  0
LINE
  5
A144
  8
0
 10
427.74043737311422
 20
235.19656357281201
 30
0.0
 11
444.74043736566358
 21
235.19656357281201
 31
0.0
  0
LINE
  5
A146
  8
0
 10
450.7404374178177
 20
232.6965585064172
 30
0.0
 11
450.7404374178177
 21
235.19656357281201
 31
0.0
  0
LINE
  5
A147
  8
0
 10
444.74043736566358
 20
232.6965585064172
 30
0.0
 11
450.7404374178177
 21
232.6965585064172
 31
0.0
  0
LINE
  5
A148
  8
0
 10
444.74043736566358
 20
232.6965585064172
 30
0.0
 11
444.74043736566358
 21
235.19656357281201
 31
0.0
  0
LINE
  5
A14A
  8
0
 10
466.74043631513177
 20
243.1965648841142
 30
0.0
 11
428.74043753702699
 21
243.1965648841142
 31
0.0
  0
LINE
  5
A14B
  8
0
 10
436.7707832004553
 20
246.19656351320739
 30
0.0
 11
436.7707832004553
 21
260.20371464006888
 31
0.0
  0
LINE
  5
A14C
  8
0
 10
442.25561006326728
 20
246.19656351320739
 30
0.0
 11
442.25561006326728
 21
260.20371464006888
 31
0.0
  0
LINE
  5
A14D
  8
0
 10
453.225264720214
 20
246.19656351320739
 30
0.0
 11
453.225264720214
 21
260.20371464006888
 31
0.0
  0
LINE
  5
A14E
  8
0
 10
458.71009204868727
 20
246.19656351320739
 30
0.0
 11
458.71009204868727
 21
260.20371464006888
 31
0.0
  0
LINE
  5
A14F
  8
0
 10
438.49043680687009
 20
261.19656410925381
 30
0.0
 11
456.99043751095002
 21
261.19656410925381
 31
0.0
  0
LINE
  5
A150
  8
0
 10
435.26005318720399
 20
244.3965628456354
 30
0.0
 11
460.22082206193858
 21
244.3965628456354
 31
0.0
  0
LINE
  5
A152
  8
0
 10
459.87441150803619
 20
246.19656351320739
 30
0.0
 11
435.60646234412252
 21
246.19656351320739
 31
0.0
  0
LINE
  5
A153
  8
0
 10
489.24043720920139
 20
245.2672749470949
 30
0.0
 11
496.24044021923612
 21
245.2672749470949
 31
0.0
  0
LINE
  5
A154
  8
0
 10
489.24043720920139
 20
242.06258651726239
 30
0.0
 11
496.24044021923612
 21
242.06258651726239
 31
0.0
  0
LINE
  5
A155
  8
0
 10
482.92548342008649
 20
189.69656077139371
 30
0.0
 11
502.55539214570581
 21
189.69656077139371
 31
0.0
  0
LINE
  5
A156
  8
0
 10
482.92548342008649
 20
196.696560056138
 30
0.0
 11
502.55539214570581
 21
196.69656005613791
 31
0.0
  0
LINE
  5
A157
  8
0
 10
482.92548342008649
 20
189.69656077139371
 30
0.0
 11
482.92548342008649
 21
196.696560056138
 31
0.0
  0
LINE
  5
A15A
  8
0
 10
487.83296292979782
 20
189.69656077139371
 30
0.0
 11
487.83296292979782
 21
196.696560056138
 31
0.0
  0
LINE
  5
A15D
  8
0
 10
497.64791449863981
 20
189.69656077139371
 30
0.0
 11
497.64791449863981
 21
196.696560056138
 31
0.0
  0
LINE
  5
A15E
  8
0
 10
442.99043754447757
 20
269.19656136744021
 30
0.0
 11
452.49043723900382
 21
269.19656136744021
 31
0.0
  0
LINE
  5
A160
  8
0
 10
441.74043687392532
 20
267.94656255953311
 30
0.0
 11
453.74043744389468
 21
267.94656255953311
 31
0.0
  0
LINE
  5
A16A
  8
0
 10
497.64791449863981
 20
213.196559966731
 30
0.0
 11
498.34168276150291
 21
213.196559966731
 31
0.0
  0
LINE
  5
A16C
  8
0
 10
496.26038169820379
 20
213.196559966731
 30
0.0
 11
497.64791449863981
 21
213.196559966731
 31
0.0
  0
LINE
  5
A173
  8
0
 10
466.94043783803039
 20
173.19655975811469
 30
0.0
 11
428.54043601412832
 21
173.19655975811469
 31
0.0
  0
LINE
  5
A174
  8
0
 10
427.74043737311422
 20
170.19656027406739
 30
0.0
 11
428.54043601412832
 21
170.19656027406739
 31
0.0
  0
LINE
  5
A175
  8
0
 10
466.94043783803039
 20
170.19656027406739
 30
0.0
 11
467.74043647904449
 21
170.19656027406739
 31
0.0
  0
LINE
  5
A176
  8
0
 10
427.74043737311422
 20
155.1965605329751
 30
0.0
 11
467.74043647904449
 21
155.1965605329751
 31
0.0
  0
LINE
  5
A177
  8
0
 10
466.94043783803039
 20
170.19656027406739
 30
0.0
 11
428.54043601412832
 21
170.19656027406739
 31
0.0
  0
LINE
  5
A178
  8
0
 10
467.74043647904449
 20
170.19656027406739
 30
0.0
 11
467.74043647904449
 21
155.1965605329751
 31
0.0
  0
LINE
  5
A179
  8
0
 10
427.74043737311422
 20
170.19656027406739
 30
0.0
 11
427.74043737311422
 21
155.1965605329751
 31
0.0
  0
LINE
  5
A180
  8
0
 10
498.34168276150291
 20
213.196559966731
 30
0.0
 11
501.86162760813301
 21
213.196559966731
 31
0.0
  0
LINE
  5
A181
  8
0
 10
492.74044057686388
 20
213.196559966731
 30
0.0
 11
496.26038169820379
 21
213.196559966731
 31
0.0
  0
LINE
  5
A183
  8
0
 10
474.74043232483632
 20
213.19655996673299
 30
0.0
 11
492.74044057686388
 21
213.196559966731
 31
0.0
  0
LINE
  5
A18A
  8
0
 10
444.59043762047349
 20
232.19656494371881
 30
0.0
 11
444.59043762047349
 21
235.19656357281201
 31
0.0
  0
LINE
  5
A18B
  8
0
 10
450.89043716300779
 20
232.19656494371881
 30
0.0
 11
444.59043762047349
 21
232.19656494371881
 31
0.0
  0
LINE
  5
A18C
  8
0
 10
450.89043716300779
 20
232.19656494371881
 30
0.0
 11
450.89043716300779
 21
235.19656357281201
 31
0.0
  0
LINE
  5
A18D
  8
0
 10
428.54043601412832
 20
175.19656025730359
 30
0.0
 11
466.94043783803039
 21
175.19656025730359
 31
0.0
  0
ARC
  5
A18F
  8
0
 10
492.74043871421873
 20
241.69657031853791
 30
0.0
 40
4.9999942079487933
 50
45.572906791883291
 51
134.42709320811659
  0
ARC
  5
A190
  8
0
 10
432.24043825673812
 20
174.6965579953247
 30
0.0
 40
1.499998237210423
 50
269.9999588486337
 51
0.0001107694822393
  0
ARC
  5
A191
  8
0
 10
463.24043765094802
 20
174.69655958518879
 30
0.0
 40
1.499999827074223
 50
179.9999499589774
 51
269.99998042290508
  0
ARC
  5
A192
  8
0
 10
474.74043232484519
 20
206.19656412093161
 30
0.0
 40
6.9999958458013989
 50
89.999956605879106
 51
180.00002814816281
  0
ARC
  5
A193
  8
0
 10
428.54043623093708
 20
175.99655911512821
 30
0.0
 40
0.7999988578246066
 50
179.99988212560501
 51
269.99998447218951
  0
ARC
  5
A194
  8
0
 10
466.94043762122169
 20
175.99655911512821
 30
0.0
 40
0.7999988578245915
 50
270.0000155278068
 51
0.0001178743949299
  0
LINE
  5
A195
  8
0
 10
501.94043984968732
 20
235.19656357281201
 30
0.0
 11
502.74043849070142
 21
234.39656493179791
 31
0.0
  0
LINE
  5
A196
  8
0
 10
502.74043849070142
 20
234.39656493179791
 30
0.0
 11
502.74043849070142
 21
213.99656200428419
 31
0.0
  0
LINE
  5
A197
  8
0
 10
502.55539214570592
 20
189.69656077139371
 30
0.0
 11
502.55539214570592
 21
196.696560056138
 31
0.0
  0
LINE
  5
A198
  8
0
 10
501.94043984968732
 20
235.19656357281201
 30
0.0
 11
450.7404374178177
 21
235.19656357281201
 31
0.0
  0
ARC
  5
A19C
  8
0
 10
501.94043645314099
 20
213.99656200428419
 30
0.0
 40
0.800002037560386
 50
270.00024325908367
 51
0.0000235450123205
  0
ARC
  5
A3C7
  8
0
 10
227.74043738801549
 20
337.88895391533612
 30
0.0
 40
26.749999999999989
 50
79.999999999999801
 51
100.0000000000002
  0
ARC
  5
A3C9
  8
0
 10
233.2971790733572
 20
369.40280201172681
 30
0.0
 40
5.2500000000000213
 50
259.99999999999977
 51
79.999999999999801
  0
ARC
  5
A3CB
  8
0
 10
222.1836957026737
 20
369.40280201172681
 30
0.0
 40
5.2500000000000151
 50
100.0000000000002
 51
280.00000000000023
  0
ARC
  5
A3CE
  8
0
 10
227.74043738801549
 20
337.88895391533612
 30
0.0
 40
37.250000000000021
 50
79.999999999999801
 51
100.0000000000002
  0
ARC
  5
A449
  8
0
 10
205.37975761301749
 20
317.888953915336
 30
0.0
 40
10.00000000000003
 50
41.810314895779079
 51
90.0
  0
LINE
  5
A44A
  8
0
 10
189.5514080774137
 20
332.68596400012888
 30
0.0
 11
190.7386729966947
 21
332.68596400012888
 31
0.0
  0
LINE
  5
A44B
  8
0
 10
190.7386729966947
 20
343.08596402844108
 30
0.0
 11
189.5514080774137
 21
343.08596402844108
 31
0.0
  0
ARC
  5
A44C
  8
0
 10
190.7386734735318
 20
337.88596401428498
 30
0.0
 40
5.2000000000000171
 50
270.0
 51
90.0
  0
ARC
  5
A44F
  8
0
 10
205.37975761301749
 20
357.88895391533612
 30
0.0
 40
10.00000000000003
 50
270.0
 51
318.18968510422093
  0
LINE
  5
A490
  8
0
 10
207.74043771368159
 20
348.17158855931859
 30
0.0
 11
207.74043783505019
 21
360.38895480940602
 31
0.0
  0
LINE
  5
A4DC
  8
0
 10
207.74043829698621
 20
155.1965605329751
 30
0.0
 11
247.74043740291651
 21
155.1965605329751
 31
0.0
  0
LINE
  5
A4DD
  8
0
 10
296.04043738801562
 20
170.1965605329751
 30
0.0
 11
379.44043738801548
 21
170.1965605329751
 31
0.0
  0
LINE
  5
A4E8
  8
0
 10
427.74043737311422
 20
234.39656493179791
 30
0.0
 11
427.74043737311422
 21
175.99656076096289
 31
0.0
  0
ARC
  5
A51C
  8
0
 10
496.990434199167
 20
228.7767193670974
 30
0.0
 40
12.275506638416489
 50
69.743841999607284
 51
110.2561580003927
  0
LINE
  5
A51D
  8
0
 10
501.240434199167
 20
241.052226005514
 30
0.0
 11
500.99043419916592
 21
241.19656357281201
 31
0.0
  0
LINE
  5
A51E
  8
0
 10
501.240434199167
 20
235.34090114010939
 30
0.0
 11
500.99043419916592
 21
235.19656357281141
 31
0.0
  0
ARC
  5
A51F
  8
0
 10
496.990434199167
 20
247.6164077785258
 30
0.0
 40
12.275506638416489
 50
249.74384199960721
 51
290.2561580003927
  0
LINE
  5
A520
  8
0
 10
501.240434199167
 20
241.052226005514
 30
0.0
 11
501.24043419916688
 21
235.34090114010939
 31
0.0
  0
LINE
  5
A521
  8
0
 10
492.74043419916688
 20
240.2930366269596
 30
0.0
 11
492.74043419916688
 21
236.10009051866351
 31
0.0
  0
LINE
  5
A522
  8
0
 10
484.24043419916688
 20
241.052226005514
 30
0.0
 11
484.24043419916688
 21
235.34090114010939
 31
0.0
  0
LINE
  5
A523
  8
0
 10
484.24043419916688
 20
235.34090114010939
 30
0.0
 11
484.49043419916791
 21
235.19656357281141
 31
0.0
  0
ARC
  5
A524
  8
0
 10
488.490434199167
 20
247.6164077785258
 30
0.0
 40
12.275506638416489
 50
249.74384199960721
 51
290.2561580003927
  0
LINE
  5
A525
  8
0
 10
484.24043419916688
 20
241.052226005514
 30
0.0
 11
484.49043419916791
 21
241.19656357281201
 31
0.0
  0
ARC
  5
A526
  8
0
 10
488.490434199167
 20
228.7767193670974
 30
0.0
 40
12.275506638416489
 50
69.743841999607284
 51
110.2561580003927
  0
LINE
  5
A527
  8
0
 10
500.99043419916592
 20
241.19656357281201
 30
0.0
 11
484.49043419916791
 21
241.19656357281201
 31
0.0
  0
LINE
  5
A528
  8
0
 10
484.49043419916688
 20
235.19656357281201
 30
0.0
 11
500.990434199167
 21
235.19656357281201
 31
0.0
  0
ARC
  5
A529
  8
0
 10
496.990434199167
 20
200.7767157610165
 30
0.0
 40
12.275506638416489
 50
69.743841999607284
 51
110.2561580003927
  0
LINE
  5
A52A
  8
0
 10
501.240434199167
 20
213.05222239943299
 30
0.0
 11
500.99043419916592
 21
213.196559966731
 31
0.0
  0
LINE
  5
A52B
  8
0
 10
501.240434199167
 20
207.34089753402839
 30
0.0
 11
500.99043419916592
 21
207.1965599667304
 31
0.0
  0
ARC
  5
A52C
  8
0
 10
496.990434199167
 20
219.61640417244479
 30
0.0
 40
12.275506638416489
 50
249.74384199960721
 51
290.2561580003927
  0
LINE
  5
A52D
  8
0
 10
501.240434199167
 20
213.05222239943299
 30
0.0
 11
501.24043419916688
 21
207.34089753402839
 31
0.0
  0
LINE
  5
A52E
  8
0
 10
492.74043419916688
 20
212.2930330208786
 30
0.0
 11
492.74043419916688
 21
208.1000869125825
 31
0.0
  0
LINE
  5
A52F
  8
0
 10
484.24043419916688
 20
213.05222239943299
 30
0.0
 11
484.24043419916688
 21
207.34089753402839
 31
0.0
  0
LINE
  5
A530
  8
0
 10
484.24043419916688
 20
207.34089753402839
 30
0.0
 11
484.49043419916791
 21
207.1965599667304
 31
0.0
  0
ARC
  5
A531
  8
0
 10
488.490434199167
 20
219.61640417244479
 30
0.0
 40
12.275506638416489
 50
249.74384199960721
 51
290.2561580003927
  0
LINE
  5
A532
  8
0
 10
484.24043419916688
 20
213.05222239943299
 30
0.0
 11
484.49043419916791
 21
213.196559966731
 31
0.0
  0
ARC
  5
A533
  8
0
 10
488.490434199167
 20
200.7767157610165
 30
0.0
 40
12.275506638416489
 50
69.743841999607284
 51
110.2561580003927
  0
LINE
  5
A534
  8
0
 10
500.99043419916592
 20
213.196559966731
 30
0.0
 11
484.49043419916791
 21
213.196559966731
 31
0.0
  0
LINE
  5
A535
  8
0
 10
484.49043419916688
 20
207.196559966731
 30
0.0
 11
500.990434199167
 21
207.196559966731
 31
0.0
  0
ARC
  5
A536
  8
0
 10
186.99043419916691
 20
200.7767157610165
 30
0.0
 40
12.275506638416489
 50
69.743841999607298
 51
110.2561580003927
  0
LINE
  5
A537
  8
0
 10
191.24043419916691
 20
213.05222239943299
 30
0.0
 11
190.99043419916589
 21
213.196559966731
 31
0.0
  0
LINE
  5
A538
  8
0
 10
191.24043419916691
 20
207.34089753402839
 30
0.0
 11
190.99043419916589
 21
207.1965599667304
 31
0.0
  0
ARC
  5
A539
  8
0
 10
186.99043419916691
 20
219.61640417244479
 30
0.0
 40
12.275506638416489
 50
249.74384199960721
 51
290.2561580003927
  0
LINE
  5
A53A
  8
0
 10
191.24043419916691
 20
213.05222239943299
 30
0.0
 11
191.24043419916691
 21
207.34089753402839
 31
0.0
  0
LINE
  5
A53B
  8
0
 10
182.74043419916691
 20
212.2930330208786
 30
0.0
 11
182.74043419916691
 21
208.1000869125825
 31
0.0
  0
LINE
  5
A53C
  8
0
 10
174.2404341991668
 20
213.05222239943299
 30
0.0
 11
174.24043419916691
 21
207.34089753402839
 31
0.0
  0
LINE
  5
A53D
  8
0
 10
174.2404341991668
 20
207.34089753402839
 30
0.0
 11
174.49043419916791
 21
207.1965599667304
 31
0.0
  0
ARC
  5
A53E
  8
0
 10
178.49043419916691
 20
219.61640417244479
 30
0.0
 40
12.275506638416489
 50
249.74384199960721
 51
290.2561580003927
  0
LINE
  5
A53F
  8
0
 10
174.2404341991668
 20
213.05222239943299
 30
0.0
 11
174.49043419916791
 21
213.196559966731
 31
0.0
  0
ARC
  5
A540
  8
0
 10
178.49043419916691
 20
200.7767157610165
 30
0.0
 40
12.275506638416489
 50
69.743841999607298
 51
110.2561580003927
  0
LINE
  5
A541
  8
0
 10
190.9904341991658
 20
213.196559966731
 30
0.0
 11
174.49043419916791
 21
213.196559966731
 31
0.0
  0
LINE
  5
A542
  8
0
 10
174.4904341991668
 20
207.196559966731
 30
0.0
 11
190.99043419916691
 21
207.196559966731
 31
0.0
  0
ARC
  5
A543
  8
0
 10
110.37922128390299
 20
208.70732429335359
 30
0.0
 40
4.3448986723233833
 50
55.615752531994502
 51
115.6157525321086
  0
ARC
  5
A544
  8
0
 10
117.7404372160703
 20
196.8114123442104
 30
0.0
 40
16.24081062146659
 50
72.412046226029645
 51
107.5879537739703
  0
LINE
  5
A545
  8
0
 10
107.9254826398472
 20
212.29303358712309
 30
0.0
 11
109.4904372160708
 21
213.1965605329753
 31
0.0
  0
LINE
  5
A546
  8
0
 10
107.9254826398472
 20
208.10008747882699
 30
0.0
 11
109.4904372160708
 21
207.19656053297479
 31
0.0
  0
ARC
  5
A547
  8
0
 10
110.37922128390299
 20
211.6857967725964
 30
0.0
 40
4.3448986723233833
 50
244.3842474678913
 51
304.38424746800553
  0
ARC
  5
A548
  8
0
 10
117.7404372160703
 20
223.5817087217396
 30
0.0
 40
16.24081062146659
 50
252.4120462260297
 51
287.5879537739703
  0
LINE
  5
A549
  8
0
 10
107.9254826398472
 20
212.29303358712301
 30
0.0
 11
107.9254826398472
 21
208.10008747882711
 31
0.0
  0
LINE
  5
A54A
  8
0
 10
112.8329599279579
 20
212.29303358712309
 30
0.0
 11
112.8329599279586
 21
208.10008747882679
 31
0.0
  0
LINE
  5
A54B
  8
0
 10
122.6479145041836
 20
212.29303358712309
 30
0.0
 11
122.64791450418301
 21
208.10008747882679
 31
0.0
  0
LINE
  5
A54C
  8
0
 10
127.5553917922943
 20
212.29303358712301
 30
0.0
 11
127.5553917922943
 21
208.10008747882711
 31
0.0
  0
ARC
  5
A54D
  8
0
 10
125.1016531482385
 20
211.6857967725964
 30
0.0
 40
4.3448986723233833
 50
235.6157525319945
 51
295.61575253210867
  0
LINE
  5
A54E
  8
0
 10
127.5553917922943
 20
208.10008747882699
 30
0.0
 11
125.9904372160708
 21
207.19656053297479
 31
0.0
  0
LINE
  5
A54F
  8
0
 10
127.5553917922943
 20
212.29303358712309
 30
0.0
 11
125.9904372160708
 21
213.1965605329753
 31
0.0
  0
ARC
  5
A550
  8
0
 10
125.1016531482385
 20
208.70732429335359
 30
0.0
 40
4.3448986723233833
 50
64.384247467891299
 51
124.3842474680055
  0
LINE
  5
A551
  8
0
 10
109.4904372160708
 20
213.1965605329753
 30
0.0
 11
125.9904372160711
 21
213.19656053297501
 31
0.0
  0
LINE
  5
A552
  8
0
 10
125.9904372160711
 20
207.19656053297501
 30
0.0
 11
109.4904372160704
 21
207.19656053297501
 31
0.0
  0
ARC
  5
A553
  8
0
 10
110.3792212323302
 20
236.70732655833021
 30
0.0
 40
4.3448986723233833
 50
55.615752531994502
 51
115.6157525321086
  0
ARC
  5
A554
  8
0
 10
117.74043716449739
 20
224.81141460918701
 30
0.0
 40
16.24081062146659
 50
72.412046226029645
 51
107.5879537739703
  0
LINE
  5
A555
  8
0
 10
107.92548258827441
 20
240.29303585209959
 30
0.0
 11
109.49043716449791
 21
241.1965627979518
 31
0.0
  0
LINE
  5
A556
  8
0
 10
107.92548258827441
 20
236.10008974380361
 30
0.0
 11
109.49043716449791
 21
235.1965627979514
 31
0.0
  0
ARC
  5
A557
  8
0
 10
110.3792212323302
 20
239.68579903757299
 30
0.0
 40
4.3448986723233833
 50
244.3842474678913
 51
304.38424746800553
  0
ARC
  5
A558
  8
0
 10
117.74043716449739
 20
251.58171098671619
 30
0.0
 40
16.24081062146659
 50
252.4120462260297
 51
287.5879537739703
  0
LINE
  5
A559
  8
0
 10
107.92548258827441
 20
240.29303585209959
 30
0.0
 11
107.92548258827441
 21
236.10008974380361
 31
0.0
  0
LINE
  5
A55A
  8
0
 10
112.8329598763851
 20
240.29303585209959
 30
0.0
 11
112.8329598763857
 21
236.10008974380341
 31
0.0
  0
LINE
  5
A55B
  8
0
 10
122.64791445261081
 20
240.29303585209959
 30
0.0
 11
122.6479144526101
 21
236.10008974380341
 31
0.0
  0
LINE
  5
A55C
  8
0
 10
127.5553917407215
 20
240.29303585209959
 30
0.0
 11
127.5553917407215
 21
236.10008974380361
 31
0.0
  0
ARC
  5
A55D
  8
0
 10
125.1016530966657
 20
239.68579903757299
 30
0.0
 40
4.3448986723233833
 50
235.6157525319945
 51
295.61575253210867
  0
LINE
  5
A55E
  8
0
 10
127.5553917407215
 20
236.10008974380361
 30
0.0
 11
125.99043716449791
 21
235.1965627979514
 31
0.0
  0
LINE
  5
A55F
  8
0
 10
127.5553917407215
 20
240.29303585209959
 30
0.0
 11
125.99043716449791
 21
241.1965627979518
 31
0.0
  0
ARC
  5
A560
  8
0
 10
125.1016530966657
 20
236.70732655833021
 30
0.0
 40
4.3448986723233833
 50
64.384247467891299
 51
124.3842474680055
  0
LINE
  5
A561
  8
0
 10
109.49043716449791
 20
241.1965627979518
 30
0.0
 11
125.9904371644982
 21
241.1965627979516
 31
0.0
  0
LINE
  5
A562
  8
0
 10
125.9904371644983
 20
235.1965627979516
 30
0.0
 11
109.49043716449761
 21
235.1965627979516
 31
0.0
  0
ARC
  5
A563
  8
0
 10
186.99043738801529
 20
228.77671936709751
 30
0.0
 40
12.275506638416489
 50
69.743841999607298
 51
110.2561580003927
  0
LINE
  5
A564
  8
0
 10
191.24043738801541
 20
241.052226005514
 30
0.0
 11
190.9904373880143
 21
241.19656357281201
 31
0.0
  0
LINE
  5
A565
  8
0
 10
191.24043738801541
 20
235.34090114010939
 30
0.0
 11
190.9904373880143
 21
235.19656357281141
 31
0.0
  0
ARC
  5
A566
  8
0
 10
186.99043738801529
 20
247.6164077785258
 30
0.0
 40
12.275506638416489
 50
249.74384199960721
 51
290.2561580003927
  0
LINE
  5
A567
  8
0
 10
191.24043738801541
 20
241.052226005514
 30
0.0
 11
191.24043738801541
 21
235.34090114010939
 31
0.0
  0
LINE
  5
A568
  8
0
 10
182.74043738801529
 20
240.2930366269596
 30
0.0
 11
182.74043738801529
 21
236.10009051866351
 31
0.0
  0
LINE
  5
A569
  8
0
 10
174.24043738801529
 20
241.052226005514
 30
0.0
 11
174.24043738801541
 21
235.34090114010939
 31
0.0
  0
LINE
  5
A56A
  8
0
 10
174.24043738801529
 20
235.34090114010939
 30
0.0
 11
174.4904373880164
 21
235.19656357281141
 31
0.0
  0
ARC
  5
A56B
  8
0
 10
178.49043738801529
 20
247.6164077785258
 30
0.0
 40
12.275506638416489
 50
249.74384199960721
 51
290.2561580003927
  0
LINE
  5
A56C
  8
0
 10
174.24043738801529
 20
241.052226005514
 30
0.0
 11
174.4904373880164
 21
241.19656357281201
 31
0.0
  0
ARC
  5
A56D
  8
0
 10
178.49043738801529
 20
228.77671936709751
 30
0.0
 40
12.275506638416489
 50
69.743841999607298
 51
110.2561580003927
  0
LINE
  5
A56E
  8
0
 10
190.9904373880143
 20
241.19656357281201
 30
0.0
 11
174.4904373880164
 21
241.19656357281201
 31
0.0
  0
LINE
  5
A56F
  8
0
 10
174.49043738801529
 20
235.19656357281201
 30
0.0
 11
190.99043738801541
 21
235.19656357281201
 31
0.0
  0
ARC
  5
A57A
  8
1
 10
227.74043738801541
 20
337.88895391533589
 30
0.0
 40
32.0
 50
241.85755482912921
 51
298.14244517087019
  0
LINE
  5
A57B
  8
1
 10
182.74043738801529
 20
344.58895391533599
 30
0.0
 11
182.74043738801529
 21
331.18895391533613
 31
0.0
  0
LINE
  5
A57C
  8
1
 10
190.74043738801541
 20
344.58895391533599
 30
0.0
 11
190.74043738801541
 21
331.18895391533613
 31
0.0
  0
ARC
  5
A617
  8
0
 10
233.2971790733601
 20
306.37510581894571
 30
0.0
 40
5.2500000000000213
 50
280.0000000000054
 51
100.0000000000053
  0
ARC
  5
A618
  8
0
 10
227.74043738801549
 20
337.88895391533589
 30
0.0
 40
26.749999999999989
 50
260.00000000000489
 51
280.0000000000054
  0
ARC
  5
A619
  8
0
 10
227.74043738801549
 20
337.88895391533589
 30
0.0
 40
37.250000000000021
 50
260.00000000000489
 51
280.0000000000054
  0
ARC
  5
A61A
  8
0
 10
222.18369570267649
 20
306.37510581894469
 30
0.0
 40
5.2500000000000151
 50
80.000000000004974
 51
260.00000000000489
  0
ARC
  5
A61E
  8
1
 10
227.74043738801541
 20
337.88895391533589
 30
0.0
 40
32.0
 50
61.857554829129768
 51
118.1424451708703
  0
ARC
  5
A61F
  8
1
 10
227.74043738801549
 20
70.004167299625976
 30
0.0
 40
32.0
 50
241.8575548291297
 51
298.14244517087019
  0
ARC
  5
A620
  8
0
 10
222.18369570267649
 20
101.5180153960172
 30
0.0
 40
5.2500000000000151
 50
99.999999999995069
 51
279.999999999995
  0
ARC
  5
A621
  8
0
 10
227.74043738801549
 20
70.004167299626033
 30
0.0
 40
37.250000000000021
 50
79.999999999994643
 51
99.999999999995069
  0
ARC
  5
A622
  8
0
 10
227.74043738801549
 20
70.004167299626033
 30
0.0
 40
26.749999999999989
 50
79.999999999994643
 51
99.999999999995069
  0
ARC
  5
A623
  8
0
 10
233.2971790733601
 20
101.5180153960162
 30
0.0
 40
5.2500000000000213
 50
259.99999999999471
 51
79.999999999994643
  0
LINE
  5
A624
  8
1
 10
190.74043738801541
 20
63.304167299625867
 30
0.0
 11
190.74043738801541
 21
76.704167299625851
 31
0.0
  0
LINE
  5
A625
  8
1
 10
182.74043738801541
 20
63.304167299625867
 30
0.0
 11
182.74043738801541
 21
76.704167299625851
 31
0.0
  0
ARC
  5
A626
  8
1
 10
227.74043738801549
 20
70.004167299625976
 30
0.0
 40
32.0
 50
61.857554829129832
 51
118.1424451708708
  0
LINE
  5
A627
  8
0
 10
207.74043771368159
 20
59.72153265564333
 30
0.0
 11
207.7404378350503
 21
47.504166405555956
 31
0.0
  0
ARC
  5
A629
  8
0
 10
190.73867347353189
 20
70.007157200676943
 30
0.0
 40
5.2000000000000171
 50
270.0
 51
90.000000000000028
  0
LINE
  5
A62A
  8
0
 10
190.7386729966947
 20
64.80715718652084
 30
0.0
 11
189.5514080774137
 21
64.80715718652084
 31
0.0
  0
LINE
  5
A62B
  8
0
 10
189.5514080774137
 20
75.207157214833046
 30
0.0
 11
190.7386729966947
 21
75.207157214833046
 31
0.0
  0
ARC
  5
A62D
  8
0
 10
227.74043738801549
 20
70.004167299625863
 30
0.0
 40
37.250000000000021
 50
259.99999999999977
 51
280.00000000000023
  0
ARC
  5
A62E
  8
0
 10
222.1836957026737
 20
38.490319203235167
 30
0.0
 40
5.2500000000000151
 50
79.999999999999829
 51
259.99999999999977
  0
ARC
  5
A62F
  8
0
 10
233.2971790733572
 20
38.490319203235167
 30
0.0
 40
5.2500000000000213
 50
280.00000000000023
 51
100.0000000000002
  0
ARC
  5
A630
  8
0
 10
227.74043738801549
 20
70.004167299625863
 30
0.0
 40
26.749999999999989
 50
259.99999999999977
 51
280.00000000000023
  0
LINE
  5
A63A
  8
1
 10
167.74043738801541
 20
70.004167299625749
 30
0.0
 11
252.7404369409806
 21
70.004167299625749
 31
0.0
  0
LINE
  5
A63C
  8
1
 10
227.74043738801541
 20
22.504167299625639
 30
0.0
 11
227.74043738801541
 21
117.50416729962561
 31
0.0
  0
LINE
  5
A644
  8
0
 10
187.64791324694221
 20
61.504166837689873
 30
0.0
 11
177.83296167810019
 21
61.504166837689873
 31
0.0
  0
LINE
  5
A645
  8
0
 10
177.83296167810019
 20
61.504166837689873
 30
0.0
 11
172.9254840310341
 21
70.004167299625863
 31
0.0
  0
LINE
  5
A647
  8
0
 10
172.9254840310341
 20
70.004167299625863
 30
0.0
 11
177.83296167810019
 21
78.50416776156186
 31
0.0
  0
LINE
  5
A648
  8
0
 10
177.83296167810019
 20
78.50416776156186
 30
0.0
 11
187.64791324694221
 21
78.50416776156186
 31
0.0
  0
LINE
  5
A649
  8
0
 10
187.64791324694221
 20
78.50416776156186
 30
0.0
 11
192.5553908940083
 21
70.004167299625863
 31
0.0
  0
LINE
  5
A64A
  8
0
 10
192.5553908940083
 20
70.004167299625863
 30
0.0
 11
187.64791324694221
 21
61.504166837689873
 31
0.0
  0
ARC
  5
A64B
  8
0
 10
227.74043738801549
 20
92.504167299625635
 30
0.0
 40
20.0
 50
0.0000000000000138
 51
180.0
  0
LINE
  5
A64C
  8
0
 10
207.74043738801549
 20
92.504166567823233
 30
0.0
 11
207.74043771368159
 21
59.721532655643372
 31
0.0
  0
LINE
  5
A64D
  8
0
 10
247.7404369409806
 20
47.504166405555956
 30
0.0
 11
247.74043738801541
 21
92.504166981451348
 31
0.0
  0
ARC
  5
A64E
  8
0
 10
227.74043738801549
 20
47.504167299625628
 30
0.0
 40
20.0
 50
180.0
 51
0.0000000000000138
  0
LINE
  5
A64F
  8
0
 10
205.3797576130174
 20
80.004167076108445
 30
0.0
 11
182.74043559987601
 21
80.004167076108445
 31
0.0
  0
ARC
  5
A650
  8
0
 10
182.74043738801541
 20
70.004167299625863
 30
0.0
 40
10.0
 50
89.999999999999204
 51
270.0
  0
LINE
  5
A651
  8
0
 10
182.74043559987601
 20
60.004167523143281
 30
0.0
 11
205.3797576130174
 21
60.004167076108502
 31
0.0
  0
ARC
  5
A652
  8
0
 10
205.3797576130174
 20
50.004167076108473
 30
0.0
 40
10.00000000000003
 50
76.34541333382279
 51
90.0
  0
ARC
  5
A653
  8
0
 10
205.3797576130174
 20
90.004167076108473
 30
0.0
 40
10.00000000000003
 50
270.0
 51
283.65458546159272
  0
TEXT
  5
A6E0
  8
0
 62
     3
 10
0.0
 20
0.0
 30
0.0
 40
10.0
  1
QLSWC-1240
  7
STANDARD1
  0
LINE
  5
A78E
  8
0
 10
247.7404374029166
 20
172.39656113526141
 30
0.0
 11
247.7404374029166
 21
170.19656027406739
 31
0.0
  0
LINE
  5
A78F
  8
0
 10
207.74043829698621
 20
172.39656113526141
 30
0.0
 11
207.74043829698621
 21
170.19656027406739
 31
0.0
  0
LINE
  5
A790
  8
0
 10
467.74043647904449
 20
170.19656027406739
 30
0.0
 11
467.74043647904449
 21
172.39656113526141
 31
0.0
  0
LINE
  5
A791
  8
0
 10
427.74043737311422
 20
170.19656027406739
 30
0.0
 11
427.74043737311422
 21
172.39656113526141
 31
0.0
  0
ENDSEC
  0
EOF
