  0
SECTION
  2
HEADER
  9
$ACADVER
  1
AC1009
  9
$INSBASE
 10
0.0
 20
0.0
 30
0.0
  9
$EXTMIN
 10
0.0
 20
-2.960436562073669
 30
0.0
  9
$EXTMAX
 10
193.563957713364
 20
199.71671416571749
 30
0.0
  9
$LIMMIN
 10
0.0
 20
0.0
  9
$LIMMAX
 10
375.0
 20
270.0
  9
$ORTHOMODE
 70
     1
  9
$REGENMODE
 70
     1
  9
$FILLMODE
 70
     1
  9
$QTEXTMODE
 70
     0
  9
$MIRRTEXT
 70
     0
  9
$DRAGMODE
 70
     2
  9
$LTSCALE
 40
10.0
  9
$OSMODE
 70
  3071
  9
$ATTMODE
 70
     1
  9
$TEXTSIZE
 40
6.0
  9
$TRACEWID
 40
0.05
  9
$TEXTSTYLE
  7
STANDARD
  9
$CLAYER
  8
0
  9
$CELTYPE
  6
BYLAYER
  9
$CECOLOR
 62
   256
  9
$DIMSCALE
 40
1.0
  9
$DIMASZ
 40
3.0
  9
$DIMEXO
 40
2.0
  9
$DIMDLI
 40
0.3799999999999999
  9
$DIMRND
 40
0.0
  9
$DIMDLE
 40
0.0
  9
$DIMEXE
 40
2.0
  9
$DIMTP
 40
0.0
  9
$DIMTM
 40
0.0
  9
$DIMTXT
 40
3.2000000000000002
  9
$DIMCEN
 40
0.09
  9
$DIMTSZ
 40
0.0
  9
$DIMTOL
 70
     0
  9
$DIMLIM
 70
     0
  9
$DIMTIH
 70
     0
  9
$DIMTOH
 70
     0
  9
$DIMSE1
 70
     0
  9
$DIMSE2
 70
     0
  9
$DIMTAD
 70
     1
  9
$DIMZIN
 70
     0
  9
$DIMBLK
  1

  9
$DIMASO
 70
     0
  9
$DIMSHO
 70
     0
  9
$DIMPOST
  1

  9
$DIMAPOST
  1

  9
$DIMALT
 70
     0
  9
$DIMALTD
 70
     2
  9
$DIMALTF
 40
25.399999999999999
  9
$DIMLFAC
 40
1.0
  9
$DIMTOFL
 70
     0
  9
$DIMTVP
 40
0.0
  9
$DIMTIX
 70
     0
  9
$DIMSOXD
 70
     0
  9
$DIMSAH
 70
     0
  9
$DIMBLK1
  1

  9
$DIMBLK2
  1

  9
$DIMSTYLE
  2
STANDARD
  9
$DIMCLRD
 70
     0
  9
$DIMCLRE
 70
     0
  9
$DIMCLRT
 70
     0
  9
$DIMTFAC
 40
1.0
  9
$DIMGAP
 40
0.09
  9
$LUNITS
 70
     2
  9
$LUPREC
 70
     4
  9
$SKETCHINC
 40
0.1
  9
$FILLETRAD
 40
20.0
  9
$AUNITS
 70
     0
  9
$AUPREC
 70
     0
  9
$MENU
  1
E:\r13\win\SUPPORT\ACAD
  9
$ELEVATION
 40
0.0
  9
$PELEVATION
 40
0.0
  9
$THICKNESS
 40
0.0
  9
$LIMCHECK
 70
     0
  9
$BLIPMODE
 70
     0
  9
$CHAMFERA
 40
0.0
  9
$CHAMFERB
 40
0.0
  9
$SKPOLY
 70
     0
  9
$TDCREATE
 40
2449840.6320370371
  9
$TDUPDATE
 40
2456598.4299385068
  9
$TDINDWG
 40
0.0674228356
  9
$TDUSRTIMER
 40
0.0674228356
  9
$USRTIMER
 70
     1
  9
$ANGBASE
 50
0.0
  9
$ANGDIR
 70
     0
  9
$PDMODE
 70
     0
  9
$PDSIZE
 40
0.0
  9
$PLINEWID
 40
0.0
  9
$COORDS
 70
     1
  9
$SPLFRAME
 70
     0
  9
$SPLINETYPE
 70
     6
  9
$SPLINESEGS
 70
     8
  9
$ATTDIA
 70
     0
  9
$ATTREQ
 70
     1
  9
$HANDLING
 70
     1
  9
$HANDSEED
  5
280F
  9
$SURFTAB1
 70
     6
  9
$SURFTAB2
 70
     6
  9
$SURFTYPE
 70
     6
  9
$SURFU
 70
     6
  9
$SURFV
 70
     6
  9
$UCSNAME
  2

  9
$UCSORG
 10
0.0
 20
0.0
 30
0.0
  9
$UCSXDIR
 10
1.0
 20
0.0
 30
0.0
  9
$UCSYDIR
 10
0.0
 20
1.0
 30
0.0
  9
$PUCSNAME
  2

  9
$PUCSORG
 10
0.0
 20
0.0
 30
0.0
  9
$PUCSXDIR
 10
1.0
 20
0.0
 30
0.0
  9
$PUCSYDIR
 10
0.0
 20
1.0
 30
0.0
  9
$USERI1
 70
     0
  9
$USERI2
 70
     1
  9
$USERI3
 70
     0
  9
$USERI4
 70
     0
  9
$USERI5
 70
     0
  9
$USERR1
 40
0.0
  9
$USERR2
 40
0.0
  9
$USERR3
 40
0.0
  9
$USERR4
 40
0.0
  9
$USERR5
 40
0.0
  9
$WORLDVIEW
 70
     1
  9
$SHADEDGE
 70
     3
  9
$SHADEDIF
 70
    70
  9
$TILEMODE
 70
     1
  9
$MAXACTVP
 70
    16
  9
$PLIMCHECK
 70
     0
  9
$PEXTMIN
 10
1.0000000000000000E+020
 20
1.0000000000000000E+020
 30
1.0000000000000000E+020
  9
$PEXTMAX
 10
-1.0000000000000000E+020
 20
-1.0000000000000000E+020
 30
-1.0000000000000000E+020
  9
$PLIMMIN
 10
0.0
 20
0.0
  9
$PLIMMAX
 10
12.0
 20
9.0
  9
$UNITMODE
 70
     0
  9
$VISRETAIN
 70
     0
  9
$PLINEGEN
 70
     0
  9
$PSLTSCALE
 70
     0
  0
ENDSEC
  0
SECTION
  2
TABLES
  0
TABLE
  2
VPORT
 70
     1
  0
VPORT
  2
*ACTIVE
 70
     0
 10
0.0
 20
0.0
 11
1.0
 21
1.0
 12
187.4942783906524
 22
149.37525922376949
 13
0.0
 23
0.0
 14
10.0
 24
10.0
 15
10.0
 25
10.0
 16
0.0
 26
0.0
 36
1.0
 17
0.0
 27
0.0
 37
0.0
 40
308.52635987286669
 41
2.304913294797688
 42
50.0
 43
0.0
 44
0.0
 50
0.0
 51
0.0
 71
     0
 72
   500
 73
     1
 74
     0
 75
     0
 76
     0
 77
     0
 78
     0
  0
ENDTAB
  0
TABLE
  2
LTYPE
 70
     3
  0
LTYPE
  2
CONTINUOUS
 70
     0
  3
Solid Line
 72
    65
 73
     0
 40
0.0
  0
LTYPE
  2
CENTER
 70
     0
  3
____ _ ____ _ ____ _ ____ _ ____ _ ____ _ ____
 72
    65
 73
     4
 40
2.0
 49
1.25
 49
-0.25
 49
0.25
 49
-0.25
  0
LTYPE
  2
PHANTOM2
 70
     0
  3
___ _ _ ___ _ _ ___ _ _ ___ _ _
 72
    65
 73
     6
 40
1.25
 49
0.625
 49
-0.125
 49
0.125
 49
-0.125
 49
0.125
 49
-0.125
  0
ENDTAB
  0
TABLE
  2
LAYER
 70
     3
  0
LAYER
  2
0
 70
     0
 62
     7
  6
CONTINUOUS
  0
LAYER
  2
1
 70
     0
 62
     1
  6
CENTER
  0
LAYER
  2
3
 70
     0
 62
     3
  6
CONTINUOUS
  0
ENDTAB
  0
TABLE
  2
STYLE
 70
     2
  0
STYLE
  2
STANDARD
 70
     0
 40
0.0
 41
1.0
 50
0.0
 71
     0
 42
6.0
  3
TXT
  4
BIGFONT
  0
STYLE
  2
STANDARD1
 70
     0
 40
0.0
 41
1.0
 50
0.0
 71
     0
 42
3.0
  3
txt
  4

  0
ENDTAB
  0
TABLE
  2
VIEW
 70
     1
  0
VIEW
  2
ALL
 70
     0
 40
270.0
 10
213.25689075630251
 20
135.0
 41
0.0
 11
0.0
 21
0.0
 31
1.0
 12
0.0
 22
0.0
 32
0.0
 42
0.0
 43
0.0
 44
0.0
 50
0.0
 71
     0
  0
ENDTAB
  0
TABLE
  2
UCS
 70
     0
  0
ENDTAB
  0
TABLE
  2
APPID
 70
     3
  0
APPID
  2
ACAD
 70
     0
  0
APPID
  2
ACAD_MLEADERVER
 70
     0
  0
APPID
  2
ACAD_NAV_VCDISPLAY
 70
     0
  0
ENDTAB
  0
TABLE
  2
DIMSTYLE
 70
     1
  0
DIMSTYLE
  2
STANDARD
 70
     0
  3

  4

  5

  6

  7

 40
1.0
 41
0.18
 42
0.0625
 43
0.38
 44
0.18
 45
0.0
 46
0.0
 47
0.0
 48
0.0
140
0.18
141
0.09
142
0.0
143
25.399999999999999
144
1.0
145
0.0
146
1.0
147
0.09
 71
     0
 72
     0
 73
     1
 74
     1
 75
     0
 76
     0
 77
     0
 78
     0
170
     0
171
     2
172
     0
173
     0
174
     0
175
     0
176
     0
177
     0
178
     0
  0
ENDTAB
  0
ENDSEC
  0
SECTION
  2
BLOCKS
  0
BLOCK
  8
0
  2
$MODEL_SPACE
 70
     0
 10
0.0
 20
0.0
 30
0.0
  3
$MODEL_SPACE
  1

  0
ENDBLK
  5
126
  8
0
  0
BLOCK
 67
     1
  8
0
  2
$PAPER_SPACE
 70
     0
 10
0.0
 20
0.0
 30
0.0
  3
$PAPER_SPACE
  1

  0
ENDBLK
  5
124
 67
     1
  8
0
  0
ENDSEC
  0
SECTION
  2
ENTITIES
  0
CIRCLE
  5
1F95
  8
3
 10
106.94348018199391
 20
29.549310331284801
 30
0.0
 40
3.3243345211648561
  0
LINE
  5
1F96
  8
0
 10
182.06395771336389
 20
118.5145765732575
 30
0.0
 11
189.06395771336389
 21
118.5145765732575
 31
0.0
  0
LINE
  5
1F97
  8
0
 10
99.746721400136934
 20
33.049310331284737
 30
0.0
 11
90.881302355502839
 21
33.049310331284737
 31
0.0
  0
LINE
  5
1F98
  8
0
 10
99.752750994836902
 20
26.049310331284769
 30
0.0
 11
90.881302355502953
 21
26.049310331284769
 31
0.0
  0
CIRCLE
  5
1F99
  8
3
 10
89.943479258122011
 20
186.71671416571741
 30
0.0
 40
1.6156346506463419
  0
LINE
  5
1F9A
  8
1
 10
108.6755302087961
 20
118.8032666675267
 30
0.0
 11
123.6776491443122
 21
144.7876988850318
 31
0.0
  0
LINE
  5
1F9B
  8
1
 10
89.943479258122011
 20
36.590762749009912
 30
0.0
 11
89.943479258122011
 21
22.507857913559629
 31
0.0
  0
LINE
  5
1F9C
  8
1
 10
89.943479258122011
 20
126.30326730082611
 30
0.0
 11
89.943479258122011
 21
105.5032674006639
 31
0.0
  0
LINE
  5
1F9D
  8
1
 10
106.94348018199391
 20
79.803267349254895
 30
0.0
 11
106.94348018199391
 21
123.8032666675267
 31
0.0
  0
LINE
  5
1F9E
  8
1
 10
106.94348018199391
 20
173.71671416571741
 30
0.0
 11
106.94348018199391
 21
199.71671416571749
 31
0.0
  0
LINE
  5
1F9F
  8
1
 10
127.3438851689245
 20
186.71671416571741
 30
0.0
 11
80.943480181994005
 21
186.71671416571741
 31
0.0
  0
LINE
  5
1FA0
  8
1
 10
80.902033047987615
 20
29.549310331284801
 30
0.0
 11
127.3411216151311
 21
29.549310331284801
 31
0.0
  0
LINE
  5
1FA1
  8
1
 10
185.56395771336381
 20
145.54720564746339
 30
0.0
 11
185.56395771336381
 21
79.803267442387153
 31
0.0
  0
LINE
  5
1FA2
  8
1
 10
106.94348018199391
 20
16.555506811370631
 30
0.0
 11
106.94348018199391
 21
42.555506811370627
 31
0.0
  0
LINE
  5
1FA3
  8
1
 10
89.943479258122011
 20
193.75816658344249
 30
0.0
 11
89.943479258122011
 21
179.67526174799229
 31
0.0
  0
LINE
  5
1FA4
  8
1
 10
28.28504055769827
 20
79.803267442387153
 30
0.0
 11
28.28504055769827
 21
145.54720564746339
 31
0.0
  0
POLYLINE
  5
1FA5
  8
0
 66
     1
 10
0.0
 20
0.0
 30
0.0
 70
   130
  0
VERTEX
  5
1FA6
  8
0
 10
118.65413602566881
 20
34.978131883424652
 30
0.0
 42
-0.0122050180103398
  0
VERTEX
  5
1FA7
  8
0
 10
118.86105193739169
 20
34.970764596018128
 30
0.0
 42
-0.0238540504904494
 70
     1
  0
VERTEX
  5
1FA8
  8
0
 10
118.9664188132553
 20
34.959372708518167
 30
0.0
 42
-0.0057276614080457
  0
VERTEX
  5
1FA9
  8
0
 10
119.2958655508336
 20
34.903887903964943
 30
0.0
 42
-0.0172204804107608
 70
     1
  0
VERTEX
  5
1FAA
  8
0
 10
119.4045086507101
 20
34.880419482540013
 30
0.0
 42
-0.0252455913716045
  0
VERTEX
  5
1FAB
  8
0
 10
119.60089848800661
 20
34.820171485130913
 30
0.0
 42
-0.0198905348305367
 70
     1
  0
VERTEX
  5
1FAC
  8
0
 10
119.8421963819942
 20
34.721571178221787
 30
0.0
 42
-0.0216210503606964
  0
VERTEX
  5
1FAD
  8
0
 10
120.0463579585526
 20
34.617624938663077
 30
0.0
 42
-0.0186549905904343
 70
     1
  0
VERTEX
  5
1FAE
  8
0
 10
120.2724937023374
 20
34.478521652653882
 30
0.0
 42
-0.0248376765660166
  0
VERTEX
  5
1FAF
  8
0
 10
120.4596685845072
 20
34.339614390723909
 30
0.0
 42
-0.0162014930083358
 70
     1
  0
VERTEX
  5
1FB0
  8
0
 10
120.7280996275335
 20
34.103940926669438
 30
0.0
 42
-0.0301261762009198
  0
VERTEX
  5
1FB1
  8
0
 10
120.9229417459819
 20
33.897976046290637
 30
0.0
 42
-0.0166468783629395
 70
     1
  0
VERTEX
  5
1FB2
  8
0
 10
121.23900156078059
 20
33.494191217557372
 30
0.0
 42
-0.0434958189238525
  0
VERTEX
  5
1FB3
  8
0
 10
121.60250116528
 20
32.893113244591632
 30
0.0
 42
-0.0334047951298308
 70
     1
  0
VERTEX
  5
1FB4
  8
0
 10
121.9501197380355
 20
32.047872692815943
 30
0.0
 42
-0.026283660555171
  0
VERTEX
  5
1FB5
  8
0
 10
122.1537318547619
 20
31.31456653181931
 30
0.0
 42
-0.0251313338800529
 70
     1
  0
VERTEX
  5
1FB6
  8
0
 10
122.28684060337331
 20
30.52987845803964
 30
0.0
 42
-0.0238075790193535
  0
VERTEX
  5
1FB7
  8
0
 10
122.33855257856609
 20
29.79418704748878
 30
0.0
 42
-0.0208266893357102
 70
     1
  0
VERTEX
  5
1FB8
  8
0
 10
122.3224711689367
 20
28.951387864969039
 30
0.0
 42
-0.034799138678839
  0
VERTEX
  5
1FB9
  8
0
 10
122.18990928887909
 20
27.939763116390619
 30
0.0
 42
-0.0360763796790869
 70
     1
  0
VERTEX
  5
1FBA
  8
0
 10
121.9254962358072
 20
26.991704442349882
 30
0.0
 42
-0.0286647590815631
  0
VERTEX
  5
1FBB
  8
0
 10
121.5820676142658
 20
26.182631597019959
 30
0.0
 42
-0.0410522088187952
 70
     1
  0
VERTEX
  5
1FBC
  8
0
 10
121.2658389991108
 20
25.65603263274221
 30
0.0
 42
-0.0184339524723
  0
VERTEX
  5
1FBD
  8
0
 10
120.92584760016059
 20
25.217702945348609
 30
0.0
 42
-0.0315452660550706
 70
     1
  0
VERTEX
  5
1FBE
  8
0
 10
120.702458699753
 20
24.982503993525341
 30
0.0
 42
-0.017735334583805
  0
VERTEX
  5
1FBF
  8
0
 10
120.4405111925562
 20
24.75616160893799
 30
0.0
 42
-0.0246243348677168
 70
     1
  0
VERTEX
  5
1FC0
  8
0
 10
120.23867250618579
 20
24.609645225096099
 30
0.0
 42
-0.0246689924858272
  0
VERTEX
  5
1FC1
  8
0
 10
119.95890320147571
 20
24.445972840997431
 30
0.0
 42
-0.0273893327219863
 70
     1
  0
VERTEX
  5
1FC2
  8
0
 10
119.6929298982445
 20
24.325519713380181
 30
0.0
 42
-0.0203385407006528
  0
VERTEX
  5
1FC3
  8
0
 10
119.58739898226111
 20
24.28939548037091
 30
0.0
 42
-0.0062775292905332
 70
     1
  0
VERTEX
  5
1FC4
  8
0
 10
119.2398774679491
 20
24.190749387242331
 30
0.0
 42
-0.0414115631239853
  0
VERTEX
  5
1FC5
  8
0
 10
119.01358888666689
 20
24.149279437675549
 30
0.0
 42
-0.026449868533688
 70
     1
  0
VERTEX
  5
1FC6
  8
0
 10
118.654136025673
 20
24.132881739316531
 30
0.0
  0
SEQEND
  5
1FC7
  8
0
  0
POLYLINE
  5
1FC8
  8
0
 66
     1
 10
0.0
 20
0.0
 30
0.0
 70
   130
  0
VERTEX
  5
1FC9
  8
0
 10
118.65413602566881
 20
24.132881739316652
 30
0.0
 42
-0.0142426016549283
  0
VERTEX
  5
1FCA
  8
0
 10
118.37245215871999
 20
24.149048822742181
 30
0.0
 42
-0.021335102703182
 70
     1
  0
VERTEX
  5
1FCB
  8
0
 10
118.1856052347072
 20
24.173187606197711
 30
0.0
 42
-0.0009520972085301
  0
VERTEX
  5
1FCC
  8
0
 10
117.9442197167252
 20
24.215380516493848
 30
0.0
 42
-0.0113175954387185
 70
     1
  0
VERTEX
  5
1FCD
  8
0
 10
117.9240036970554
 20
24.21942770102854
 30
0.0
 42
-0.0084796957844899
  0
VERTEX
  5
1FCE
  8
0
 10
117.8479762032883
 20
24.237805664219799
 30
0.0
 42
-0.0047620438602002
 70
     1
  0
VERTEX
  5
1FCF
  8
0
 10
117.713515909053
 20
24.27410262370562
 30
0.0
 42
-0.0156338120399649
  0
VERTEX
  5
1FD0
  8
0
 10
117.3857632030176
 20
24.377088758750439
 30
0.0
 42
-0.0187582258172635
 70
     1
  0
VERTEX
  5
1FD1
  8
0
 10
117.1191175826293
 20
24.481502025028568
 30
0.0
 42
-0.0036870904530787
  0
VERTEX
  5
1FD2
  8
0
 10
116.8367776049493
 20
24.606948993770722
 30
0.0
 42
-0.0018065678227149
 70
     1
  0
VERTEX
  5
1FD3
  8
0
 10
116.2633933149711
 20
24.86929130443594
 30
0.0
 42
-0.0026243779794506
  0
VERTEX
  5
1FD4
  8
0
 10
115.8220745188748
 20
25.07595826472237
 30
0.0
 42
0.0052072155516079
 70
     1
  0
VERTEX
  5
1FD5
  8
0
 10
115.5991152401089
 20
25.17896785403655
 30
0.0
 42
0.0105313344478
  0
VERTEX
  5
1FD6
  8
0
 10
115.3810573838775
 20
25.271500933490959
 30
0.0
 42
0.0078056275602515
 70
     1
  0
VERTEX
  5
1FD7
  8
0
 10
115.0824895620578
 20
25.385469865888378
 30
0.0
 42
0.0029572164356819
  0
VERTEX
  5
1FD8
  8
0
 10
115.0449142462565
 20
25.398893804552792
 30
0.0
 42
0.0004482835682793
 70
     1
  0
VERTEX
  5
1FD9
  8
0
 10
114.7964438646834
 20
25.485757169797012
 30
0.0
 42
0.0092815740672391
  0
VERTEX
  5
1FDA
  8
0
 10
114.7116044935664
 20
25.513575989500399
 30
0.0
 42
0.0045839612274727
 70
     1
  0
VERTEX
  5
1FDB
  8
0
 10
114.53833784727399
 20
25.56511534594096
 30
0.0
  0
SEQEND
  5
1FDC
  8
0
  0
POLYLINE
  5
1FDD
  8
0
 66
     1
 10
0.0
 20
0.0
 30
0.0
 70
   130
  0
VERTEX
  5
1FDE
  8
0
 10
118.65413602566881
 20
34.978131883424652
 30
0.0
 42
0.0142426016549283
  0
VERTEX
  5
1FDF
  8
0
 10
118.37245215871999
 20
34.96196479999913
 30
0.0
 42
0.021335102703182
 70
     1
  0
VERTEX
  5
1FE0
  8
0
 10
118.1856052347072
 20
34.937826016543589
 30
0.0
 42
0.0009520972085301
  0
VERTEX
  5
1FE1
  8
0
 10
117.9442197167252
 20
34.895633106247452
 30
0.0
 42
0.0113175954387185
 70
     1
  0
VERTEX
  5
1FE2
  8
0
 10
117.9240036970554
 20
34.891585921712768
 30
0.0
 42
0.0084796957844899
  0
VERTEX
  5
1FE3
  8
0
 10
117.8479762032883
 20
34.873207958521512
 30
0.0
 42
0.0047620438602002
 70
     1
  0
VERTEX
  5
1FE4
  8
0
 10
117.713515909053
 20
34.83691099903568
 30
0.0
 42
0.0156338120399649
  0
VERTEX
  5
1FE5
  8
0
 10
117.3857632030176
 20
34.733924863990872
 30
0.0
 42
0.0187582258172635
 70
     1
  0
VERTEX
  5
1FE6
  8
0
 10
117.1191175826293
 20
34.629511597712742
 30
0.0
 42
0.0036870904530787
  0
VERTEX
  5
1FE7
  8
0
 10
116.8367776049493
 20
34.504064628970582
 30
0.0
 42
0.0018065678227149
 70
     1
  0
VERTEX
  5
1FE8
  8
0
 10
116.2633933149711
 20
34.241722318305371
 30
0.0
 42
0.0026243779794506
  0
VERTEX
  5
1FE9
  8
0
 10
115.8220745188748
 20
34.03505535801893
 30
0.0
 42
-0.0052072155516079
 70
     1
  0
VERTEX
  5
1FEA
  8
0
 10
115.5991152401089
 20
33.932045768704761
 30
0.0
 42
-0.0105313344478
  0
VERTEX
  5
1FEB
  8
0
 10
115.3810573838775
 20
33.839512689250341
 30
0.0
 42
-0.0078056275602515
 70
     1
  0
VERTEX
  5
1FEC
  8
0
 10
115.0824895620578
 20
33.725543756852922
 30
0.0
 42
-0.0029572164356819
  0
VERTEX
  5
1FED
  8
0
 10
115.0449142462565
 20
33.712119818188512
 30
0.0
 42
-0.0004482835682793
 70
     1
  0
VERTEX
  5
1FEE
  8
0
 10
114.7964438646834
 20
33.625256452944292
 30
0.0
 42
-0.0092815740672391
  0
VERTEX
  5
1FEF
  8
0
 10
114.7116044935664
 20
33.597437633240901
 30
0.0
 42
-0.0045839612274727
 70
     1
  0
VERTEX
  5
1FF0
  8
0
 10
114.53833784727399
 20
33.545898276800337
 30
0.0
  0
SEQEND
  5
1FF1
  8
0
  0
LINE
  5
1FF2
  8
0
 10
114.94079015859251
 20
29.762951112806348
 30
0.0
 11
114.9407086845559
 21
33.055605775839751
 31
0.0
  0
LINE
  5
1FF3
  8
0
 10
114.4212178003193
 20
32.398645941185002
 30
0.0
 11
114.4212178003193
 21
33.055506811370591
 31
0.0
  0
LINE
  5
1FF4
  8
0
 10
114.4212178003193
 20
26.055506811370591
 30
0.0
 11
114.4212178003193
 21
26.71236768155628
 31
0.0
  0
LINE
  5
1FF5
  8
0
 10
114.94088189625811
 20
26.055506811370581
 30
0.0
 11
114.9408004148772
 21
29.3484582839287
 31
0.0
  0
LINE
  5
1FF6
  8
0
 10
177.56395771336389
 20
117.3032674423871
 30
0.0
 11
177.56395771336381
 21
116.03727905891949
 31
0.0
  0
LINE
  5
1FF7
  8
0
 10
193.563957713364
 20
117.3032674423871
 30
0.0
 11
193.563957713364
 21
116.03727905891949
 31
0.0
  0
ARC
  5
1FF8
  8
0
 10
170.09410120170691
 20
113.8032676091815
 30
0.0
 40
7.7967662182665167
 50
343.34969966973762
 51
16.65035663881385
  0
POLYLINE
  5
1FF9
  8
0
 66
     1
 10
0.0
 20
0.0
 30
0.0
 70
   130
  0
VERTEX
  5
1FFA
  8
0
 10
192.55255719470071
 20
107.8032674423871
 30
0.0
 42
-0.0405486669999331
  0
VERTEX
  5
1FFB
  8
0
 10
192.7022597963911
 20
107.7738105278232
 30
0.0
 42
-0.0591557300150313
 70
     1
  0
VERTEX
  5
1FFC
  8
0
 10
192.79902744613381
 20
107.7336356227984
 30
0.0
 42
-0.0194973831072265
  0
VERTEX
  5
1FFD
  8
0
 10
192.9474539374923
 20
107.64249611275049
 30
0.0
 42
-0.0508521476284238
 70
     1
  0
VERTEX
  5
1FFE
  8
0
 10
192.99901723613829
 20
107.5998276122187
 30
0.0
 42
-0.0397031992758037
  0
VERTEX
  5
1FFF
  8
0
 10
193.06033072538551
 20
107.5268162038561
 30
0.0
 42
-0.0317364760395063
 70
     1
  0
VERTEX
  5
2000
  8
0
 10
193.1232184505723
 20
107.4255469266032
 30
0.0
 42
-0.0372206254998599
  0
VERTEX
  5
2001
  8
0
 10
193.22468634108529
 20
107.19701718912459
 30
0.0
 42
-0.0330517692060822
 70
     1
  0
VERTEX
  5
2002
  8
0
 10
193.30176819713171
 20
106.9262773387843
 30
0.0
 42
-0.0090161105585921
  0
VERTEX
  5
2003
  8
0
 10
193.35631597482089
 20
106.64754645594159
 30
0.0
 42
-0.0149569300913104
 70
     1
  0
VERTEX
  5
2004
  8
0
 10
193.3811110148921
 20
106.4781192052823
 30
0.0
 42
-0.0067668781220196
  0
VERTEX
  5
2005
  8
0
 10
193.41661415255689
 20
106.1308097359001
 30
0.0
 42
-0.0093482838931548
 70
     1
  0
VERTEX
  5
2006
  8
0
 10
193.4341996926137
 20
105.87869714995389
 30
0.0
 42
-0.0049901791349675
  0
VERTEX
  5
2007
  8
0
 10
193.44976457604341
 20
105.49894134444951
 30
0.0
 42
-0.0063005392964554
 70
     1
  0
VERTEX
  5
2008
  8
0
 10
193.45529798164259
 20
105.19795946050721
 30
0.0
 42
-0.0039370455936444
  0
VERTEX
  5
2009
  8
0
 10
193.45458849808921
 20
104.858902858587
 30
0.0
 42
-0.0048466461502148
 70
     1
  0
VERTEX
  5
200A
  8
0
 10
193.44917402034559
 20
104.5835295629463
 30
0.0
 42
-0.0050820300037661
  0
VERTEX
  5
200B
  8
0
 10
193.43818241299891
 20
104.3055253578172
 30
0.0
 42
-0.0055443958504489
 70
     1
  0
VERTEX
  5
200C
  8
0
 10
193.42269442861169
 20
104.0509752589854
 30
0.0
 42
-0.0068276472750481
  0
VERTEX
  5
200D
  8
0
 10
193.40331509666379
 20
103.8249045538436
 30
0.0
 42
-0.0073301518564283
 70
     1
  0
VERTEX
  5
200E
  8
0
 10
193.3793097428655
 20
103.6149256512021
 30
0.0
 42
-0.0075517850384726
  0
VERTEX
  5
200F
  8
0
 10
193.3605001181773
 20
103.48483350043119
 30
0.0
 42
-0.0061198781578852
 70
     1
  0
VERTEX
  5
2010
  8
0
 10
193.33290987770451
 20
103.3250005611285
 30
0.0
 42
-0.0129139374534198
  0
VERTEX
  5
2011
  8
0
 10
193.30830832405599
 20
103.2090091343611
 30
0.0
 42
-0.0085546783054281
 70
     1
  0
VERTEX
  5
2012
  8
0
 10
193.26369322455159
 20
103.0356828825233
 30
0.0
 42
-0.0224931748597629
  0
VERTEX
  5
2013
  8
0
 10
193.2200689612477
 20
102.9013593149307
 30
0.0
 42
-0.0191562827375758
 70
     1
  0
VERTEX
  5
2014
  8
0
 10
193.1559111843012
 20
102.74846675350641
 30
0.0
 42
-0.0295814472776009
  0
VERTEX
  5
2015
  8
0
 10
193.09147268018921
 20
102.6290307278009
 30
0.0
 42
-0.0338528552714881
 70
     1
  0
VERTEX
  5
2016
  8
0
 10
193.02239746799421
 20
102.5325989065378
 30
0.0
 42
-0.0243926974323466
  0
VERTEX
  5
2017
  8
0
 10
192.96585541878591
 20
102.4704313924169
 30
0.0
 42
-0.0317314798256175
 70
     1
  0
VERTEX
  5
2018
  8
0
 10
192.9172921144629
 20
102.4277921898379
 30
0.0
 42
-0.0286298051578963
  0
VERTEX
  5
2019
  8
0
 10
192.85549911549691
 20
102.3855310965359
 30
0.0
 42
-0.0392822018007596
 70
     1
  0
VERTEX
  5
201A
  8
0
 10
192.8066731346791
 20
102.361091700367
 30
0.0
 42
-0.0211862683583042
  0
VERTEX
  5
201B
  8
0
 10
192.78245058845471
 20
102.3524362569965
 30
0.0
 42
-0.0058576067697402
 70
     1
  0
VERTEX
  5
201C
  8
0
 10
192.69331332574041
 20
102.32592306192571
 30
0.0
 42
-0.0294599670090343
  0
VERTEX
  5
201D
  8
0
 10
192.6381916068286
 20
102.3136841021005
 30
0.0
 42
-0.0192730961309536
 70
     1
  0
VERTEX
  5
201E
  8
0
 10
192.5525571947006
 20
102.3032674423871
 30
0.0
  0
SEQEND
  5
201F
  8
0
  0
POLYLINE
  5
2020
  8
0
 66
     1
 10
0.0
 20
0.0
 30
0.0
 70
   130
  0
VERTEX
  5
2021
  8
0
 10
192.30785142245179
 20
107.5532674423871
 30
0.0
 42
-0.0117694537725489
  0
VERTEX
  5
2022
  8
0
 10
192.35947147519951
 20
107.5491358300022
 30
0.0
 42
-0.0214681896925751
 70
     1
  0
VERTEX
  5
2023
  8
0
 10
192.3875671324513
 20
107.5449948157144
 30
0.0
 42
-0.0081949681989105
  0
VERTEX
  5
2024
  8
0
 10
192.47390018413461
 20
107.5269853220676
 30
0.0
 42
-0.0215023291128828
 70
     1
  0
VERTEX
  5
2025
  8
0
 10
192.5063508674819
 20
107.5181772674871
 30
0.0
 42
-0.0420898978316031
  0
VERTEX
  5
2026
  8
0
 10
192.54890443071929
 20
107.50057730737539
 30
0.0
 42
-0.0271833169159363
 70
     1
  0
VERTEX
  5
2027
  8
0
 10
192.61033721621749
 20
107.46452873988299
 30
0.0
 42
-0.0334718598768776
  0
VERTEX
  5
2028
  8
0
 10
192.66602297846509
 20
107.4220266322008
 30
0.0
 42
-0.0282708459271024
 70
     1
  0
VERTEX
  5
2029
  8
0
 10
192.72523643047791
 20
107.3639887864491
 30
0.0
 42
-0.0315895666316888
  0
VERTEX
  5
202A
  8
0
 10
192.78883965291379
 20
107.284647294528
 30
0.0
 42
-0.0298025038103985
 70
     1
  0
VERTEX
  5
202B
  8
0
 10
192.8454464293269
 20
107.1929366222533
 30
0.0
 42
-0.0194934880409157
  0
VERTEX
  5
202C
  8
0
 10
192.8972780096579
 20
107.0868382391829
 30
0.0
 42
-0.0197093087491321
 70
     1
  0
VERTEX
  5
202D
  8
0
 10
192.94016679911741
 20
106.97820827732529
 30
0.0
 42
-0.0149949553452179
  0
VERTEX
  5
202E
  8
0
 10
192.98387269984801
 20
106.8401663732957
 30
0.0
 42
-0.014851557571127
 70
     1
  0
VERTEX
  5
202F
  8
0
 10
193.01960771688979
 20
106.6984080605624
 30
0.0
 42
-0.0152981783329293
  0
VERTEX
  5
2030
  8
0
 10
193.06951507191741
 20
106.4341274084868
 30
0.0
 42
-0.0154639063373532
 70
     1
  0
VERTEX
  5
2031
  8
0
 10
193.10272035636939
 20
106.17013686869559
 30
0.0
 42
-0.0039347529737577
  0
VERTEX
  5
2032
  8
0
 10
193.1256139919787
 20
105.9056090517238
 30
0.0
 42
-0.0090227574513102
 70
     1
  0
VERTEX
  5
2033
  8
0
 10
193.13260571194081
 20
105.7900229872853
 30
0.0
 42
-0.0017207315528789
  0
VERTEX
  5
2034
  8
0
 10
193.1338801819667
 20
105.75730137544861
 30
0.0
 42
-0.0002060201600359
 70
     1
  0
VERTEX
  5
2035
  8
0
 10
193.1434716099638
 20
105.48396415295591
 30
0.0
 42
-0.0043963814450239
  0
VERTEX
  5
2036
  8
0
 10
193.14589457573661
 20
105.3903292100572
 30
0.0
 42
-0.0022011642705218
 70
     1
  0
VERTEX
  5
2037
  8
0
 10
193.1482658836895
 20
105.2032674423871
 30
0.0
  0
SEQEND
  5
2038
  8
0
  0
POLYLINE
  5
2039
  8
0
 66
     1
 10
0.0
 20
0.0
 30
0.0
 70
   130
  0
VERTEX
  5
203A
  8
0
 10
192.30785142245179
 20
102.5532674423871
 30
0.0
 42
0.0117694537725489
  0
VERTEX
  5
203B
  8
0
 10
192.35947147519951
 20
102.55739905477211
 30
0.0
 42
0.0214681896925751
 70
     1
  0
VERTEX
  5
203C
  8
0
 10
192.3875671324513
 20
102.5615400690599
 30
0.0
 42
0.0081949681989105
  0
VERTEX
  5
203D
  8
0
 10
192.47390018413461
 20
102.5795495627067
 30
0.0
 42
0.0215023291128828
 70
     1
  0
VERTEX
  5
203E
  8
0
 10
192.5063508674819
 20
102.5883576172871
 30
0.0
 42
0.0420898978316031
  0
VERTEX
  5
203F
  8
0
 10
192.54890443071929
 20
102.6059575773988
 30
0.0
 42
0.0271833169159363
 70
     1
  0
VERTEX
  5
2040
  8
0
 10
192.61033721621749
 20
102.6420061448912
 30
0.0
 42
0.0334718598768776
  0
VERTEX
  5
2041
  8
0
 10
192.66602297846509
 20
102.68450825257349
 30
0.0
 42
0.0282708459271024
 70
     1
  0
VERTEX
  5
2042
  8
0
 10
192.72523643047791
 20
102.74254609832511
 30
0.0
 42
0.0315895666316888
  0
VERTEX
  5
2043
  8
0
 10
192.78883965291379
 20
102.82188759024631
 30
0.0
 42
0.0298025038103985
 70
     1
  0
VERTEX
  5
2044
  8
0
 10
192.8454464293269
 20
102.91359826252101
 30
0.0
 42
0.0194934880409157
  0
VERTEX
  5
2045
  8
0
 10
192.8972780096579
 20
103.0196966455914
 30
0.0
 42
0.0197093087491321
 70
     1
  0
VERTEX
  5
2046
  8
0
 10
192.94016679911741
 20
103.128326607449
 30
0.0
 42
0.0149949553452179
  0
VERTEX
  5
2047
  8
0
 10
192.98387269984801
 20
103.2663685114786
 30
0.0
 42
0.014851557571127
 70
     1
  0
VERTEX
  5
2048
  8
0
 10
193.01960771688979
 20
103.40812682421191
 30
0.0
 42
0.0152981783329293
  0
VERTEX
  5
2049
  8
0
 10
193.06951507191741
 20
103.6724074762875
 30
0.0
 42
0.0154639063373532
 70
     1
  0
VERTEX
  5
204A
  8
0
 10
193.10272035636939
 20
103.9363980160786
 30
0.0
 42
0.0039347529737577
  0
VERTEX
  5
204B
  8
0
 10
193.1256139919787
 20
104.2009258330505
 30
0.0
 42
0.0090227574513102
 70
     1
  0
VERTEX
  5
204C
  8
0
 10
193.13260571194081
 20
104.31651189748899
 30
0.0
 42
0.0017207315528789
  0
VERTEX
  5
204D
  8
0
 10
193.1338801819667
 20
104.3492335093257
 30
0.0
 42
0.0002060201600359
 70
     1
  0
VERTEX
  5
204E
  8
0
 10
193.1434716099638
 20
104.6225707318183
 30
0.0
 42
0.0043963814450239
  0
VERTEX
  5
204F
  8
0
 10
193.14589457573661
 20
104.7162056747171
 30
0.0
 42
0.0022011642705218
 70
     1
  0
VERTEX
  5
2050
  8
0
 10
193.1482658836895
 20
104.9032674423872
 30
0.0
  0
SEQEND
  5
2051
  8
0
  0
POLYLINE
  5
2052
  8
0
 66
     1
 10
0.0
 20
0.0
 30
0.0
 70
   130
  0
VERTEX
  5
2053
  8
0
 10
178.8200640042763
 20
102.5532674423871
 30
0.0
 42
-0.0117694537725489
  0
VERTEX
  5
2054
  8
0
 10
178.76844395152861
 20
102.55739905477211
 30
0.0
 42
-0.0214681896925751
 70
     1
  0
VERTEX
  5
2055
  8
0
 10
178.7403482942768
 20
102.5615400690599
 30
0.0
 42
-0.0081949681989105
  0
VERTEX
  5
2056
  8
0
 10
178.6540152425934
 20
102.5795495627067
 30
0.0
 42
-0.0215023291128828
 70
     1
  0
VERTEX
  5
2057
  8
0
 10
178.62156455924611
 20
102.5883576172871
 30
0.0
 42
-0.0420898978316031
  0
VERTEX
  5
2058
  8
0
 10
178.5790109960088
 20
102.6059575773988
 30
0.0
 42
-0.0271833169159363
 70
     1
  0
VERTEX
  5
2059
  8
0
 10
178.51757821051049
 20
102.6420061448912
 30
0.0
 42
-0.0334718598768776
  0
VERTEX
  5
205A
  8
0
 10
178.461892448263
 20
102.68450825257349
 30
0.0
 42
-0.0282708459271024
 70
     1
  0
VERTEX
  5
205B
  8
0
 10
178.40267899625019
 20
102.74254609832511
 30
0.0
 42
-0.0315895666316888
  0
VERTEX
  5
205C
  8
0
 10
178.3390757738143
 20
102.82188759024631
 30
0.0
 42
-0.0298025038103985
 70
     1
  0
VERTEX
  5
205D
  8
0
 10
178.28246899740131
 20
102.91359826252101
 30
0.0
 42
-0.0194934880409157
  0
VERTEX
  5
205E
  8
0
 10
178.23063741707011
 20
103.0196966455914
 30
0.0
 42
-0.0197093087491321
 70
     1
  0
VERTEX
  5
205F
  8
0
 10
178.1877486276108
 20
103.128326607449
 30
0.0
 42
-0.0149949553452179
  0
VERTEX
  5
2060
  8
0
 10
178.14404272688009
 20
103.2663685114786
 30
0.0
 42
-0.014851557571127
 70
     1
  0
VERTEX
  5
2061
  8
0
 10
178.1083077098383
 20
103.40812682421191
 30
0.0
 42
-0.0152981783329293
  0
VERTEX
  5
2062
  8
0
 10
178.0584003548108
 20
103.6724074762875
 30
0.0
 42
-0.0154639063373532
 70
     1
  0
VERTEX
  5
2063
  8
0
 10
178.02519507035859
 20
103.9363980160786
 30
0.0
 42
-0.0039347529737577
  0
VERTEX
  5
2064
  8
0
 10
178.00230143474931
 20
104.2009258330505
 30
0.0
 42
-0.0090227574513102
 70
     1
  0
VERTEX
  5
2065
  8
0
 10
177.9953097147872
 20
104.31651189748899
 30
0.0
 42
-0.0017207315528789
  0
VERTEX
  5
2066
  8
0
 10
177.99403524476139
 20
104.3492335093257
 30
0.0
 42
-0.0002060201600359
 70
     1
  0
VERTEX
  5
2067
  8
0
 10
177.9844438167643
 20
104.6225707318183
 30
0.0
 42
-0.0043963814450239
  0
VERTEX
  5
2068
  8
0
 10
177.9820208509916
 20
104.7162056747171
 30
0.0
 42
-0.0022011642705218
 70
     1
  0
VERTEX
  5
2069
  8
0
 10
177.97964954303859
 20
104.9032674423872
 30
0.0
  0
SEQEND
  5
206A
  8
0
  0
POLYLINE
  5
206B
  8
0
 66
     1
 10
0.0
 20
0.0
 30
0.0
 70
   130
  0
VERTEX
  5
206C
  8
0
 10
178.8200640042763
 20
107.5532674423871
 30
0.0
 42
0.0117694537725489
  0
VERTEX
  5
206D
  8
0
 10
178.76844395152861
 20
107.5491358300022
 30
0.0
 42
0.0214681896925751
 70
     1
  0
VERTEX
  5
206E
  8
0
 10
178.7403482942768
 20
107.5449948157144
 30
0.0
 42
0.0081949681989105
  0
VERTEX
  5
206F
  8
0
 10
178.6540152425934
 20
107.5269853220676
 30
0.0
 42
0.0215023291128828
 70
     1
  0
VERTEX
  5
2070
  8
0
 10
178.62156455924611
 20
107.5181772674871
 30
0.0
 42
0.0420898978316031
  0
VERTEX
  5
2071
  8
0
 10
178.5790109960088
 20
107.50057730737539
 30
0.0
 42
0.0271833169159363
 70
     1
  0
VERTEX
  5
2072
  8
0
 10
178.51757821051049
 20
107.46452873988299
 30
0.0
 42
0.0334718598768776
  0
VERTEX
  5
2073
  8
0
 10
178.461892448263
 20
107.4220266322008
 30
0.0
 42
0.0282708459271024
 70
     1
  0
VERTEX
  5
2074
  8
0
 10
178.40267899625019
 20
107.3639887864491
 30
0.0
 42
0.0315895666316888
  0
VERTEX
  5
2075
  8
0
 10
178.3390757738143
 20
107.284647294528
 30
0.0
 42
0.0298025038103985
 70
     1
  0
VERTEX
  5
2076
  8
0
 10
178.28246899740131
 20
107.1929366222533
 30
0.0
 42
0.0194934880409157
  0
VERTEX
  5
2077
  8
0
 10
178.23063741707011
 20
107.0868382391829
 30
0.0
 42
0.0197093087491321
 70
     1
  0
VERTEX
  5
2078
  8
0
 10
178.1877486276108
 20
106.97820827732529
 30
0.0
 42
0.0149949553452179
  0
VERTEX
  5
2079
  8
0
 10
178.14404272688009
 20
106.8401663732957
 30
0.0
 42
0.014851557571127
 70
     1
  0
VERTEX
  5
207A
  8
0
 10
178.1083077098383
 20
106.6984080605624
 30
0.0
 42
0.0152981783329293
  0
VERTEX
  5
207B
  8
0
 10
178.0584003548108
 20
106.4341274084868
 30
0.0
 42
0.0154639063373532
 70
     1
  0
VERTEX
  5
207C
  8
0
 10
178.02519507035859
 20
106.17013686869559
 30
0.0
 42
0.0039347529737577
  0
VERTEX
  5
207D
  8
0
 10
178.00230143474931
 20
105.9056090517238
 30
0.0
 42
0.0090227574513102
 70
     1
  0
VERTEX
  5
207E
  8
0
 10
177.9953097147872
 20
105.7900229872853
 30
0.0
 42
0.0017207315528789
  0
VERTEX
  5
207F
  8
0
 10
177.99403524476139
 20
105.75730137544861
 30
0.0
 42
0.0002060201600359
 70
     1
  0
VERTEX
  5
2080
  8
0
 10
177.9844438167643
 20
105.48396415295591
 30
0.0
 42
0.0043963814450239
  0
VERTEX
  5
2081
  8
0
 10
177.9820208509916
 20
105.3903292100572
 30
0.0
 42
0.0022011642705218
 70
     1
  0
VERTEX
  5
2082
  8
0
 10
177.97964954303859
 20
105.2032674423871
 30
0.0
  0
SEQEND
  5
2083
  8
0
  0
POLYLINE
  5
2084
  8
0
 66
     1
 10
0.0
 20
0.0
 30
0.0
 70
   130
  0
VERTEX
  5
2085
  8
0
 10
178.5753582320275
 20
107.8032674423871
 30
0.0
 42
0.0405486669999331
  0
VERTEX
  5
2086
  8
0
 10
178.4256556303371
 20
107.7738105278232
 30
0.0
 42
0.0591557300150313
 70
     1
  0
VERTEX
  5
2087
  8
0
 10
178.32888798059429
 20
107.7336356227984
 30
0.0
 42
0.0194973831072265
  0
VERTEX
  5
2088
  8
0
 10
178.18046148923571
 20
107.64249611275049
 30
0.0
 42
0.0508521476284238
 70
     1
  0
VERTEX
  5
2089
  8
0
 10
178.12889819058989
 20
107.5998276122187
 30
0.0
 42
0.0397031992758037
  0
VERTEX
  5
208A
  8
0
 10
178.06758470134261
 20
107.5268162038561
 30
0.0
 42
0.0317364760395063
 70
     1
  0
VERTEX
  5
208B
  8
0
 10
178.0046969761558
 20
107.4255469266032
 30
0.0
 42
0.0372206254998599
  0
VERTEX
  5
208C
  8
0
 10
177.90322908564281
 20
107.19701718912459
 30
0.0
 42
0.0330517692060822
 70
     1
  0
VERTEX
  5
208D
  8
0
 10
177.8261472295963
 20
106.9262773387843
 30
0.0
 42
0.0090161105585921
  0
VERTEX
  5
208E
  8
0
 10
177.77159945190709
 20
106.64754645594159
 30
0.0
 42
0.0149569300913104
 70
     1
  0
VERTEX
  5
208F
  8
0
 10
177.746804411836
 20
106.4781192052823
 30
0.0
 42
0.0067668781220196
  0
VERTEX
  5
2090
  8
0
 10
177.71130127417121
 20
106.1308097359001
 30
0.0
 42
0.0093482838931548
 70
     1
  0
VERTEX
  5
2091
  8
0
 10
177.69371573411451
 20
105.87869714995389
 30
0.0
 42
0.0049901791349675
  0
VERTEX
  5
2092
  8
0
 10
177.67815085068469
 20
105.49894134444951
 30
0.0
 42
0.0063005392964554
 70
     1
  0
VERTEX
  5
2093
  8
0
 10
177.67261744508551
 20
105.19795946050721
 30
0.0
 42
0.0039370455936444
  0
VERTEX
  5
2094
  8
0
 10
177.6733269286388
 20
104.858902858587
 30
0.0
 42
0.0048466461502148
 70
     1
  0
VERTEX
  5
2095
  8
0
 10
177.6787414063825
 20
104.5835295629463
 30
0.0
 42
0.0050820300037661
  0
VERTEX
  5
2096
  8
0
 10
177.68973301372921
 20
104.3055253578172
 30
0.0
 42
0.0055443958504489
 70
     1
  0
VERTEX
  5
2097
  8
0
 10
177.7052209981164
 20
104.0509752589854
 30
0.0
 42
0.0068276472750481
  0
VERTEX
  5
2098
  8
0
 10
177.72460033006431
 20
103.8249045538436
 30
0.0
 42
0.0073301518564283
 70
     1
  0
VERTEX
  5
2099
  8
0
 10
177.74860568386259
 20
103.6149256512021
 30
0.0
 42
0.0075517850384726
  0
VERTEX
  5
209A
  8
0
 10
177.7674153085508
 20
103.48483350043119
 30
0.0
 42
0.0061198781578852
 70
     1
  0
VERTEX
  5
209B
  8
0
 10
177.79500554902361
 20
103.3250005611285
 30
0.0
 42
0.0129139374534198
  0
VERTEX
  5
209C
  8
0
 10
177.81960710267211
 20
103.2090091343611
 30
0.0
 42
0.0085546783054281
 70
     1
  0
VERTEX
  5
209D
  8
0
 10
177.86422220217651
 20
103.0356828825233
 30
0.0
 42
0.0224931748597629
  0
VERTEX
  5
209E
  8
0
 10
177.9078464654803
 20
102.9013593149307
 30
0.0
 42
0.0191562827375758
 70
     1
  0
VERTEX
  5
209F
  8
0
 10
177.972004242427
 20
102.74846675350641
 30
0.0
 42
0.0295814472776009
  0
VERTEX
  5
20A0
  8
0
 10
178.03644274653891
 20
102.6290307278009
 30
0.0
 42
0.0338528552714881
 70
     1
  0
VERTEX
  5
20A1
  8
0
 10
178.10551795873391
 20
102.5325989065378
 30
0.0
 42
0.0243926974323466
  0
VERTEX
  5
20A2
  8
0
 10
178.1620600079421
 20
102.4704313924169
 30
0.0
 42
0.0317314798256175
 70
     1
  0
VERTEX
  5
20A3
  8
0
 10
178.2106233122652
 20
102.4277921898379
 30
0.0
 42
0.0286298051578963
  0
VERTEX
  5
20A4
  8
0
 10
178.2724163112311
 20
102.3855310965359
 30
0.0
 42
0.0392822018007596
 70
     1
  0
VERTEX
  5
20A5
  8
0
 10
178.32124229204891
 20
102.361091700367
 30
0.0
 42
0.0211862683583042
  0
VERTEX
  5
20A6
  8
0
 10
178.34546483827339
 20
102.3524362569965
 30
0.0
 42
0.0058576067697402
 70
     1
  0
VERTEX
  5
20A7
  8
0
 10
178.4346021009878
 20
102.32592306192571
 30
0.0
 42
0.0294599670090343
  0
VERTEX
  5
20A8
  8
0
 10
178.4897238198995
 20
102.3136841021005
 30
0.0
 42
0.0192730961309536
 70
     1
  0
VERTEX
  5
20A9
  8
0
 10
178.5753582320275
 20
102.3032674423871
 30
0.0
  0
SEQEND
  5
20AA
  8
0
  0
LINE
  5
20AB
  8
0
 10
177.56395771336389
 20
101.3032674423871
 30
0.0
 11
177.56279462490741
 21
111.56509075176
 31
0.0
  0
LINE
  5
20AC
  8
0
 10
193.56395551784911
 20
111.5692635005925
 30
0.0
 11
193.563957713364
 21
101.3032674423871
 31
0.0
  0
LINE
  5
20AD
  8
0
 10
177.56395771336389
 20
101.3032674423871
 30
0.0
 11
178.06395771336409
 21
100.8032674423871
 31
0.0
  0
LINE
  5
20AE
  8
0
 10
193.06395771336389
 20
100.8032674423871
 30
0.0
 11
193.563957713364
 21
101.3032674423871
 31
0.0
  0
LINE
  5
20AF
  8
0
 10
182.313957713364
 20
100.2032674423871
 30
0.0
 11
182.313957713364
 21
99.553267442387167
 31
0.0
  0
LINE
  5
20B0
  8
0
 10
188.813957713364
 20
100.2032674423871
 30
0.0
 11
188.81395771336389
 21
99.553267442387167
 31
0.0
  0
POLYLINE
  5
20B1
  8
0
 66
     1
 10
0.0
 20
0.0
 30
0.0
 70
   130
  0
VERTEX
  5
20B2
  8
0
 10
186.50034020369691
 20
110.9259436216032
 30
0.0
 42
-0.0022598259156558
  0
VERTEX
  5
20B3
  8
0
 10
186.46810208594849
 20
110.3947590094035
 30
0.0
 42
-0.0022598259156697
 70
     1
  0
VERTEX
  5
20B4
  8
0
 10
186.4310638198094
 20
109.8638875039349
 30
0.0
 42
-0.0022598042680744
  0
VERTEX
  5
20B5
  8
0
 10
186.38922885532779
 20
109.3333775618562
 30
0.0
 42
-0.0022598042681035
 70
     1
  0
VERTEX
  5
20B6
  8
0
 10
186.3426002788824
 20
108.8032674423871
 30
0.0
  0
SEQEND
  5
20B7
  8
0
  0
POLYLINE
  5
20B8
  8
0
 66
     1
 10
0.0
 20
0.0
 30
0.0
 70
   130
  0
VERTEX
  5
20B9
  8
0
 10
184.6275752230309
 20
110.9259436216032
 30
0.0
 42
0.0022598259156558
  0
VERTEX
  5
20BA
  8
0
 10
184.65981334077929
 20
110.3947590094035
 30
0.0
 42
0.0022598259156697
 70
     1
  0
VERTEX
  5
20BB
  8
0
 10
184.69685160691839
 20
109.8638875039349
 30
0.0
 42
0.0022598042680744
  0
VERTEX
  5
20BC
  8
0
 10
184.73868657140011
 20
109.3333775618562
 30
0.0
 42
0.0022598042681035
 70
     1
  0
VERTEX
  5
20BD
  8
0
 10
184.78531514784549
 20
108.8032674423871
 30
0.0
  0
SEQEND
  5
20BE
  8
0
  0
POLYLINE
  5
20BF
  8
0
 66
     1
 10
0.0
 20
0.0
 30
0.0
 70
   130
  0
VERTEX
  5
20C0
  8
0
 10
184.62757522303011
 20
110.9259436216024
 30
0.0
 42
-0.0208293399384432
  0
VERTEX
  5
20C1
  8
0
 10
184.7974490394931
 20
111.0788364222711
 30
0.0
 42
-0.0319892246745991
 70
     1
  0
VERTEX
  5
20C2
  8
0
 10
184.918009040805
 20
111.1662274001704
 30
0.0
 42
-0.0104077793225894
  0
VERTEX
  5
20C3
  8
0
 10
185.15986258252809
 20
111.3120098836518
 30
0.0
 42
-0.0272284278636712
 70
     1
  0
VERTEX
  5
20C4
  8
0
 10
185.25629759507891
 20
111.36065599139469
 30
0.0
 42
-0.0529893423289036
  0
VERTEX
  5
20C5
  8
0
 10
185.4031165938772
 20
111.4071805757124
 30
0.0
 42
-0.0504786058427129
 70
     1
  0
VERTEX
  5
20C6
  8
0
 10
185.5639398345524
 20
111.42333662786869
 30
0.0
 42
-0.0540159234906013
  0
VERTEX
  5
20C7
  8
0
 10
185.73802443951089
 20
111.4043429721583
 30
0.0
 42
-0.055893498799797
 70
     1
  0
VERTEX
  5
20C8
  8
0
 10
185.8982554394797
 20
111.3497687314935
 30
0.0
 42
-0.0227012585195097
  0
VERTEX
  5
20C9
  8
0
 10
185.98756288530041
 20
111.30266653054601
 30
0.0
 42
-0.0089447654727693
 70
     1
  0
VERTEX
  5
20CA
  8
0
 10
186.2061107349401
 20
111.1690873932266
 30
0.0
 42
-0.0310362815361638
  0
VERTEX
  5
20CB
  8
0
 10
186.32969110376609
 20
111.0792544953913
 30
0.0
 42
-0.0206589846573555
 70
     1
  0
VERTEX
  5
20CC
  8
0
 10
186.50034020369799
 20
110.9259436216024
 30
0.0
  0
SEQEND
  5
20CD
  8
0
  0
POLYLINE
  5
20CE
  8
0
 66
     1
 10
0.0
 20
0.0
 30
0.0
 70
   130
  0
VERTEX
  5
20CF
  8
0
 10
189.56395771336389
 20
109.3032674423871
 30
0.0
 42
-0.0985066166298157
  0
VERTEX
  5
20D0
  8
0
 10
189.5258910949922
 20
109.1119013258003
 30
0.0
 42
-0.0985066166298374
 70
     1
  0
VERTEX
  5
20D1
  8
0
 10
189.41747970582639
 20
108.9496760851289
 30
0.0
 42
-0.0984818540043855
  0
VERTEX
  5
20D2
  8
0
 10
189.25527851500249
 20
108.8413152912883
 30
0.0
 42
-0.0984818540043267
 70
     1
  0
VERTEX
  5
20D3
  8
0
 10
189.06395771336179
 20
108.8032674423871
 30
0.0
  0
SEQEND
  5
20D4
  8
0
  0
POLYLINE
  5
20D5
  8
0
 66
     1
 10
0.0
 20
0.0
 30
0.0
 70
   130
  0
VERTEX
  5
20D6
  8
0
 10
181.56395771336389
 20
109.3032674423871
 30
0.0
 42
0.0985066166298157
  0
VERTEX
  5
20D7
  8
0
 10
181.60202433173569
 20
109.1119013258003
 30
0.0
 42
0.0985066166298374
 70
     1
  0
VERTEX
  5
20D8
  8
0
 10
181.7104357209015
 20
108.9496760851289
 30
0.0
 42
0.0984818540043855
  0
VERTEX
  5
20D9
  8
0
 10
181.87263691172541
 20
108.8413152912883
 30
0.0
 42
0.0984818540043267
 70
     1
  0
VERTEX
  5
20DA
  8
0
 10
182.06395771336611
 20
108.8032674423871
 30
0.0
  0
SEQEND
  5
20DB
  8
0
  0
POLYLINE
  5
20DC
  8
0
 66
     1
 10
0.0
 20
0.0
 30
0.0
 70
   128
  0
VERTEX
  5
256E
  8
0
 10
181.56395771336389
 20
118.3032674423871
 30
0.0
  0
VERTEX
  5
256F
  8
0
 10
181.5735650731624
 20
118.3444918087736
 30
0.0
  0
VERTEX
  5
2570
  8
0
 10
181.60201794710841
 20
118.38413194587871
 30
0.0
  0
VERTEX
  5
2571
  8
0
 10
181.6482229072127
 20
118.420664505464
 30
0.0
  0
VERTEX
  5
2572
  8
0
 10
181.7104043227707
 20
118.4526855617522
 30
0.0
  0
VERTEX
  5
2573
  8
0
 10
181.7861725968541
 20
118.4789645635079
 30
0.0
  0
VERTEX
  5
2574
  8
0
 10
181.8726159971815
 20
118.49849162343099
 30
0.0
  0
VERTEX
  5
2575
  8
0
 10
181.96641255235591
 20
118.5105163275596
 30
0.0
  0
VERTEX
  5
2576
  8
0
 10
182.06395771336389
 20
118.5145765732575
 30
0.0
  0
SEQEND
  5
2577
  8
0
  0
POLYLINE
  5
20DD
  8
0
 66
     1
 10
0.0
 20
0.0
 30
0.0
 70
   128
  0
VERTEX
  5
2578
  8
0
 10
189.56395771336389
 20
118.3032674423871
 30
0.0
  0
VERTEX
  5
2579
  8
0
 10
189.55435035356561
 20
118.3444918087736
 30
0.0
  0
VERTEX
  5
257A
  8
0
 10
189.5258974796196
 20
118.38413194587871
 30
0.0
  0
VERTEX
  5
257B
  8
0
 10
189.4796925195152
 20
118.420664505464
 30
0.0
  0
VERTEX
  5
257C
  8
0
 10
189.4175111039572
 20
118.4526855617522
 30
0.0
  0
VERTEX
  5
257D
  8
0
 10
189.34174282987379
 20
118.4789645635079
 30
0.0
  0
VERTEX
  5
257E
  8
0
 10
189.25529942954651
 20
118.49849162343099
 30
0.0
  0
VERTEX
  5
257F
  8
0
 10
189.1615028743721
 20
118.5105163275596
 30
0.0
  0
VERTEX
  5
2580
  8
0
 10
189.06395771336389
 20
118.5145765732575
 30
0.0
  0
SEQEND
  5
2581
  8
0
  0
LINE
  5
20DE
  8
0
 10
181.56395771336389
 20
118.30326744238771
 30
0.0
 11
181.5745077787619
 21
118.3563062028074
 31
0.0
  0
LINE
  5
20DF
  8
0
 10
182.06415689173579
 20
122.0974960764471
 30
0.0
 11
181.5745077787619
 21
118.3563062028074
 31
0.0
  0
LINE
  5
20E0
  8
0
 10
189.56395771336389
 20
118.30326744238771
 30
0.0
 11
189.55340764796591
 21
118.3563062028074
 31
0.0
  0
LINE
  5
20E1
  8
0
 10
189.0637585349921
 20
122.0974960764471
 30
0.0
 11
189.55340764796591
 21
118.3563062028074
 31
0.0
  0
POLYLINE
  5
20E2
  8
0
 66
     1
 10
0.0
 20
0.0
 30
0.0
 70
   130
  0
VERTEX
  5
20E3
  8
0
 10
180.1507507576955
 20
136.33362847144059
 30
0.0
 42
-0.0178950750983812
  0
VERTEX
  5
20E4
  8
0
 10
180.17260145642339
 20
136.6804039084445
 30
0.0
 42
-0.0286273499740564
 70
     1
  0
VERTEX
  5
20E5
  8
0
 10
180.2063543145926
 20
136.8950757075263
 30
0.0
 42
-0.0050943916156338
  0
VERTEX
  5
20E6
  8
0
 10
180.27967766757129
 20
137.2178411562289
 30
0.0
 42
-0.0100374808261877
 70
     1
  0
VERTEX
  5
20E7
  8
0
 10
180.32183487056511
 20
137.38046763197039
 30
0.0
 42
-0.0407610015082832
  0
VERTEX
  5
20E8
  8
0
 10
180.4867351362436
 20
137.82502997410359
 30
0.0
 42
-0.0363489645475892
 70
     1
  0
VERTEX
  5
20E9
  8
0
 10
180.74591033846909
 20
138.2890941585793
 30
0.0
 42
-0.0321305156738618
  0
VERTEX
  5
20EA
  8
0
 10
181.00576720330329
 20
138.63359806761159
 30
0.0
 42
-0.0312844819054787
 70
     1
  0
VERTEX
  5
20EB
  8
0
 10
181.31523254573591
 20
138.95081444049171
 30
0.0
 42
-0.0203412811473572
  0
VERTEX
  5
20EC
  8
0
 10
181.6324149646679
 20
139.21502678446049
 30
0.0
 42
-0.0190455502100985
 70
     1
  0
VERTEX
  5
20ED
  8
0
 10
181.99231083040669
 20
139.4696720822343
 30
0.0
 42
-0.0262661649769893
  0
VERTEX
  5
20EE
  8
0
 10
182.51401663879
 20
139.77197315067011
 30
0.0
 42
-0.0225648450151967
 70
     1
  0
VERTEX
  5
20EF
  8
0
 10
183.15259461427081
 20
140.06292992877431
 30
0.0
 42
-0.0239287369945905
  0
VERTEX
  5
20F0
  8
0
 10
183.79450868301359
 20
140.28607536655039
 30
0.0
 42
-0.0253660646847291
 70
     1
  0
VERTEX
  5
20F1
  8
0
 10
184.4178699648491
 20
140.43597412636089
 30
0.0
 42
-0.0221196766123628
  0
VERTEX
  5
20F2
  8
0
 10
185.02410102261501
 20
140.5220450721911
 30
0.0
 42
-0.0251007734155876
 70
     1
  0
VERTEX
  5
20F3
  8
0
 10
185.56318027527541
 20
140.54719051770979
 30
0.0
 42
-0.0213984047554803
  0
VERTEX
  5
20F4
  8
0
 10
186.1046918360407
 20
140.52206266928121
 30
0.0
 42
-0.022359168189611
 70
     1
  0
VERTEX
  5
20F5
  8
0
 10
186.6188722528934
 20
140.45281461909011
 30
0.0
 42
-0.0215735075309176
  0
VERTEX
  5
20F6
  8
0
 10
187.21525545287111
 20
140.31837283842819
 30
0.0
 42
-0.022424693793239
 70
     1
  0
VERTEX
  5
20F7
  8
0
 10
187.7754383402941
 20
140.13911337283071
 30
0.0
 42
-0.0171966213957185
  0
VERTEX
  5
20F8
  8
0
 10
188.3130821036213
 20
139.91878055763061
 30
0.0
 42
-0.0209591204932744
 70
     1
  0
VERTEX
  5
20F9
  8
0
 10
188.73920736561621
 20
139.70487003832221
 30
0.0
 42
-0.0172077917528207
  0
VERTEX
  5
20FA
  8
0
 10
189.19777071774979
 20
139.4290187451308
 30
0.0
 42
-0.0230912613317962
 70
     1
  0
VERTEX
  5
20FB
  8
0
 10
189.5219156112253
 20
139.19655557983819
 30
0.0
 42
-0.0137483033987857
  0
VERTEX
  5
20FC
  8
0
 10
189.76779152621251
 20
138.99120868253181
 30
0.0
 42
-0.0178165532904101
 70
     1
  0
VERTEX
  5
20FD
  8
0
 10
189.94717314717471
 20
138.8210759066632
 30
0.0
 42
-0.0196003962261807
  0
VERTEX
  5
20FE
  8
0
 10
190.16475914859299
 20
138.58135292398691
 30
0.0
 42
-0.0232170399500989
 70
     1
  0
VERTEX
  5
20FF
  8
0
 10
190.33049642021629
 20
138.36397188578599
 30
0.0
 42
-0.0153290258246628
  0
VERTEX
  5
2100
  8
0
 10
190.47118514576209
 20
138.14655392876799
 30
0.0
 42
-0.0210104451683982
 70
     1
  0
VERTEX
  5
2101
  8
0
 10
190.56206089978639
 20
137.98085957814979
 30
0.0
 42
-0.0119133194925795
  0
VERTEX
  5
2102
  8
0
 10
190.66958860714669
 20
137.7499541078916
 30
0.0
 42
-0.0192543053097099
 70
     1
  0
VERTEX
  5
2103
  8
0
 10
190.72710457030851
 20
137.6031844281996
 30
0.0
 42
-0.0044462030159694
  0
VERTEX
  5
2104
  8
0
 10
190.78399993238389
 20
137.43493547015029
 30
0.0
 42
-0.0097259625750603
 70
     1
  0
VERTEX
  5
2105
  8
0
 10
190.80782111021699
 20
137.35730879523271
 30
0.0
 42
-0.0023642230117169
  0
VERTEX
  5
2106
  8
0
 10
190.8143334423153
 20
137.3341003249993
 30
0.0
 42
-0.0004247995834815
 70
     1
  0
VERTEX
  5
2107
  8
0
 10
190.84985659152611
 20
137.20473407079959
 30
0.0
 42
-0.0089858400980263
  0
VERTEX
  5
2108
  8
0
 10
190.86366866636121
 20
137.15045314697409
 30
0.0
 42
-0.0047571458007101
 70
     1
  0
VERTEX
  5
2109
  8
0
 10
190.8869295042291
 20
137.04724886550511
 30
0.0
  0
SEQEND
  5
210A
  8
0
  0
POLYLINE
  5
210B
  8
0
 66
     1
 10
0.0
 20
0.0
 30
0.0
 70
   130
  0
VERTEX
  5
210C
  8
0
 10
121.0774547782095
 20
140.28402955592031
 30
0.0
 42
-0.0260174760952347
  0
VERTEX
  5
210D
  8
0
 10
121.42329182693641
 20
139.95704304254099
 30
0.0
 42
-0.0405364922315183
 70
     1
  0
VERTEX
  5
210E
  8
0
 10
121.61564245767271
 20
139.7193531724933
 30
0.0
 42
-0.0051997311749137
  0
VERTEX
  5
210F
  8
0
 10
121.87321549240789
 20
139.33376726118601
 30
0.0
 42
-0.0188834177432585
 70
     1
  0
VERTEX
  5
2110
  8
0
 10
121.9389685470166
 20
139.2242649442195
 30
0.0
 42
-0.0238411914656797
  0
VERTEX
  5
2111
  8
0
 10
122.0720283807464
 20
138.9525182814063
 30
0.0
 42
-0.0213596460735427
 70
     1
  0
VERTEX
  5
2112
  8
0
 10
122.1925487917951
 20
138.63706809511311
 30
0.0
 42
-0.0320877846426047
  0
VERTEX
  5
2113
  8
0
 10
122.27508127178891
 20
138.3244032949269
 30
0.0
 42
-0.0244483189770967
 70
     1
  0
VERTEX
  5
2114
  8
0
 10
122.33639615092549
 20
137.90462043064889
 30
0.0
 42
-0.0306383875191013
  0
VERTEX
  5
2115
  8
0
 10
122.34667697993321
 20
137.61010279155559
 30
0.0
 42
-0.020566168487672
 70
     1
  0
VERTEX
  5
2116
  8
0
 10
122.3170845674333
 20
137.1723039912363
 30
0.0
 42
-0.0479692964477977
  0
VERTEX
  5
2117
  8
0
 10
122.1578070733287
 20
136.40426162014569
 30
0.0
 42
-0.0403066613974356
 70
     1
  0
VERTEX
  5
2118
  8
0
 10
121.81099106039029
 20
135.5382541056826
 30
0.0
 42
-0.014410542380097
  0
VERTEX
  5
2119
  8
0
 10
121.3941329176434
 20
134.75730144155131
 30
0.0
 42
-0.0202175667232297
 70
     1
  0
VERTEX
  5
211A
  8
0
 10
121.05913638634659
 20
134.22244493420959
 30
0.0
 42
-0.0072547363504253
  0
VERTEX
  5
211B
  8
0
 10
120.44762878268109
 20
133.3558313846379
 30
0.0
 42
-0.0138360826564165
 70
     1
  0
VERTEX
  5
211C
  8
0
 10
120.10807172536509
 20
132.91529919719261
 30
0.0
 42
-0.0044534457479212
  0
VERTEX
  5
211D
  8
0
 10
119.2895935317255
 20
131.9301491256966
 30
0.0
 42
-0.0032905035902546
 70
     1
  0
VERTEX
  5
211E
  8
0
 10
118.161339238162
 20
130.61415128090241
 30
0.0
 42
-0.00308670861075
  0
VERTEX
  5
211F
  8
0
 10
117.23734861648209
 20
129.56381888137909
 30
0.0
 42
0.0035087957170319
 70
     1
  0
VERTEX
  5
2120
  8
0
 10
116.425286555361
 20
128.63914676188219
 30
0.0
 42
0.0073308728362567
  0
VERTEX
  5
2121
  8
0
 10
115.71897409145321
 20
127.79882733942399
 30
0.0
 42
0.0057650782619291
 70
     1
  0
VERTEX
  5
2122
  8
0
 10
114.84913686870669
 20
126.70714500093401
 30
0.0
 42
0.0138633922852507
  0
VERTEX
  5
2123
  8
0
 10
114.3536589920953
 20
126.03258916751339
 30
0.0
 42
0.0107756789154597
 70
     1
  0
VERTEX
  5
2124
  8
0
 10
113.7597697657625
 20
125.1344664644506
 30
0.0
 42
0.0180958353073986
  0
VERTEX
  5
2125
  8
0
 10
113.31337568595811
 20
124.3664601623544
 30
0.0
 42
0.019684804526089
 70
     1
  0
VERTEX
  5
2126
  8
0
 10
112.9574541762217
 20
123.63144353350999
 30
0.0
 42
0.017405234663355
  0
VERTEX
  5
2127
  8
0
 10
112.6722550818845
 20
122.91068006106489
 30
0.0
 42
0.0267500446484336
 70
     1
  0
VERTEX
  5
2128
  8
0
 10
112.5287044591489
 20
122.42697080238921
 30
0.0
 42
0.007311021796377
  0
VERTEX
  5
2129
  8
0
 10
112.4322312297885
 20
121.9963266217223
 30
0.0
 42
0.0094211780144765
 70
     1
  0
VERTEX
  5
212A
  8
0
 10
112.3685868046059
 20
121.6598085872094
 30
0.0
 42
0.007098918668088
  0
VERTEX
  5
212B
  8
0
 10
112.32509572886509
 20
121.3794116189942
 30
0.0
 42
0.0073682890846559
 70
     1
  0
VERTEX
  5
212C
  8
0
 10
112.29102730334
 20
121.108165242475
 30
0.0
 42
0.0287572415143064
  0
VERTEX
  5
212D
  8
0
 10
112.2737916087258
 20
120.78147925296619
 30
0.0
 42
0.0350659060655439
 70
     1
  0
VERTEX
  5
212E
  8
0
 10
112.29387313734949
 20
120.5138387161917
 30
0.0
 42
0.0258006074477238
  0
VERTEX
  5
212F
  8
0
 10
112.3437850365051
 20
120.26322207915079
 30
0.0
 42
0.0278352249228121
 70
     1
  0
VERTEX
  5
2130
  8
0
 10
112.4146557960908
 20
120.0371863312692
 30
0.0
 42
0.0043231994965047
  0
VERTEX
  5
2131
  8
0
 10
112.4814037022967
 20
119.8641371031794
 30
0.0
 42
0.0122057754868564
 70
     1
  0
VERTEX
  5
2132
  8
0
 10
112.5070615341331
 20
119.8036512662909
 30
0.0
 42
0.0061731589217804
  0
VERTEX
  5
2133
  8
0
 10
112.62070001758531
 20
119.56097573338459
 30
0.0
 42
0.0065361948195965
 70
     1
  0
VERTEX
  5
2134
  8
0
 10
112.7338177793182
 20
119.3345797490777
 30
0.0
 42
0.003636076363255
  0
VERTEX
  5
2135
  8
0
 10
112.85792341220591
 20
119.0983381267752
 30
0.0
 42
-0.0066549702475199
 70
     1
  0
VERTEX
  5
2136
  8
0
 10
112.9249525546702
 20
118.9688517178423
 30
0.0
 42
-0.0003285469264194
  0
VERTEX
  5
2137
  8
0
 10
112.95330987922191
 20
118.9121450529848
 30
0.0
 42
0.0000965950417568
 70
     1
  0
VERTEX
  5
2138
  8
0
 10
113.0496716314741
 20
118.7192250098735
 30
0.0
 42
0.0006603182246833
  0
VERTEX
  5
2139
  8
0
 10
113.0680490778976
 20
118.6825715420532
 30
0.0
 42
0.0004081356428519
 70
     1
  0
VERTEX
  5
213A
  8
0
 10
113.15322350571429
 20
118.5135949567165
 30
0.0
  0
SEQEND
  5
213B
  8
0
  0
POLYLINE
  5
213C
  8
0
 66
     1
 10
0.0
 20
0.0
 30
0.0
 70
   130
  0
VERTEX
  5
213D
  8
0
 10
113.8716833437998
 20
109.30326790432311
 30
0.0
 42
0.0258950765845872
  0
VERTEX
  5
213E
  8
0
 10
113.8761850130454
 20
109.2041546165478
 30
0.0
 42
0.0385153289718809
 70
     1
  0
VERTEX
  5
213F
  8
0
 10
113.8877531893536
 20
109.1384046334889
 30
0.0
 42
0.0038435055963226
  0
VERTEX
  5
2140
  8
0
 10
113.9105231598366
 20
109.0524084214826
 30
0.0
 42
0.0208282300020744
 70
     1
  0
VERTEX
  5
2141
  8
0
 10
113.9155045817491
 20
109.03675922028469
 30
0.0
 42
0.0187353825974413
  0
VERTEX
  5
2142
  8
0
 10
113.9375897405767
 20
108.982614901887
 30
0.0
 42
0.0248277815606132
 70
     1
  0
VERTEX
  5
2143
  8
0
 10
113.95775237238961
 20
108.9433513213545
 30
0.0
 42
0.0143040438792272
  0
VERTEX
  5
2144
  8
0
 10
113.9754712299265
 20
108.9146226769069
 30
0.0
 42
0.018541616738333
 70
     1
  0
VERTEX
  5
2145
  8
0
 10
113.99056789935889
 20
108.8934018550507
 30
0.0
 42
0.0206027559994289
  0
VERTEX
  5
2146
  8
0
 10
114.0103125136573
 20
108.8697987819869
 30
0.0
 42
0.0239348581740319
 70
     1
  0
VERTEX
  5
2147
  8
0
 10
114.0290508535619
 20
108.851071021116
 30
0.0
 42
0.02154462518328
  0
VERTEX
  5
2148
  8
0
 10
114.0439690964853
 20
108.8386534435824
 30
0.0
 42
0.0205765329968415
 70
     1
  0
VERTEX
  5
2149
  8
0
 10
114.0606270077776
 20
108.8270123335913
 30
0.0
 42
0.0303684984214643
  0
VERTEX
  5
214A
  8
0
 10
114.0693752057426
 20
108.8221410131857
 30
0.0
 42
0.0106899299321644
 70
     1
  0
VERTEX
  5
214B
  8
0
 10
114.0952577627347
 20
108.81039643569081
 30
0.0
 42
0.0591554165651951
  0
VERTEX
  5
214C
  8
0
 10
114.11098386697149
 20
108.805764682084
 30
0.0
 42
0.0367084982551793
 70
     1
  0
VERTEX
  5
214D
  8
0
 10
114.137227466963
 20
108.8032674423871
 30
0.0
  0
SEQEND
  5
214E
  8
0
  0
LINE
  5
214F
  8
0
 10
114.9434805619736
 20
108.80326782236671
 30
0.0
 11
114.9434805619736
 21
107.803267658454
 31
0.0
  0
LINE
  5
2150
  8
0
 10
114.9434805619736
 20
102.3032674554256
 30
0.0
 11
114.9434805619736
 21
101.30326746613579
 31
0.0
  0
LINE
  5
2151
  8
0
 10
114.6434801402707
 20
107.803267658454
 30
0.0
 11
114.6434801402707
 21
102.3032674554256
 31
0.0
  0
ARC
  5
2152
  8
0
 10
110.8562478372988
 20
104.8703776668435
 30
0.0
 40
2.3190218636936568
 50
179.1873687391417
 51
272.32493406759238
  0
ARC
  5
2153
  8
0
 10
110.8562480286747
 20
105.2361547878085
 30
0.0
 40
2.3190218636936568
 50
87.675005977692933
 51
180.81257130614449
  0
POLYLINE
  5
2154
  8
0
 10
110.83699762376186
 20
107.80326765845392
 30
0.0
 66
     1
 70
     8
  0
VERTEX
  8
0
  5
270B
 10
110.837
 20
107.803
 30
0.000000
  70
    32
  0
VERTEX
  8
0
  5
270C
 10
110.774
 20
107.802
 30
0.000000
  70
    32
  0
VERTEX
  8
0
  5
270D
 10
110.710
 20
107.800
 30
0.000000
  70
    32
  0
VERTEX
  8
0
  5
270E
 10
110.647
 20
107.796
 30
0.000000
  70
    32
  0
VERTEX
  8
0
  5
270F
 10
110.584
 20
107.790
 30
0.000000
  70
    32
  0
VERTEX
  8
0
  5
2710
 10
110.521
 20
107.783
 30
0.000000
  70
    32
  0
VERTEX
  8
0
  5
2711
 10
110.458
 20
107.774
 30
0.000000
  70
    32
  0
VERTEX
  8
0
  5
2712
 10
110.395
 20
107.763
 30
0.000000
  70
    32
  0
VERTEX
  8
0
  5
2713
 10
110.333
 20
107.750
 30
0.000000
  70
    32
  0
VERTEX
  8
0
  5
2714
 10
110.271
 20
107.736
 30
0.000000
  70
    32
  0
VERTEX
  8
0
  5
2715
 10
110.209
 20
107.721
 30
0.000000
  70
    32
  0
VERTEX
  8
0
  5
2716
 10
110.148
 20
107.704
 30
0.000000
  70
    32
  0
VERTEX
  8
0
  5
2717
 10
110.087
 20
107.685
 30
0.000000
  70
    32
  0
VERTEX
  8
0
  5
2718
 10
110.027
 20
107.664
 30
0.000000
  70
    32
  0
VERTEX
  8
0
  5
2719
 10
109.967
 20
107.643
 30
0.000000
  70
    32
  0
VERTEX
  8
0
  5
271A
 10
109.907
 20
107.619
 30
0.000000
  70
    32
  0
VERTEX
  8
0
  5
271B
 10
109.848
 20
107.594
 30
0.000000
  70
    32
  0
VERTEX
  8
0
  5
271C
 10
109.790
 20
107.567
 30
0.000000
  70
    32
  0
VERTEX
  8
0
  5
271D
 10
109.733
 20
107.539
 30
0.000000
  70
    32
  0
VERTEX
  8
0
  5
271E
 10
109.676
 20
107.510
 30
0.000000
  70
    32
  0
VERTEX
  8
0
  5
271F
 10
109.619
 20
107.479
 30
0.000000
  70
    32
  0
VERTEX
  8
0
  5
2720
 10
109.564
 20
107.446
 30
0.000000
  70
    32
  0
VERTEX
  8
0
  5
2721
 10
109.509
 20
107.412
 30
0.000000
  70
    32
  0
VERTEX
  8
0
  5
2722
 10
109.455
 20
107.377
 30
0.000000
  70
    32
  0
VERTEX
  8
0
  5
2723
 10
109.402
 20
107.340
 30
0.000000
  70
    32
  0
VERTEX
  8
0
  5
2724
 10
109.350
 20
107.302
 30
0.000000
  70
    32
  0
VERTEX
  8
0
  5
2725
 10
109.298
 20
107.262
 30
0.000000
  70
    32
  0
VERTEX
  8
0
  5
2726
 10
109.248
 20
107.221
 30
0.000000
  70
    32
  0
VERTEX
  8
0
  5
2727
 10
109.198
 20
107.179
 30
0.000000
  70
    32
  0
VERTEX
  8
0
  5
2728
 10
109.150
 20
107.136
 30
0.000000
  70
    32
  0
VERTEX
  8
0
  5
2729
 10
109.102
 20
107.091
 30
0.000000
  70
    32
  0
VERTEX
  8
0
  5
272A
 10
109.056
 20
107.045
 30
0.000000
  70
    32
  0
VERTEX
  8
0
  5
272B
 10
109.010
 20
106.998
 30
0.000000
  70
    32
  0
VERTEX
  8
0
  5
272C
 10
108.966
 20
106.949
 30
0.000000
  70
    32
  0
VERTEX
  8
0
  5
272D
 10
108.923
 20
106.900
 30
0.000000
  70
    32
  0
VERTEX
  8
0
  5
272E
 10
108.881
 20
106.849
 30
0.000000
  70
    32
  0
VERTEX
  8
0
  5
272F
 10
108.840
 20
106.798
 30
0.000000
  70
    32
  0
VERTEX
  8
0
  5
2730
 10
108.801
 20
106.745
 30
0.000000
  70
    32
  0
VERTEX
  8
0
  5
2731
 10
108.762
 20
106.691
 30
0.000000
  70
    32
  0
VERTEX
  8
0
  5
2732
 10
108.725
 20
106.637
 30
0.000000
  70
    32
  0
VERTEX
  8
0
  5
2733
 10
108.689
 20
106.581
 30
0.000000
  70
    32
  0
VERTEX
  8
0
  5
2734
 10
108.655
 20
106.524
 30
0.000000
  70
    32
  0
VERTEX
  8
0
  5
2735
 10
108.621
 20
106.467
 30
0.000000
  70
    32
  0
VERTEX
  8
0
  5
2736
 10
108.590
 20
106.409
 30
0.000000
  70
    32
  0
VERTEX
  8
0
  5
2737
 10
108.559
 20
106.350
 30
0.000000
  70
    32
  0
VERTEX
  8
0
  5
2738
 10
108.530
 20
106.290
 30
0.000000
  70
    32
  0
VERTEX
  8
0
  5
2739
 10
108.502
 20
106.229
 30
0.000000
  70
    32
  0
VERTEX
  8
0
  5
273A
 10
108.476
 20
106.168
 30
0.000000
  70
    32
  0
VERTEX
  8
0
  5
273B
 10
108.451
 20
106.106
 30
0.000000
  70
    32
  0
VERTEX
  8
0
  5
273C
 10
108.427
 20
106.043
 30
0.000000
  70
    32
  0
VERTEX
  8
0
  5
273D
 10
108.405
 20
105.980
 30
0.000000
  70
    32
  0
VERTEX
  8
0
  5
273E
 10
108.384
 20
105.916
 30
0.000000
  70
    32
  0
VERTEX
  8
0
  5
273F
 10
108.365
 20
105.851
 30
0.000000
  70
    32
  0
VERTEX
  8
0
  5
2740
 10
108.348
 20
105.787
 30
0.000000
  70
    32
  0
VERTEX
  8
0
  5
2741
 10
108.331
 20
105.721
 30
0.000000
  70
    32
  0
VERTEX
  8
0
  5
2742
 10
108.317
 20
105.656
 30
0.000000
  70
    32
  0
VERTEX
  8
0
  5
2743
 10
108.304
 20
105.590
 30
0.000000
  70
    32
  0
VERTEX
  8
0
  5
2744
 10
108.292
 20
105.523
 30
0.000000
  70
    32
  0
VERTEX
  8
0
  5
2745
 10
108.282
 20
105.457
 30
0.000000
  70
    32
  0
VERTEX
  8
0
  5
2746
 10
108.273
 20
105.390
 30
0.000000
  70
    32
  0
VERTEX
  8
0
  5
2747
 10
108.266
 20
105.323
 30
0.000000
  70
    32
  0
VERTEX
  8
0
  5
2748
 10
108.261
 20
105.255
 30
0.000000
  70
    32
  0
VERTEX
  8
0
  5
2749
 10
108.257
 20
105.188
 30
0.000000
  70
    32
  0
VERTEX
  8
0
  5
274A
 10
108.255
 20
105.121
 30
0.000000
  70
    32
  0
VERTEX
  8
0
  5
274B
 10
108.254
 20
105.053
 30
0.000000
  70
    32
  0
VERTEX
  8
0
  5
274C
 10
108.255
 20
104.986
 30
0.000000
  70
    32
  0
VERTEX
  8
0
  5
274D
 10
108.257
 20
104.918
 30
0.000000
  70
    32
  0
VERTEX
  8
0
  5
274E
 10
108.261
 20
104.851
 30
0.000000
  70
    32
  0
VERTEX
  8
0
  5
274F
 10
108.266
 20
104.784
 30
0.000000
  70
    32
  0
VERTEX
  8
0
  5
2750
 10
108.273
 20
104.716
 30
0.000000
  70
    32
  0
VERTEX
  8
0
  5
2751
 10
108.282
 20
104.650
 30
0.000000
  70
    32
  0
VERTEX
  8
0
  5
2752
 10
108.292
 20
104.583
 30
0.000000
  70
    32
  0
VERTEX
  8
0
  5
2753
 10
108.304
 20
104.517
 30
0.000000
  70
    32
  0
VERTEX
  8
0
  5
2754
 10
108.317
 20
104.451
 30
0.000000
  70
    32
  0
VERTEX
  8
0
  5
2755
 10
108.331
 20
104.385
 30
0.000000
  70
    32
  0
VERTEX
  8
0
  5
2756
 10
108.348
 20
104.320
 30
0.000000
  70
    32
  0
VERTEX
  8
0
  5
2757
 10
108.365
 20
104.255
 30
0.000000
  70
    32
  0
VERTEX
  8
0
  5
2758
 10
108.384
 20
104.190
 30
0.000000
  70
    32
  0
VERTEX
  8
0
  5
2759
 10
108.405
 20
104.127
 30
0.000000
  70
    32
  0
VERTEX
  8
0
  5
275A
 10
108.427
 20
104.063
 30
0.000000
  70
    32
  0
VERTEX
  8
0
  5
275B
 10
108.451
 20
104.001
 30
0.000000
  70
    32
  0
VERTEX
  8
0
  5
275C
 10
108.476
 20
103.939
 30
0.000000
  70
    32
  0
VERTEX
  8
0
  5
275D
 10
108.502
 20
103.877
 30
0.000000
  70
    32
  0
VERTEX
  8
0
  5
275E
 10
108.530
 20
103.817
 30
0.000000
  70
    32
  0
VERTEX
  8
0
  5
275F
 10
108.559
 20
103.757
 30
0.000000
  70
    32
  0
VERTEX
  8
0
  5
2760
 10
108.590
 20
103.698
 30
0.000000
  70
    32
  0
VERTEX
  8
0
  5
2761
 10
108.622
 20
103.639
 30
0.000000
  70
    32
  0
VERTEX
  8
0
  5
2762
 10
108.655
 20
103.582
 30
0.000000
  70
    32
  0
VERTEX
  8
0
  5
2763
 10
108.689
 20
103.525
 30
0.000000
  70
    32
  0
VERTEX
  8
0
  5
2764
 10
108.725
 20
103.470
 30
0.000000
  70
    32
  0
VERTEX
  8
0
  5
2765
 10
108.762
 20
103.415
 30
0.000000
  70
    32
  0
VERTEX
  8
0
  5
2766
 10
108.801
 20
103.361
 30
0.000000
  70
    32
  0
VERTEX
  8
0
  5
2767
 10
108.840
 20
103.309
 30
0.000000
  70
    32
  0
VERTEX
  8
0
  5
2768
 10
108.881
 20
103.257
 30
0.000000
  70
    32
  0
VERTEX
  8
0
  5
2769
 10
108.923
 20
103.206
 30
0.000000
  70
    32
  0
VERTEX
  8
0
  5
276A
 10
108.966
 20
103.157
 30
0.000000
  70
    32
  0
VERTEX
  8
0
  5
276B
 10
109.011
 20
103.109
 30
0.000000
  70
    32
  0
VERTEX
  8
0
  5
276C
 10
109.056
 20
103.061
 30
0.000000
  70
    32
  0
VERTEX
  8
0
  5
276D
 10
109.102
 20
103.016
 30
0.000000
  70
    32
  0
VERTEX
  8
0
  5
276E
 10
109.150
 20
102.971
 30
0.000000
  70
    32
  0
VERTEX
  8
0
  5
276F
 10
109.199
 20
102.927
 30
0.000000
  70
    32
  0
VERTEX
  8
0
  5
2770
 10
109.248
 20
102.885
 30
0.000000
  70
    32
  0
VERTEX
  8
0
  5
2771
 10
109.298
 20
102.844
 30
0.000000
  70
    32
  0
VERTEX
  8
0
  5
2772
 10
109.350
 20
102.805
 30
0.000000
  70
    32
  0
VERTEX
  8
0
  5
2773
 10
109.402
 20
102.767
 30
0.000000
  70
    32
  0
VERTEX
  8
0
  5
2774
 10
109.455
 20
102.730
 30
0.000000
  70
    32
  0
VERTEX
  8
0
  5
2775
 10
109.509
 20
102.694
 30
0.000000
  70
    32
  0
VERTEX
  8
0
  5
2776
 10
109.564
 20
102.660
 30
0.000000
  70
    32
  0
VERTEX
  8
0
  5
2777
 10
109.620
 20
102.628
 30
0.000000
  70
    32
  0
VERTEX
  8
0
  5
2778
 10
109.676
 20
102.597
 30
0.000000
  70
    32
  0
VERTEX
  8
0
  5
2779
 10
109.733
 20
102.567
 30
0.000000
  70
    32
  0
VERTEX
  8
0
  5
277A
 10
109.790
 20
102.539
 30
0.000000
  70
    32
  0
VERTEX
  8
0
  5
277B
 10
109.849
 20
102.513
 30
0.000000
  70
    32
  0
VERTEX
  8
0
  5
277C
 10
109.908
 20
102.487
 30
0.000000
  70
    32
  0
VERTEX
  8
0
  5
277D
 10
109.967
 20
102.464
 30
0.000000
  70
    32
  0
VERTEX
  8
0
  5
277E
 10
110.027
 20
102.442
 30
0.000000
  70
    32
  0
VERTEX
  8
0
  5
277F
 10
110.087
 20
102.422
 30
0.000000
  70
    32
  0
VERTEX
  8
0
  5
2780
 10
110.148
 20
102.403
 30
0.000000
  70
    32
  0
VERTEX
  8
0
  5
2781
 10
110.210
 20
102.386
 30
0.000000
  70
    32
  0
VERTEX
  8
0
  5
2782
 10
110.271
 20
102.370
 30
0.000000
  70
    32
  0
VERTEX
  8
0
  5
2783
 10
110.333
 20
102.356
 30
0.000000
  70
    32
  0
VERTEX
  8
0
  5
2784
 10
110.396
 20
102.344
 30
0.000000
  70
    32
  0
VERTEX
  8
0
  5
2785
 10
110.458
 20
102.333
 30
0.000000
  70
    32
  0
VERTEX
  8
0
  5
2786
 10
110.521
 20
102.324
 30
0.000000
  70
    32
  0
VERTEX
  8
0
  5
2787
 10
110.584
 20
102.316
 30
0.000000
  70
    32
  0
VERTEX
  8
0
  5
2788
 10
110.647
 20
102.311
 30
0.000000
  70
    32
  0
VERTEX
  8
0
  5
2789
 10
110.711
 20
102.307
 30
0.000000
  70
    32
  0
VERTEX
  8
0
  5
278A
 10
110.774
 20
102.304
 30
0.000000
  70
    32
  0
VERTEX
  8
0
  5
278B
 10
110.837
 20
102.303
 30
0.000000
  70
    32
  0
SEQEND
  8
0
  5
278C
  0
LINE
  5
2155
  8
0
 10
103.69348011493869
 20
100.2032674138886
 30
0.0
 11
103.69348011493869
 21
99.553267470326844
 31
0.0
  0
LINE
  5
2156
  8
0
 10
110.19348018199391
 20
100.2032674423871
 30
0.0
 11
110.19348018199391
 21
99.553267470326844
 31
0.0
  0
LINE
  5
2157
  8
0
 10
98.943479802014394
 20
101.30326746613579
 30
0.0
 11
99.443480349632068
 21
100.8032674423871
 31
0.0
  0
LINE
  5
2158
  8
0
 10
114.4434800143559
 20
100.8032674423871
 30
0.0
 11
114.9434805619736
 21
101.30326746613579
 31
0.0
  0
CIRCLE
  5
2159
  8
0
 10
106.943480181994
 20
113.8032674423871
 30
0.0
 40
2.2342810842634049
  0
CIRCLE
  5
215A
  8
0
 10
106.943480181994
 20
113.8032674423871
 30
0.0
 40
2.0000010200190981
  0
ARC
  5
215B
  8
0
 10
101.36637283695811
 20
127.4169835044862
 30
0.0
 40
8.6154381324029288
 50
268.85466142835708
 51
330.5734624504974
  0
POLYLINE
  5
215C
  8
0
 66
     1
 10
0.0
 20
0.0
 30
0.0
 70
   130
  0
VERTEX
  5
215D
  8
0
 10
100.01527702018809
 20
109.30326790432311
 30
0.0
 42
-0.0203157571835487
  0
VERTEX
  5
215E
  8
0
 10
100.0119931097444
 20
109.2215521923425
 30
0.0
 42
-0.0315267829735623
 70
     1
  0
VERTEX
  5
215F
  8
0
 10
100.00443532201029
 20
109.1693661653226
 30
0.0
 42
-0.0032280836783507
  0
VERTEX
  5
2160
  8
0
 10
99.988156184522836
 20
109.0942114229056
 30
0.0
 42
-0.0133443370104796
 70
     1
  0
VERTEX
  5
2161
  8
0
 10
99.983617107019313
 20
109.076168447252
 30
0.0
 42
-0.0229043810677791
  0
VERTEX
  5
2162
  8
0
 10
99.966079277466406
 20
109.0230585560151
 30
0.0
 42
-0.0214865090025625
 70
     1
  0
VERTEX
  5
2163
  8
0
 10
99.942440322785956
 20
108.96832768143651
 30
0.0
 42
-0.0279703981762794
  0
VERTEX
  5
2164
  8
0
 10
99.917786113786178
 20
108.9238983362459
 30
0.0
 42
-0.030693321766461
 70
     1
  0
VERTEX
  5
2165
  8
0
 10
99.890731045753569
 20
108.88631188596911
 30
0.0
 42
-0.0257221217653543
  0
VERTEX
  5
2166
  8
0
 10
99.866210666223424
 20
108.8592788376899
 30
0.0
 42
-0.0304776850222468
 70
     1
  0
VERTEX
  5
2167
  8
0
 10
99.843082333356278
 20
108.8389228477553
 30
0.0
 42
-0.0295606684335858
  0
VERTEX
  5
2168
  8
0
 10
99.831437652670957
 20
108.8309273914365
 30
0.0
 42
-0.0131668311159851
 70
     1
  0
VERTEX
  5
2169
  8
0
 10
99.803877243814441
 20
108.8152842040159
 30
0.0
 42
-0.0679846803803562
  0
VERTEX
  5
216A
  8
0
 10
99.783150766996414
 20
108.8076205931486
 30
0.0
 42
-0.0444615693202332
 70
     1
  0
VERTEX
  5
216B
  8
0
 10
99.749732897024955
 20
108.8032674423871
 30
0.0
  0
SEQEND
  5
216C
  8
0
  0
LINE
  5
216D
  8
0
 10
98.943479802014394
 20
108.80326782236671
 30
0.0
 11
98.943479802014394
 21
101.30326746613579
 31
0.0
  0
POLYLINE
  5
216E
  8
0
 66
     1
 10
0.0
 20
0.0
 30
0.0
 70
   130
  0
VERTEX
  5
216F
  8
0
 10
112.0669555649725
 20
118.8032674423871
 30
0.0
 42
-0.0098205640590587
  0
VERTEX
  5
2170
  8
0
 10
112.190070264403
 20
118.8009761927363
 30
0.0
 42
-0.0209762856004099
 70
     1
  0
VERTEX
  5
2171
  8
0
 10
112.2475538801621
 20
118.79635635964991
 30
0.0
 42
-0.0032854612302022
  0
VERTEX
  5
2172
  8
0
 10
112.4586770794493
 20
118.7690310399165
 30
0.0
 42
-0.0132533220669617
 70
     1
  0
VERTEX
  5
2173
  8
0
 10
112.51076987471809
 20
118.7605286962464
 30
0.0
 42
-0.0134738582220058
  0
VERTEX
  5
2174
  8
0
 10
112.5874307125915
 20
118.74376859666999
 30
0.0
 42
-0.0087849374547618
 70
     1
  0
VERTEX
  5
2175
  8
0
 10
112.70373638458349
 20
118.71285923510879
 30
0.0
 42
-0.0242235550469508
  0
VERTEX
  5
2176
  8
0
 10
112.8474094014326
 20
118.6643269120602
 30
0.0
 42
-0.0207602768165309
 70
     1
  0
VERTEX
  5
2177
  8
0
 10
113.0092603150574
 20
118.5928790432652
 30
0.0
 42
-0.0239577286571897
  0
VERTEX
  5
2178
  8
0
 10
113.1584900009273
 20
118.51035657190459
 30
0.0
 42
-0.0255265844356451
 70
     1
  0
VERTEX
  5
2179
  8
0
 10
113.2902220996535
 20
118.41944177779131
 30
0.0
 42
-0.0123607424146721
  0
VERTEX
  5
217A
  8
0
 10
113.3598545533539
 20
118.3631503993083
 30
0.0
 42
-0.0123142353294985
 70
     1
  0
VERTEX
  5
217B
  8
0
 10
113.4268776285668
 20
118.3032675168929
 30
0.0
 42
-0.0275641855752835
  0
VERTEX
  5
217C
  8
0
 10
113.5280332632818
 20
118.1972343272776
 30
0.0
 42
-0.0239183465209203
 70
     1
  0
VERTEX
  5
217D
  8
0
 10
113.6314145227247
 20
118.0637313388393
 30
0.0
 42
-0.0244037856387636
  0
VERTEX
  5
217E
  8
0
 10
113.6939178378076
 20
117.96454320125579
 30
0.0
 42
-0.0216831808815865
 70
     1
  0
VERTEX
  5
217F
  8
0
 10
113.7536841998989
 20
117.8469246070719
 30
0.0
 42
-0.0299523321959676
  0
VERTEX
  5
2180
  8
0
 10
113.7837771915468
 20
117.7686164258016
 30
0.0
 42
-0.0109357250382561
 70
     1
  0
VERTEX
  5
2181
  8
0
 10
113.84835874625441
 20
117.5482912875284
 30
0.0
 42
-0.0421134469962754
  0
VERTEX
  5
2182
  8
0
 10
113.8640280684458
 20
117.4617319216259
 30
0.0
 42
-0.0233219616446507
 70
     1
  0
VERTEX
  5
2183
  8
0
 10
113.8716834122697
 20
117.3032674423871
 30
0.0
  0
SEQEND
  5
2184
  8
0
  0
POLYLINE
  5
2185
  8
0
 66
     1
 10
0.0
 20
0.0
 30
0.0
 70
   130
  0
VERTEX
  5
2186
  8
0
 10
101.82000479901539
 20
118.8032674423871
 30
0.0
 42
0.0098205640590587
  0
VERTEX
  5
2187
  8
0
 10
101.69689009958491
 20
118.8009761927363
 30
0.0
 42
0.0209762856004099
 70
     1
  0
VERTEX
  5
2188
  8
0
 10
101.63940648382579
 20
118.79635635964991
 30
0.0
 42
0.0032854612302022
  0
VERTEX
  5
2189
  8
0
 10
101.42828328453869
 20
118.7690310399165
 30
0.0
 42
0.0132533220669617
 70
     1
  0
VERTEX
  5
218A
  8
0
 10
101.3761904892699
 20
118.7605286962464
 30
0.0
 42
0.0134738582220058
  0
VERTEX
  5
218B
  8
0
 10
101.2995296513965
 20
118.74376859666999
 30
0.0
 42
0.0087849374547618
 70
     1
  0
VERTEX
  5
218C
  8
0
 10
101.1832239794045
 20
118.71285923510879
 30
0.0
 42
0.0242235550469508
  0
VERTEX
  5
218D
  8
0
 10
101.0395509625554
 20
118.6643269120602
 30
0.0
 42
0.0207602768165309
 70
     1
  0
VERTEX
  5
218E
  8
0
 10
100.87770004893061
 20
118.5928790432652
 30
0.0
 42
0.0239577286571897
  0
VERTEX
  5
218F
  8
0
 10
100.72847036306059
 20
118.51035657190459
 30
0.0
 42
0.0255265844356451
 70
     1
  0
VERTEX
  5
2190
  8
0
 10
100.5967382643345
 20
118.41944177779131
 30
0.0
 42
0.0123607424146721
  0
VERTEX
  5
2191
  8
0
 10
100.5271058106341
 20
118.3631503993083
 30
0.0
 42
0.0123142353294985
 70
     1
  0
VERTEX
  5
2192
  8
0
 10
100.4600827354212
 20
118.3032675168929
 30
0.0
 42
0.0275641855752835
  0
VERTEX
  5
2193
  8
0
 10
100.3589271007061
 20
118.1972343272776
 30
0.0
 42
0.0239183465209203
 70
     1
  0
VERTEX
  5
2194
  8
0
 10
100.2555458412632
 20
118.0637313388393
 30
0.0
 42
0.0244037856387636
  0
VERTEX
  5
2195
  8
0
 10
100.19304252618041
 20
117.96454320125579
 30
0.0
 42
0.0216831808815865
 70
     1
  0
VERTEX
  5
2196
  8
0
 10
100.1332761640891
 20
117.8469246070719
 30
0.0
 42
0.0299523321959676
  0
VERTEX
  5
2197
  8
0
 10
100.10318317244111
 20
117.7686164258016
 30
0.0
 42
0.0109357250382561
 70
     1
  0
VERTEX
  5
2198
  8
0
 10
100.03860161773341
 20
117.5482912875284
 30
0.0
 42
0.0421134469962754
  0
VERTEX
  5
2199
  8
0
 10
100.0229322955422
 20
117.4617319216259
 30
0.0
 42
0.0233219616446507
 70
     1
  0
VERTEX
  5
219A
  8
0
 10
100.01527695171831
 20
117.3032674423871
 30
0.0
  0
SEQEND
  5
219B
  8
0
  0
LINE
  5
219C
  8
0
 10
85.943480465116068
 20
118.3032675168929
 30
0.0
 11
85.943480465116068
 21
113.3032676286516
 31
0.0
  0
LINE
  5
219D
  8
0
 10
181.56395771336381
 20
85.803267442387167
 30
0.0
 11
189.56395771336381
 21
85.803267442387167
 31
0.0
  0
LINE
  5
219E
  8
0
 10
188.56395771336381
 20
84.803267442387138
 30
0.0
 11
182.56395771336381
 21
84.803267442387138
 31
0.0
  0
LINE
  5
219F
  8
0
 10
181.56395771336381
 20
85.803267442387167
 30
0.0
 11
182.56395771336381
 21
84.803267442387138
 31
0.0
  0
LINE
  5
21A0
  8
0
 10
188.56395771336381
 20
84.803267442387138
 30
0.0
 11
189.56395771336381
 21
85.803267442387167
 31
0.0
  0
LINE
  5
21A1
  8
3
 10
188.88745771336389
 20
94.553267442387138
 30
0.0
 11
188.887457713364
 21
85.126767442387276
 31
0.0
  0
LINE
  5
21A2
  8
3
 10
182.2404577133637
 20
85.126767442387234
 30
0.0
 11
182.2404577133637
 21
94.553267442387167
 31
0.0
  0
LINE
  5
21A3
  8
0
 10
181.56395771336381
 20
85.803267442387167
 30
0.0
 11
181.56395771336381
 21
94.553267442387167
 31
0.0
  0
LINE
  5
21A4
  8
0
 10
189.56395771336381
 20
85.803267442387167
 30
0.0
 11
189.56395771336381
 21
94.553267442387167
 31
0.0
  0
LINE
  5
21A5
  8
0
 10
102.94348018199391
 20
85.803267349254895
 30
0.0
 11
110.94348018199391
 21
85.803267349254895
 31
0.0
  0
LINE
  5
21A6
  8
0
 10
109.94348018199391
 20
84.803267349254895
 30
0.0
 11
103.94348018199391
 21
84.803267349254895
 31
0.0
  0
LINE
  5
21A7
  8
0
 10
102.94348018199391
 20
85.803267349254895
 30
0.0
 11
103.94348018199391
 21
84.803267349254895
 31
0.0
  0
LINE
  5
21A8
  8
0
 10
109.94348018199391
 20
84.803267349254895
 30
0.0
 11
110.94348018199391
 21
85.803267349254895
 31
0.0
  0
LINE
  5
21A9
  8
3
 10
110.2669801819939
 20
94.553267349254881
 30
0.0
 11
110.2669801819941
 21
85.126767349255019
 31
0.0
  0
LINE
  5
21AA
  8
3
 10
103.6199801819938
 20
85.126767349254976
 30
0.0
 11
103.6199801819938
 21
94.553267349254895
 31
0.0
  0
LINE
  5
21AB
  8
0
 10
102.94348018199391
 20
85.803267349254895
 30
0.0
 11
102.94348018199391
 21
94.553267349254895
 31
0.0
  0
LINE
  5
21AC
  8
0
 10
110.94348018199391
 20
85.803267349254895
 30
0.0
 11
110.94348018199391
 21
94.553267349254895
 31
0.0
  0
LINE
  5
21AD
  8
0
 10
32.285040557698267
 20
85.803267442387167
 30
0.0
 11
32.285040557698267
 21
94.553267442387167
 31
0.0
  0
LINE
  5
21AE
  8
0
 10
24.28504055769827
 20
85.803267442387167
 30
0.0
 11
24.28504055769827
 21
94.553267442387167
 31
0.0
  0
LINE
  5
21AF
  8
3
 10
24.961540557698189
 20
85.126767442387234
 30
0.0
 11
24.961540557698189
 21
94.553267442387167
 31
0.0
  0
LINE
  5
21B0
  8
3
 10
31.608540557698351
 20
94.553267442387138
 30
0.0
 11
31.608540557698351
 21
85.126767442387276
 31
0.0
  0
LINE
  5
21B1
  8
3
 10
88.317113908771148
 20
112.30326730082611
 30
0.0
 11
87.938113908769765
 21
111.6468200447551
 31
0.0
  0
LINE
  5
21B2
  8
0
 10
87.938113908769765
 20
111.30326730082611
 30
0.0
 11
87.938113908769765
 21
112.80326730082611
 31
0.0
  0
LINE
  5
21B3
  8
3
 10
88.317113908771148
 20
112.30326730082611
 30
0.0
 11
88.317113908771148
 21
112.80326730082611
 31
0.0
  0
LINE
  5
21B4
  8
3
 10
91.559113908768381
 20
112.30326730082611
 30
0.0
 11
91.559113908768381
 21
112.80326730082611
 31
0.0
  0
LINE
  5
21B5
  8
0
 10
87.938113908769765
 20
112.30326730082611
 30
0.0
 11
91.938113908769765
 21
112.30326730082611
 31
0.0
  0
LINE
  5
21B6
  8
3
 10
91.559113908768381
 20
112.30326730082611
 30
0.0
 11
91.938113908769765
 21
111.6468200447551
 31
0.0
  0
LINE
  5
21B7
  8
0
 10
91.938113908769765
 20
111.30326730082611
 30
0.0
 11
91.938113908769765
 21
112.80326730082611
 31
0.0
  0
LINE
  5
21B8
  8
0
 10
87.938113908769765
 20
121.2032673008261
 30
0.0
 11
87.938113908769765
 21
123.0094639224728
 31
0.0
  0
LINE
  5
21B9
  8
0
 10
91.438113908769765
 20
123.5032674423871
 30
0.0
 11
88.438113908769765
 21
123.503267442387
 31
0.0
  0
LINE
  5
21BA
  8
0
 10
87.938113908769765
 20
123.003267442387
 30
0.0
 11
88.438113908769765
 21
123.5032674423871
 31
0.0
  0
LINE
  5
21BB
  8
3
 10
88.317113908771148
 20
121.2032673008261
 30
0.0
 11
88.317113908771148
 21
123.3822674423884
 31
0.0
  0
LINE
  5
21BC
  8
0
 10
91.938113908769765
 20
123.003267442387
 30
0.0
 11
87.938113908769765
 21
123.003267442387
 31
0.0
  0
LINE
  5
21BD
  8
0
 10
91.438113908769765
 20
123.5032674423871
 30
0.0
 11
91.938113908769765
 21
123.003267442387
 31
0.0
  0
LINE
  5
21BE
  8
0
 10
91.938113908769765
 20
121.2032673008261
 30
0.0
 11
91.938113908769765
 21
123.003267442387
 31
0.0
  0
LINE
  5
21BF
  8
3
 10
91.559113908768381
 20
121.2032673008261
 30
0.0
 11
91.559113908768381
 21
123.3822674423884
 31
0.0
  0
LINE
  5
21C0
  8
0
 10
26.28504055769838
 20
121.2032674423871
 30
0.0
 11
26.28504055769838
 21
123.0094639224729
 31
0.0
  0
LINE
  5
21C1
  8
3
 10
26.664040557699771
 20
121.2032674423871
 30
0.0
 11
26.664040557699771
 21
123.3822674423885
 31
0.0
  0
LINE
  5
21C2
  8
3
 10
29.906040557697001
 20
121.2032674423871
 30
0.0
 11
29.906040557697001
 21
123.3822674423885
 31
0.0
  0
LINE
  5
21C3
  8
0
 10
30.28504055769838
 20
121.2032674423871
 30
0.0
 11
30.28504055769838
 21
123.0032674423871
 31
0.0
  0
LINE
  5
21C4
  8
0
 10
30.28504055769838
 20
111.3032674423871
 30
0.0
 11
30.28504055769838
 21
112.8032674423871
 31
0.0
  0
LINE
  5
21C5
  8
3
 10
29.906040557697001
 20
112.3032674423871
 30
0.0
 11
29.906040557697001
 21
112.8032674423872
 31
0.0
  0
LINE
  5
21C6
  8
3
 10
29.906040557697001
 20
112.3032674423871
 30
0.0
 11
30.28504055769838
 21
111.64682018631611
 31
0.0
  0
LINE
  5
21C7
  8
3
 10
26.664040557699771
 20
112.3032674423871
 30
0.0
 11
26.28504055769838
 21
111.64682018631611
 31
0.0
  0
LINE
  5
21C8
  8
3
 10
26.664040557699771
 20
112.3032674423871
 30
0.0
 11
26.664040557699771
 21
112.8032674423872
 31
0.0
  0
LINE
  5
21C9
  8
0
 10
26.28504055769838
 20
112.3032674423871
 30
0.0
 11
30.28504055769838
 21
112.3032674423871
 31
0.0
  0
LINE
  5
21CA
  8
0
 10
26.28504055769838
 20
111.3032674423871
 30
0.0
 11
26.28504055769838
 21
112.8032674423872
 31
0.0
  0
LINE
  5
21CB
  8
0
 10
31.28504055769827
 20
84.803267442387138
 30
0.0
 11
32.285040557698267
 21
85.803267442387167
 31
0.0
  0
LINE
  5
21CC
  8
0
 10
24.28504055769827
 20
85.803267442387167
 30
0.0
 11
25.28504055769827
 21
84.803267442387138
 31
0.0
  0
POLYLINE
  5
21CD
  8
0
 66
     1
 10
0.0
 20
0.0
 30
0.0
 70
   130
  0
VERTEX
  5
21CE
  8
0
 10
36.285014875315831
 20
116.0372788080316
 30
0.0
 42
0.037001449987177
  0
VERTEX
  5
21CF
  8
0
 10
36.035775381900287
 20
114.9326137398231
 30
0.0
 42
0.0370014499871743
 70
     1
  0
VERTEX
  5
21D0
  8
0
 10
35.952085146039281
 20
113.80327712817039
 30
0.0
 42
0.0370017746202872
  0
VERTEX
  5
21D1
  8
0
 10
36.03577391714532
 20
112.6739304725413
 30
0.0
 42
0.0370017746202879
 70
     1
  0
VERTEX
  5
21D2
  8
0
 10
36.28501487477547
 20
111.5692555773665
 30
0.0
  0
SEQEND
  5
21D3
  8
0
  0
POLYLINE
  5
21D4
  8
0
 66
     1
 10
0.0
 20
0.0
 30
0.0
 70
   130
  0
VERTEX
  5
21D5
  8
0
 10
20.28504055769827
 20
116.0372790589194
 30
0.0
 42
-0.037001449987177
  0
VERTEX
  5
21D6
  8
0
 10
20.5342800511138
 20
114.932613990711
 30
0.0
 42
-0.0370014499871743
 70
     1
  0
VERTEX
  5
21D7
  8
0
 10
20.61797028697492
 20
113.8032773790582
 30
0.0
 42
-0.0370017746202872
  0
VERTEX
  5
21D8
  8
0
 10
20.53428151586877
 20
112.67393072342909
 30
0.0
 42
-0.0370017746202879
 70
     1
  0
VERTEX
  5
21D9
  8
0
 10
20.28504055823873
 20
111.5692558282544
 30
0.0
  0
SEQEND
  5
21DA
  8
0
  0
POLYLINE
  5
21DB
  8
0
 66
     1
 10
0.0
 20
0.0
 30
0.0
 70
   130
  0
VERTEX
  5
21DC
  8
0
 10
32.28504055769838
 20
109.3032674423871
 30
0.0
 42
-0.0985065451240644
  0
VERTEX
  5
21DD
  8
0
 10
32.246973913294937
 20
109.1119013365842
 30
0.0
 42
-0.0985065451240656
 70
     1
  0
VERTEX
  5
21DE
  8
0
 10
32.138562550160941
 20
108.9496760851289
 30
0.0
 42
-0.0977008071118526
  0
VERTEX
  5
21DF
  8
0
 10
31.97778979786483
 20
108.841909373654
 30
0.0
 42
-0.0977008071117776
 70
     1
  0
VERTEX
  5
21E0
  8
0
 10
31.7881346838426
 20
108.803276748735
 30
0.0
  0
SEQEND
  5
21E1
  8
0
  0
POLYLINE
  5
21E2
  8
0
 66
     1
 10
0.0
 20
0.0
 30
0.0
 70
   130
  0
VERTEX
  5
21E3
  8
0
 10
24.28504055769838
 20
109.3032674423871
 30
0.0
 42
0.0985065451240644
  0
VERTEX
  5
21E4
  8
0
 10
24.32310720210182
 20
109.1119013365842
 30
0.0
 42
0.0985065451240656
 70
     1
  0
VERTEX
  5
21E5
  8
0
 10
24.43151856523594
 20
108.9496760851289
 30
0.0
 42
0.0977008071118526
  0
VERTEX
  5
21E6
  8
0
 10
24.592291317531931
 20
108.841909373654
 30
0.0
 42
0.0977008071117776
 70
     1
  0
VERTEX
  5
21E7
  8
0
 10
24.781946431554161
 20
108.803276748735
 30
0.0
  0
SEQEND
  5
21E8
  8
0
  0
LINE
  5
21E9
  8
0
 10
20.28504055769827
 20
101.3032674423871
 30
0.0
 11
20.78504055769827
 21
100.8032674423871
 31
0.0
  0
LINE
  5
21EA
  8
0
 10
35.785040557698267
 20
100.8032674423871
 30
0.0
 11
36.285040557698267
 21
101.3032674423871
 31
0.0
  0
LINE
  5
21EB
  8
0
 10
25.03504055769827
 20
100.2032674423871
 30
0.0
 11
25.03504055769827
 21
99.553267442387167
 31
0.0
  0
LINE
  5
21EC
  8
0
 10
31.53504055769827
 20
100.2032674423871
 30
0.0
 11
31.53504055769827
 21
99.553267442387181
 31
0.0
  0
LINE
  5
21ED
  8
0
 10
36.285040557698267
 20
101.3032674423871
 30
0.0
 11
36.28501262833845
 21
111.56935424490889
 31
0.0
  0
LINE
  5
21EE
  8
0
 10
20.28504055769827
 20
111.56925582315461
 30
0.0
 11
20.28504055769827
 21
101.3032674423871
 31
0.0
  0
LINE
  5
21EF
  8
0
 10
36.285040557698267
 20
117.3032674423871
 30
0.0
 11
36.285014873484897
 21
116.03718855394951
 31
0.0
  0
LINE
  5
21F0
  8
0
 10
20.28504055769827
 20
117.3032674423871
 30
0.0
 11
20.28504055769827
 21
116.0372790589194
 31
0.0
  0
POLYLINE
  5
21F1
  8
0
 66
     1
 10
0.0
 20
0.0
 30
0.0
 70
   130
  0
VERTEX
  5
21F2
  8
0
 10
24.78523973607048
 20
122.0974960764477
 30
0.0
 42
-0.0012338729645676
  0
VERTEX
  5
21F3
  8
0
 10
24.758828180931118
 20
121.8737339238037
 30
0.0
 42
-0.0012338729645841
 70
     1
  0
VERTEX
  5
21F4
  8
0
 10
24.731312576232991
 20
121.6501048498874
 30
0.0
 42
-0.0012338737434171
  0
VERTEX
  5
21F5
  8
0
 10
24.702693573806421
 20
121.4266141609846
 30
0.0
 42
-0.0012338737434185
 70
     1
  0
VERTEX
  5
21F6
  8
0
 10
24.6729718878114
 20
121.2032674423871
 30
0.0
  0
SEQEND
  5
21F7
  8
0
  0
POLYLINE
  5
21F8
  8
0
 66
     1
 10
0.0
 20
0.0
 30
0.0
 70
   130
  0
VERTEX
  5
21F9
  8
0
 10
31.784841379326281
 20
122.0974960764477
 30
0.0
 42
0.0012338729645676
  0
VERTEX
  5
21FA
  8
0
 10
31.811252934465649
 20
121.8737339238037
 30
0.0
 42
0.0012338729645841
 70
     1
  0
VERTEX
  5
21FB
  8
0
 10
31.83876853916377
 20
121.6501048498874
 30
0.0
 42
0.0012338737434171
  0
VERTEX
  5
21FC
  8
0
 10
31.86738754159035
 20
121.4266141609846
 30
0.0
 42
0.0012338737434185
 70
     1
  0
VERTEX
  5
21FD
  8
0
 10
31.897109227585361
 20
121.2032674423871
 30
0.0
  0
SEQEND
  5
21FE
  8
0
  0
LINE
  5
21FF
  8
0
 10
26.28504055769838
 20
123.0032674423871
 30
0.0
 11
26.78504055769838
 21
123.5032674423871
 31
0.0
  0
LINE
  5
2200
  8
0
 10
29.78504055769838
 20
123.5032674423871
 30
0.0
 11
30.28504055769838
 21
123.0032674423871
 31
0.0
  0
POLYLINE
  5
2201
  8
0
 66
     1
 10
0.0
 20
0.0
 30
0.0
 70
   130
  0
VERTEX
  5
2202
  8
0
 10
22.871833602029941
 20
136.33362847144059
 30
0.0
 42
-0.0178950750983812
  0
VERTEX
  5
2203
  8
0
 10
22.893684300757741
 20
136.6804039084445
 30
0.0
 42
-0.0286273499740564
 70
     1
  0
VERTEX
  5
2204
  8
0
 10
22.927437158926981
 20
136.8950757075263
 30
0.0
 42
-0.0050943916156338
  0
VERTEX
  5
2205
  8
0
 10
23.000760511905579
 20
137.2178411562289
 30
0.0
 42
-0.0100374808261877
 70
     1
  0
VERTEX
  5
2206
  8
0
 10
23.042917714899431
 20
137.38046763197039
 30
0.0
 42
-0.0407610015082832
  0
VERTEX
  5
2207
  8
0
 10
23.207817980577939
 20
137.82502997410359
 30
0.0
 42
-0.0363489645475892
 70
     1
  0
VERTEX
  5
2208
  8
0
 10
23.466993182803431
 20
138.2890941585793
 30
0.0
 42
-0.0321305156738618
  0
VERTEX
  5
2209
  8
0
 10
23.72685004763775
 20
138.63359806761159
 30
0.0
 42
-0.0312844819054787
 70
     1
  0
VERTEX
  5
220A
  8
0
 10
24.036315390070289
 20
138.95081444049171
 30
0.0
 42
-0.0203412811473572
  0
VERTEX
  5
220B
  8
0
 10
24.353497809002199
 20
139.21502678446049
 30
0.0
 42
-0.0190455502100985
 70
     1
  0
VERTEX
  5
220C
  8
0
 10
24.713393674741148
 20
139.4696720822343
 30
0.0
 42
-0.0262661649769893
  0
VERTEX
  5
220D
  8
0
 10
25.235099483124369
 20
139.77197315067011
 30
0.0
 42
-0.0225648450151967
 70
     1
  0
VERTEX
  5
220E
  8
0
 10
25.87367745860513
 20
140.06292992877431
 30
0.0
 42
-0.0239287369945905
  0
VERTEX
  5
220F
  8
0
 10
26.515591527347969
 20
140.28607536655039
 30
0.0
 42
-0.0253660646847291
 70
     1
  0
VERTEX
  5
2210
  8
0
 10
27.138952809183479
 20
140.43597412636089
 30
0.0
 42
-0.0221196766123628
  0
VERTEX
  5
2211
  8
0
 10
27.745183866949329
 20
140.5220450721911
 30
0.0
 42
-0.0251007734155876
 70
     1
  0
VERTEX
  5
2212
  8
0
 10
28.284263119609712
 20
140.54719051770979
 30
0.0
 42
-0.0213984047554803
  0
VERTEX
  5
2213
  8
0
 10
28.825774680375051
 20
140.52206266928121
 30
0.0
 42
-0.022359168189611
 70
     1
  0
VERTEX
  5
2214
  8
0
 10
29.339955097227861
 20
140.45281461909011
 30
0.0
 42
-0.0215735075309176
  0
VERTEX
  5
2215
  8
0
 10
29.936338297205449
 20
140.31837283842819
 30
0.0
 42
-0.022424693793239
 70
     1
  0
VERTEX
  5
2216
  8
0
 10
30.496521184628481
 20
140.13911337283071
 30
0.0
 42
-0.0171966213957185
  0
VERTEX
  5
2217
  8
0
 10
31.03416494795567
 20
139.91878055763061
 30
0.0
 42
-0.0209591204932744
 70
     1
  0
VERTEX
  5
2218
  8
0
 10
31.460290209950578
 20
139.70487003832221
 30
0.0
 42
-0.0172077917528207
  0
VERTEX
  5
2219
  8
0
 10
31.918853562084109
 20
139.4290187451308
 30
0.0
 42
-0.0230912613317962
 70
     1
  0
VERTEX
  5
221A
  8
0
 10
32.2429984555597
 20
139.19655557983819
 30
0.0
 42
-0.0137483033987857
  0
VERTEX
  5
221B
  8
0
 10
32.488874370546803
 20
138.99120868253181
 30
0.0
 42
-0.0178165532904101
 70
     1
  0
VERTEX
  5
221C
  8
0
 10
32.668255991508893
 20
138.8210759066632
 30
0.0
 42
-0.0196003962261807
  0
VERTEX
  5
221D
  8
0
 10
32.88584199292734
 20
138.58135292398691
 30
0.0
 42
-0.0232170399500989
 70
     1
  0
VERTEX
  5
221E
  8
0
 10
33.05157926455081
 20
138.36397188578599
 30
0.0
 42
-0.0153290258246628
  0
VERTEX
  5
221F
  8
0
 10
33.192267990096411
 20
138.14655392876799
 30
0.0
 42
-0.0210104451683982
 70
     1
  0
VERTEX
  5
2220
  8
0
 10
33.283143744120707
 20
137.98085957814979
 30
0.0
 42
-0.0119133194925795
  0
VERTEX
  5
2221
  8
0
 10
33.390671451481012
 20
137.7499541078916
 30
0.0
 42
-0.0192543053097099
 70
     1
  0
VERTEX
  5
2222
  8
0
 10
33.448187414642803
 20
137.6031844281996
 30
0.0
 42
-0.0044462030159694
  0
VERTEX
  5
2223
  8
0
 10
33.505082776718268
 20
137.43493547015029
 30
0.0
 42
-0.0097259625750603
 70
     1
  0
VERTEX
  5
2224
  8
0
 10
33.528903954551311
 20
137.35730879523271
 30
0.0
 42
-0.0023642230117169
  0
VERTEX
  5
2225
  8
0
 10
33.535416286649593
 20
137.3341003249993
 30
0.0
 42
-0.0004247995834815
 70
     1
  0
VERTEX
  5
2226
  8
0
 10
33.570939435860403
 20
137.20473407079959
 30
0.0
 42
-0.0089858400980263
  0
VERTEX
  5
2227
  8
0
 10
33.584751510695583
 20
137.15045314697409
 30
0.0
 42
-0.0047571458007101
 70
     1
  0
VERTEX
  5
2228
  8
0
 10
33.60801234856342
 20
137.04724886550511
 30
0.0
  0
SEQEND
  5
2229
  8
0
  0
POLYLINE
  5
222A
  8
0
 66
     1
 10
0.0
 20
0.0
 30
0.0
 70
   130
  0
VERTEX
  5
222B
  8
0
 10
118.7288945700069
 20
192.13792616044091
 30
0.0
 42
-0.0102655509833939
  0
VERTEX
  5
222C
  8
0
 10
118.9044301492421
 20
192.12779747572611
 30
0.0
 42
-0.0151018485944204
 70
     1
  0
VERTEX
  5
222D
  8
0
 10
119.0232631857405
 20
192.114868951489
 30
0.0
 42
-0.0005842704607914
  0
VERTEX
  5
222E
  8
0
 10
119.158960998171
 20
192.0957822198383
 30
0.0
 42
-0.0042375132915654
 70
     1
  0
VERTEX
  5
222F
  8
0
 10
119.1776451614851
 20
192.09297017633401
 30
0.0
 42
-0.0141080203221946
  0
VERTEX
  5
2230
  8
0
 10
119.21086351690781
 20
192.08671683123791
 30
0.0
 42
-0.0030422028279112
 70
     1
  0
VERTEX
  5
2231
  8
0
 10
119.3637974370875
 20
192.0524583143129
 30
0.0
 42
-0.0398789040078048
  0
VERTEX
  5
2232
  8
0
 10
119.6818598154037
 20
191.95191551618731
 30
0.0
 42
-0.0306755703289623
 70
     1
  0
VERTEX
  5
2233
  8
0
 10
120.0726131158203
 20
191.7644990634958
 30
0.0
 42
-0.0294627089647891
  0
VERTEX
  5
2234
  8
0
 10
120.33143563726649
 20
191.59952856101651
 30
0.0
 42
-0.0253920960157038
 70
     1
  0
VERTEX
  5
2235
  8
0
 10
120.6089306847888
 20
191.37643862540091
 30
0.0
 42
-0.0223029222881631
  0
VERTEX
  5
2236
  8
0
 10
120.8170639420719
 20
191.1736015975325
 30
0.0
 42
-0.01731342018717
 70
     1
  0
VERTEX
  5
2237
  8
0
 10
121.0636104696998
 20
190.89196643782361
 30
0.0
 42
-0.0352186984095898
  0
VERTEX
  5
2238
  8
0
 10
121.3935168030865
 20
190.42397174288519
 30
0.0
 42
-0.030274790458492
 70
     1
  0
VERTEX
  5
2239
  8
0
 10
121.7028295397887
 20
189.8342956363866
 30
0.0
 42
-0.021802650096408
  0
VERTEX
  5
223A
  8
0
 10
121.95025713133531
 20
189.21294590359861
 30
0.0
 42
-0.0260056226113657
 70
     1
  0
VERTEX
  5
223B
  8
0
 10
122.1070564647226
 20
188.6744872758737
 30
0.0
 42
-0.0119709832780372
  0
VERTEX
  5
223C
  8
0
 10
122.2194134684554
 20
188.14060006277069
 30
0.0
 42
-0.0158272969635371
 70
     1
  0
VERTEX
  5
223D
  8
0
 10
122.2818330178916
 20
187.73265242521481
 30
0.0
 42
-0.0148087018797524
  0
VERTEX
  5
223E
  8
0
 10
122.326400183799
 20
187.24189154429271
 30
0.0
 42
-0.0138825814490505
 70
     1
  0
VERTEX
  5
223F
  8
0
 10
122.34384053995301
 20
186.7165407125951
 30
0.0
 42
-0.0195244103375936
  0
VERTEX
  5
2240
  8
0
 10
122.3228690879357
 20
186.09303167529899
 30
0.0
 42
-0.0204589199010234
 70
     1
  0
VERTEX
  5
2241
  8
0
 10
122.2553915339065
 20
185.50148027633341
 30
0.0
 42
-0.0155598290814883
  0
VERTEX
  5
2242
  8
0
 10
122.1483089515808
 20
184.9311893175377
 30
0.0
 42
-0.0191208982344135
 70
     1
  0
VERTEX
  5
2243
  8
0
 10
122.0292040216288
 20
184.47420705073449
 30
0.0
 42
-0.0103012587286938
  0
VERTEX
  5
2244
  8
0
 10
121.93222344572369
 20
184.17536663025041
 30
0.0
 42
-0.0099960212143425
 70
     1
  0
VERTEX
  5
2245
  8
0
 10
121.81986663481349
 20
183.87171227494571
 30
0.0
 42
-0.0220075956161784
  0
VERTEX
  5
2246
  8
0
 10
121.6273898900415
 20
183.43883633934459
 30
0.0
 42
-0.0214122464350634
 70
     1
  0
VERTEX
  5
2247
  8
0
 10
121.39173140582029
 20
183.01276673782829
 30
0.0
 42
-0.0217049223836627
  0
VERTEX
  5
2248
  8
0
 10
121.1356851584532
 20
182.63154314576599
 30
0.0
 42
-0.0282648030622593
 70
     1
  0
VERTEX
  5
2249
  8
0
 10
120.91076890428501
 20
182.3597807770071
 30
0.0
 42
-0.0101741433528491
  0
VERTEX
  5
224A
  8
0
 10
120.70711370306429
 20
182.149005617726
 30
0.0
 42
-0.017913342399281
 70
     1
  0
VERTEX
  5
224B
  8
0
 10
120.5848798481492
 20
182.03595079610329
 30
0.0
 42
-0.0094579447371583
  0
VERTEX
  5
224C
  8
0
 10
120.4594138884836
 20
181.93204689931309
 30
0.0
 42
-0.010305152895664
 70
     1
  0
VERTEX
  5
224D
  8
0
 10
120.3405825099241
 20
181.8413082707325
 30
0.0
 42
-0.0195160699502766
  0
VERTEX
  5
224E
  8
0
 10
120.1678037070774
 20
181.72499502484271
 30
0.0
 42
-0.0179081122912778
 70
     1
  0
VERTEX
  5
224F
  8
0
 10
119.970572554222
 20
181.61267824136749
 30
0.0
 42
-0.0193521951940121
  0
VERTEX
  5
2250
  8
0
 10
119.7692909307185
 20
181.51714188373961
 30
0.0
 42
-0.0212458958677905
 70
     1
  0
VERTEX
  5
2251
  8
0
 10
119.57948229655381
 20
181.44527019812901
 30
0.0
 42
-0.0117148301158143
  0
VERTEX
  5
2252
  8
0
 10
119.3866229469369
 20
181.38644426014059
 30
0.0
 42
-0.0186700805860677
 70
     1
  0
VERTEX
  5
2253
  8
0
 10
119.2635662049006
 20
181.35694364207981
 30
0.0
 42
-0.0079502161971902
  0
VERTEX
  5
2254
  8
0
 10
119.1190936274182
 20
181.3303471261797
 30
0.0
 42
-0.0158616328790598
 70
     1
  0
VERTEX
  5
2255
  8
0
 10
119.04611440455049
 20
181.32047664673499
 30
0.0
 42
-0.0050003577685595
  0
VERTEX
  5
2256
  8
0
 10
118.98603829027689
 20
181.31489076332051
 30
0.0
 42
-0.0018026987572168
 70
     1
  0
VERTEX
  5
2257
  8
0
 10
118.8192063448102
 20
181.30166550351811
 30
0.0
 42
-0.0063149773385704
  0
VERTEX
  5
2258
  8
0
 10
118.80427456260971
 20
181.30072546857451
 30
0.0
 42
-0.0018341677889477
 70
     1
  0
VERTEX
  5
2259
  8
0
 10
118.75282090408651
 20
181.29832732058449
 30
0.0
  0
SEQEND
  5
225A
  8
0
  0
POLYLINE
  5
225B
  8
0
 66
     1
 10
0.0
 20
0.0
 30
0.0
 70
   130
  0
VERTEX
  5
225C
  8
0
 10
101.37062566518701
 20
182.71856918891621
 30
0.0
 42
0.0030563278793263
  0
VERTEX
  5
225D
  8
0
 10
102.89494709009151
 20
182.7536489903097
 30
0.0
 42
0.006070639917963
 70
     1
  0
VERTEX
  5
225E
  8
0
 10
103.66195371726781
 20
182.78531603193329
 30
0.0
 42
0.0000420854472904
  0
VERTEX
  5
225F
  8
0
 10
105.8699223257789
 20
182.90352948974831
 30
0.0
 42
0.0011463003504066
 70
     1
  0
VERTEX
  5
2260
  8
0
 10
105.9509755866542
 20
182.90806226013541
 30
0.0
 42
0.0005870530573039
  0
VERTEX
  5
2261
  8
0
 10
106.0325275791764
 20
182.9129065783288
 30
0.0
 42
0.0000213744005228
 70
     1
  0
VERTEX
  5
2262
  8
0
 10
108.2722083601989
 20
183.04868236438949
 30
0.0
 42
0.0030642153735896
  0
VERTEX
  5
2263
  8
0
 10
109.0429644581307
 20
183.1001835672698
 30
0.0
 42
0.0015380960457133
 70
     1
  0
VERTEX
  5
2264
  8
0
 10
110.5774547782101
 20
183.21691334408939
 30
0.0
  0
SEQEND
  5
2265
  8
0
  0
POLYLINE
  5
2266
  8
0
 66
     1
 10
0.0
 20
0.0
 30
0.0
 70
   130
  0
VERTEX
  5
2267
  8
0
 10
101.37062566518701
 20
190.71485914251869
 30
0.0
 42
-0.0030563278793263
  0
VERTEX
  5
2268
  8
0
 10
102.89494709009151
 20
190.6797793411252
 30
0.0
 42
-0.006070639917963
 70
     1
  0
VERTEX
  5
2269
  8
0
 10
103.66195371726781
 20
190.64811229950161
 30
0.0
 42
-0.0000420854472904
  0
VERTEX
  5
226A
  8
0
 10
105.8699223257789
 20
190.52989884168659
 30
0.0
 42
-0.0011463003504066
 70
     1
  0
VERTEX
  5
226B
  8
0
 10
105.9509755866542
 20
190.52536607129949
 30
0.0
 42
-0.0005870530573039
  0
VERTEX
  5
226C
  8
0
 10
106.0325275791764
 20
190.5205217531061
 30
0.0
 42
-0.0000213744005228
 70
     1
  0
VERTEX
  5
226D
  8
0
 10
108.2722083601989
 20
190.38474596704529
 30
0.0
 42
-0.0030642153735896
  0
VERTEX
  5
226E
  8
0
 10
109.0429644581307
 20
190.3332447641651
 30
0.0
 42
-0.0015380960457133
 70
     1
  0
VERTEX
  5
226F
  8
0
 10
110.5774547782101
 20
190.21651498734551
 30
0.0
  0
SEQEND
  5
2270
  8
0
  0
LINE
  5
2271
  8
0
 10
101.37062566518701
 20
190.71671416571741
 30
0.0
 11
101.37062566518701
 21
182.71671416571741
 31
0.0
  0
POLYLINE
  5
2272
  8
0
 66
     1
 10
0.0
 20
0.0
 30
0.0
 70
   128
  0
VERTEX
  5
2582
  8
0
 10
108.8703018233569
 20
123.1841565554667
 30
0.0
  0
VERTEX
  5
2583
  8
0
 10
109.8341729792094
 20
124.87280444742269
 30
0.0
  0
VERTEX
  5
2584
  8
0
 10
110.8347754234548
 20
126.6459632036656
 30
0.0
  0
VERTEX
  5
2585
  8
0
 10
111.8220886071082
 20
128.43615936316951
 30
0.0
  0
VERTEX
  5
2586
  8
0
 10
112.7894678998738
 20
130.25191162756491
 30
0.0
  0
VERTEX
  5
2587
  8
0
 10
113.73026867145551
 20
132.10173869848219
 30
0.0
  0
VERTEX
  5
2588
  8
0
 10
114.23397256855679
 20
133.13675440585129
 30
0.0
  0
VERTEX
  5
2589
  8
0
 10
114.72721638263219
 20
134.1840345852014
 30
0.0
  0
VERTEX
  5
258A
  8
0
 10
115.2150067323699
 20
135.2270899543318
 30
0.0
  0
VERTEX
  5
258B
  8
0
 10
115.70489085344271
 20
136.2419880245356
 30
0.0
  0
VERTEX
  5
258C
  8
0
 10
116.0172809189818
 20
136.8547598989523
 30
0.0
  0
VERTEX
  5
258D
  8
0
 10
116.33536392232961
 20
137.44097981879429
 30
0.0
  0
VERTEX
  5
258E
  8
0
 10
116.6610178469703
 20
137.99469352331241
 30
0.0
  0
VERTEX
  5
258F
  8
0
 10
116.9961206763877
 20
138.5099467517573
 30
0.0
  0
VERTEX
  5
2590
  8
0
 10
117.3425503940659
 20
138.9807852433797
 30
0.0
  0
VERTEX
  5
2591
  8
0
 10
117.6512926797694
 20
139.34599704789099
 30
0.0
  0
VERTEX
  5
2592
  8
0
 10
117.9710195005124
 20
139.6700806289351
 30
0.0
  0
VERTEX
  5
2593
  8
0
 10
118.30292903599791
 20
139.94923708495759
 30
0.0
  0
VERTEX
  5
2594
  8
0
 10
118.6482194659292
 20
140.179667514404
 30
0.0
  0
VERTEX
  5
2595
  8
0
 10
119.0080889700092
 20
140.35757301571971
 30
0.0
  0
VERTEX
  5
2596
  8
0
 10
119.3581777400845
 20
140.4728777051298
 30
0.0
  0
VERTEX
  5
2597
  8
0
 10
119.72298441576881
 20
140.53602943301701
 30
0.0
  0
VERTEX
  5
2598
  8
0
 10
120.1034831615372
 20
140.54393955171761
 30
0.0
  0
VERTEX
  5
2599
  8
0
 10
120.28858207352189
 20
140.52762627704419
 30
0.0
  0
VERTEX
  5
259A
  8
0
 10
120.4774870368455
 20
140.49802579475909
 30
0.0
  0
VERTEX
  5
259B
  8
0
 10
120.6705572682378
 20
140.4536585786399
 30
0.0
  0
VERTEX
  5
259C
  8
0
 10
120.8697118236646
 20
140.38603346197081
 30
0.0
  0
VERTEX
  5
259D
  8
0
 10
121.0774547782095
 20
140.28402955592031
 30
0.0
  0
SEQEND
  5
259E
  8
0
  0
ARC
  5
2273
  8
0
 10
86.443480181994005
 20
118.3032674423871
 30
0.0
 40
0.5
 50
90.0
 51
180.0
  0
ARC
  5
2274
  8
0
 10
86.443480181994005
 20
113.3032674423871
 30
0.0
 40
0.5
 50
180.0
 51
270.0
  0
ARC
  5
2275
  8
0
 10
110.7934801819939
 20
100.2032674423871
 30
0.0
 40
0.5999999999999944
 50
90.0
 51
180.0
  0
ARC
  5
2276
  8
0
 10
103.093480181994
 20
100.2032674423871
 30
0.0
 40
0.5999999999999944
 50
0.0
 51
90.0
  0
LINE
  5
2277
  8
0
 10
99.437926873119636
 20
99.553267470326844
 30
0.0
 11
103.19070352755681
 21
99.553267470326844
 31
0.0
  0
LINE
  5
2278
  8
0
 10
103.19070352755681
 20
94.553267349254895
 30
0.0
 11
103.19070352755681
 21
99.553267470326844
 31
0.0
  0
LINE
  5
2279
  8
0
 10
99.437926873119636
 20
94.553267349254895
 30
0.0
 11
99.437926873119636
 21
99.553267470326844
 31
0.0
  0
LINE
  5
227A
  8
0
 10
99.437926873119636
 20
94.553267349254895
 30
0.0
 11
103.19070352755681
 21
94.553267349254895
 31
0.0
  0
LINE
  5
227B
  8
0
 10
114.4490334908683
 20
99.553267470326844
 30
0.0
 11
110.6962568364312
 21
99.553267470326844
 31
0.0
  0
LINE
  5
227C
  8
0
 10
114.4490334908683
 20
94.553267349254895
 30
0.0
 11
114.4490334908683
 21
99.553267470326844
 31
0.0
  0
LINE
  5
227D
  8
0
 10
110.6962568364312
 20
94.553267349254895
 30
0.0
 11
110.6962568364312
 21
99.553267470326844
 31
0.0
  0
LINE
  5
227E
  8
0
 10
114.4490334908683
 20
94.553267349254895
 30
0.0
 11
110.6962568364312
 21
94.553267349254895
 31
0.0
  0
LINE
  5
227F
  8
0
 10
110.6962568364312
 20
99.553267470326844
 30
0.0
 11
103.19070352755681
 21
99.553267470326844
 31
0.0
  0
LINE
  5
2280
  8
0
 10
110.6962568364312
 20
94.553267349254895
 30
0.0
 11
103.19070352755681
 21
94.553267349254895
 31
0.0
  0
LINE
  5
2281
  8
0
 10
86.443479615749879
 20
121.2032681785045
 30
0.0
 11
86.443479615749879
 21
118.8032666675267
 31
0.0
  0
LINE
  5
2282
  8
0
 10
86.443479615749879
 20
121.2032681785045
 30
0.0
 11
89.943479258122011
 21
121.2032681785045
 31
0.0
  0
LINE
  5
2283
  8
0
 10
89.943479258122011
 20
121.2032681785045
 30
0.0
 11
89.943479258122011
 21
118.8032666675267
 31
0.0
  0
LINE
  5
2284
  8
0
 10
86.443479615749879
 20
118.8032666675267
 30
0.0
 11
89.943479258122011
 21
118.8032666675267
 31
0.0
  0
LINE
  5
2285
  8
0
 10
93.443479831816717
 20
121.2032681785045
 30
0.0
 11
93.443479831816717
 21
118.8032666675267
 31
0.0
  0
LINE
  5
2286
  8
0
 10
89.943479258122011
 20
121.2032681785045
 30
0.0
 11
93.443479831816717
 21
121.2032681785045
 31
0.0
  0
CIRCLE
  5
2287
  8
0
 10
106.943480181994
 20
113.8032674423871
 30
0.0
 40
1.5000000000000111
  0
LINE
  5
2288
  8
0
 10
91.958837095202966
 20
108.5032674006639
 30
0.0
 11
91.958837095202966
 21
111.30326730082611
 31
0.0
  0
LINE
  5
2289
  8
0
 10
87.917390722336336
 20
108.5032674006639
 30
0.0
 11
87.917390722336336
 21
111.30326730082611
 31
0.0
  0
LINE
  5
228A
  8
0
 10
87.917390722336336
 20
108.5032674006639
 30
0.0
 11
91.958837095202966
 21
108.5032674006639
 31
0.0
  0
LINE
  5
228B
  8
0
 10
87.917390722336336
 20
111.30326730082611
 30
0.0
 11
91.958837095202966
 21
111.30326730082611
 31
0.0
  0
LINE
  5
228C
  8
0
 10
93.984927493633791
 20
108.5032674006639
 30
0.0
 11
93.984927493633791
 21
111.30326730082611
 31
0.0
  0
LINE
  5
228D
  8
0
 10
93.984927493633791
 20
108.5032674006639
 30
0.0
 11
91.958837095202966
 21
108.5032674006639
 31
0.0
  0
LINE
  5
228E
  8
0
 10
93.984927493633791
 20
111.30326730082611
 30
0.0
 11
91.958837095202966
 21
111.30326730082611
 31
0.0
  0
LINE
  5
228F
  8
0
 10
85.90203288525538
 20
108.5032674006639
 30
0.0
 11
85.90203288525538
 21
111.30326730082611
 31
0.0
  0
LINE
  5
2290
  8
0
 10
85.90203288525538
 20
108.5032674006639
 30
0.0
 11
87.917390722336336
 21
108.5032674006639
 31
0.0
  0
LINE
  5
2291
  8
0
 10
85.90203288525538
 20
111.30326730082611
 30
0.0
 11
87.917390722336336
 21
111.30326730082611
 31
0.0
  0
LINE
  5
2292
  8
0
 10
110.9503227153418
 20
102.5532647387344
 30
0.0
 11
114.6434801402707
 21
102.55326749640381
 31
0.0
  0
LINE
  5
2293
  8
0
 10
111.7019834700246
 20
102.55826741806101
 30
0.0
 11
111.7019834700246
 21
107.5482673465727
 31
0.0
  0
LINE
  5
2294
  8
0
 10
108.5374593739603
 20
105.20326741854529
 30
0.0
 11
108.5374593739603
 21
104.90326746250371
 31
0.0
  0
LINE
  5
2295
  8
0
 10
110.9503253313612
 20
107.5532676174758
 30
0.0
 11
114.6434801402707
 21
107.5532676174758
 31
0.0
  0
LINE
  5
2296
  8
0
 10
113.8716833437998
 20
116.9671828381238
 30
0.0
 11
114.8470598045011
 21
114.8754826269565
 31
0.0
  0
LINE
  5
2297
  8
0
 10
89.943479258122011
 20
113.3032676286516
 30
0.0
 11
93.943480181994005
 21
113.3032676286516
 31
0.0
  0
LINE
  5
2298
  8
0
 10
101.1941623089859
 20
118.8032666675267
 30
0.0
 11
89.943479258122011
 21
118.8032666675267
 31
0.0
  0
LINE
  5
2299
  8
0
 10
99.732377543600364
 20
109.8032670549569
 30
0.0
 11
99.232155341209932
 21
109.8032670549569
 31
0.0
  0
ARC
  5
229A
  8
0
 10
99.732377631066015
 20
109.3032674423871
 30
0.0
 40
0.5000000000000158
 50
55.542231217611658
 51
90.0
  0
ARC
  5
229B
  8
0
 10
94.443480181994005
 20
113.3032674423871
 30
0.0
 40
0.5
 50
90.0
 51
180.0
  0
LINE
  5
229C
  8
0
 10
89.943479258122011
 20
112.8032675466952
 30
0.0
 11
86.443479615749879
 21
112.8032675466952
 31
0.0
  0
ARC
  5
229D
  8
0
 10
95.479378566856212
 20
111.8032674423871
 30
0.0
 40
2.0
 50
30.000000000000991
 51
90.0
  0
ARC
  5
229E
  8
0
 10
99.232155316588774
 20
110.3032674423871
 30
0.0
 40
0.5
 50
210.00000000000151
 51
270.0
  0
ARC
  5
229F
  8
0
 10
115.61451298031911
 20
112.2743304094344
 30
0.0
 40
1.5874999999999999
 50
124.2093599181019
 51
215.7906400818971
  0
POLYLINE
  5
22A0
  8
0
 66
     1
 10
0.0
 20
0.0
 30
0.0
 70
   128
  0
VERTEX
  5
259F
  8
0
 10
114.3864001850803
 20
110.8701901964364
 30
0.0
  0
VERTEX
  5
25A0
  8
0
 10
114.11691547885729
 20
110.2618232823429
 30
0.0
  0
VERTEX
  5
25A1
  8
0
 10
113.8716833437998
 20
109.8032670549569
 30
0.0
  0
SEQEND
  5
25A2
  8
0
  0
ARC
  5
22A1
  8
0
 10
114.44088189625811
 20
114.0006694052651
 30
0.0
 40
0.5000000000000071
 50
304.20935991810188
 51
1.5082140836970881
  0
ARC
  5
22A2
  8
0
 10
93.443480181994005
 20
113.3032674423871
 30
0.0
 40
0.5
 50
270.0
 51
0.0
  0
LINE
  5
22A3
  8
0
 10
93.443479831816717
 20
112.8032675466952
 30
0.0
 11
89.943479258122011
 21
112.8032675466952
 31
0.0
  0
LINE
  5
22A4
  8
0
 10
95.479378919603391
 20
113.803267710608
 30
0.0
 11
94.44347999572949
 21
113.803267710608
 31
0.0
  0
ARC
  5
22A5
  8
0
 10
114.3939057235273
 20
114.66417350582719
 30
0.0
 40
0.5000000000000067
 50
6.5913670955829291
 51
24.99999999999908
  0
LINE
  5
22A6
  8
0
 10
98.799142498077913
 20
110.0532675615964
 30
0.0
 11
97.211429360808893
 21
112.8032675466952
 31
0.0
  0
ARC
  5
22A7
  8
0
 10
113.9212178003193
 20
111.0535078656592
 30
0.0
 40
0.5000000000000124
 50
338.49178591630329
 51
35.790640081896782
  0
ARC
  5
22A8
  8
0
 10
106.943480181994
 20
113.8032674423871
 30
0.0
 40
7.999999999999968
 50
1.5082140836970881
 51
6.5913670955829291
  0
LINE
  5
22A9
  8
0
 10
98.943479802014394
 20
108.80326782236671
 30
0.0
 11
99.749732739778324
 21
108.80326782236671
 31
0.0
  0
LINE
  5
22AA
  8
0
 10
100.01527702018809
 20
109.30326790432311
 30
0.0
 11
100.01527702018809
 21
117.3032673529802
 31
0.0
  0
LINE
  5
22AB
  8
0
 10
113.8716833437998
 20
117.3032673529802
 30
0.0
 11
100.01527702018809
 21
117.3032673529802
 31
0.0
  0
LINE
  5
22AC
  8
0
 10
113.8716833437998
 20
117.3032673529802
 30
0.0
 11
113.8716833437998
 21
109.30326790432311
 31
0.0
  0
LINE
  5
22AD
  8
0
 10
114.1372276242097
 20
108.80326782236671
 30
0.0
 11
114.9434805619736
 21
108.80326782236671
 31
0.0
  0
LINE
  5
22AE
  8
0
 10
98.943479802014394
 20
101.30326746613579
 30
0.0
 11
114.9434805619736
 21
101.30326746613579
 31
0.0
  0
LINE
  5
22AF
  8
0
 10
114.9434805619736
 20
107.803267658454
 30
0.0
 11
110.83699760541511
 21
107.803267658454
 31
0.0
  0
LINE
  5
22B0
  8
0
 10
114.9434805619736
 20
102.3032674554256
 30
0.0
 11
110.83699760541511
 21
102.3032674554256
 31
0.0
  0
LINE
  5
22B1
  8
0
 10
101.8200046154876
 20
118.8032666675267
 30
0.0
 11
112.0669557485004
 21
118.8032666675267
 31
0.0
  0
LINE
  5
22B2
  8
0
 10
114.4434800143559
 20
100.8032674423871
 30
0.0
 11
99.443480349632068
 21
100.8032674423871
 31
0.0
  0
LINE
  5
22B3
  8
0
 10
100.4600827354212
 20
118.3032675168929
 30
0.0
 11
89.943479258122011
 21
118.3032675168929
 31
0.0
  0
LINE
  5
22B4
  8
0
 10
89.943479258122011
 20
118.3032675168929
 30
0.0
 11
85.943480465116068
 21
118.3032675168929
 31
0.0
  0
LINE
  5
22B5
  8
0
 10
85.943480465116068
 20
113.3032676286516
 30
0.0
 11
89.943479258122011
 21
113.3032676286516
 31
0.0
  0
LINE
  5
22B6
  8
0
 10
110.1934802490492
 20
100.2032674138886
 30
0.0
 11
103.69348011493869
 21
100.2032674138886
 31
0.0
  0
POLYLINE
  5
22B7
  8
0
 66
     1
 10
0.0
 20
0.0
 30
0.0
 70
   128
  0
VERTEX
  5
25A3
  8
0
 10
182.06415689173591
 20
122.0974960764471
 30
0.0
  0
VERTEX
  5
25A4
  8
0
 10
182.03985893143351
 20
123.2613900383098
 30
0.0
  0
VERTEX
  5
25A5
  8
0
 10
182.00529896686561
 20
124.4304173490852
 30
0.0
  0
VERTEX
  5
25A6
  8
0
 10
181.9502149937675
 20
125.6097113576858
 30
0.0
  0
VERTEX
  5
25A7
  8
0
 10
181.86434500787351
 20
126.8044054130242
 30
0.0
  0
VERTEX
  5
25A8
  8
0
 10
181.7685935148551
 20
127.75724117631189
 30
0.0
  0
VERTEX
  5
25A9
  8
0
 10
181.6425234837248
 20
128.72524314209031
 30
0.0
  0
VERTEX
  5
25AA
  8
0
 10
181.4811572440469
 20
129.7109012839027
 30
0.0
  0
VERTEX
  5
25AB
  8
0
 10
181.27951712538501
 20
130.71670557529239
 30
0.0
  0
VERTEX
  5
25AC
  8
0
 10
181.12025789353959
 20
131.3996636914375
 30
0.0
  0
VERTEX
  5
25AD
  8
0
 10
180.94026480336831
 20
132.0930880318966
 30
0.0
  0
VERTEX
  5
25AE
  8
0
 10
180.74852881373801
 20
132.7936414428782
 30
0.0
  0
VERTEX
  5
25AF
  8
0
 10
180.56010289585879
 20
133.495626494178
 30
0.0
  0
VERTEX
  5
25B0
  8
0
 10
180.3901349496075
 20
134.193308794616
 30
0.0
  0
VERTEX
  5
25B1
  8
0
 10
180.253772874861
 20
134.8809539530119
 30
0.0
  0
VERTEX
  5
25B2
  8
0
 10
180.1884815869401
 20
135.33552613691401
 30
0.0
  0
VERTEX
  5
25B3
  8
0
 10
180.14993017842821
 20
135.78119334414731
 30
0.0
  0
VERTEX
  5
25B4
  8
0
 10
180.1427457186405
 20
136.21620395067879
 30
0.0
  0
VERTEX
  5
25B5
  8
0
 10
180.1507507576955
 20
136.33362847143849
 30
0.0
  0
SEQEND
  5
25B6
  8
0
  0
POLYLINE
  5
22B8
  8
0
 66
     1
 10
0.0
 20
0.0
 30
0.0
 70
   128
  0
VERTEX
  5
25B7
  8
0
 10
182.06415689173591
 20
122.0974960764471
 30
0.0
  0
VERTEX
  5
25B8
  8
0
 10
182.03985893143351
 20
123.2613900383098
 30
0.0
  0
VERTEX
  5
25B9
  8
0
 10
182.00529896686561
 20
124.4304173490852
 30
0.0
  0
VERTEX
  5
25BA
  8
0
 10
181.9502149937675
 20
125.6097113576858
 30
0.0
  0
VERTEX
  5
25BB
  8
0
 10
181.86434500787351
 20
126.8044054130242
 30
0.0
  0
VERTEX
  5
25BC
  8
0
 10
181.7685935148551
 20
127.75724117631189
 30
0.0
  0
VERTEX
  5
25BD
  8
0
 10
181.6425234837248
 20
128.72524314209031
 30
0.0
  0
VERTEX
  5
25BE
  8
0
 10
181.4811572440469
 20
129.7109012839027
 30
0.0
  0
VERTEX
  5
25BF
  8
0
 10
181.27951712538501
 20
130.71670557529239
 30
0.0
  0
VERTEX
  5
25C0
  8
0
 10
181.12025789353959
 20
131.3996636914375
 30
0.0
  0
VERTEX
  5
25C1
  8
0
 10
180.94026480336831
 20
132.0930880318966
 30
0.0
  0
VERTEX
  5
25C2
  8
0
 10
180.74852881373801
 20
132.7936414428782
 30
0.0
  0
VERTEX
  5
25C3
  8
0
 10
180.56010289585879
 20
133.495626494178
 30
0.0
  0
VERTEX
  5
25C4
  8
0
 10
180.3901349496075
 20
134.193308794616
 30
0.0
  0
VERTEX
  5
25C5
  8
0
 10
180.253772874861
 20
134.8809539530119
 30
0.0
  0
VERTEX
  5
25C6
  8
0
 10
180.1884815869401
 20
135.33552613691401
 30
0.0
  0
VERTEX
  5
25C7
  8
0
 10
180.14993017842821
 20
135.78119334414731
 30
0.0
  0
VERTEX
  5
25C8
  8
0
 10
180.1427457186405
 20
136.21620395067879
 30
0.0
  0
VERTEX
  5
25C9
  8
0
 10
180.1507507576955
 20
136.33362847143849
 30
0.0
  0
SEQEND
  5
25CA
  8
0
  0
POLYLINE
  5
22B9
  8
0
 66
     1
 10
0.0
 20
0.0
 30
0.0
 70
   128
  0
VERTEX
  5
25CB
  8
0
 10
189.0637585349921
 20
122.0974960764471
 30
0.0
  0
VERTEX
  5
25CC
  8
0
 10
189.08805649529461
 20
123.2613900383098
 30
0.0
  0
VERTEX
  5
25CD
  8
0
 10
189.12261645986229
 20
124.4304173490852
 30
0.0
  0
VERTEX
  5
25CE
  8
0
 10
189.17770043296039
 20
125.6097113576858
 30
0.0
  0
VERTEX
  5
25CF
  8
0
 10
189.26357041885441
 20
126.8044054130242
 30
0.0
  0
VERTEX
  5
25D0
  8
0
 10
189.35932191187291
 20
127.75724117631189
 30
0.0
  0
VERTEX
  5
25D1
  8
0
 10
189.48539194300301
 20
128.72524314209031
 30
0.0
  0
VERTEX
  5
25D2
  8
0
 10
189.64675818268111
 20
129.7109012839027
 30
0.0
  0
VERTEX
  5
25D3
  8
0
 10
189.84839830134291
 20
130.71670557529239
 30
0.0
  0
VERTEX
  5
25D4
  8
0
 10
190.00765753318839
 20
131.3996636914375
 30
0.0
  0
VERTEX
  5
25D5
  8
0
 10
190.18765062335959
 20
132.0930880318966
 30
0.0
  0
VERTEX
  5
25D6
  8
0
 10
190.37938661298989
 20
132.7936414428782
 30
0.0
  0
VERTEX
  5
25D7
  8
0
 10
190.56781253086919
 20
133.495626494178
 30
0.0
  0
VERTEX
  5
25D8
  8
0
 10
190.73778047712051
 20
134.193308794616
 30
0.0
  0
VERTEX
  5
25D9
  8
0
 10
190.8741425518669
 20
134.8809539530119
 30
0.0
  0
VERTEX
  5
25DA
  8
0
 10
190.93943383978771
 20
135.33552613691401
 30
0.0
  0
VERTEX
  5
25DB
  8
0
 10
190.9779852482996
 20
135.78119334414731
 30
0.0
  0
VERTEX
  5
25DC
  8
0
 10
190.9851697080874
 20
136.21620395067879
 30
0.0
  0
VERTEX
  5
25DD
  8
0
 10
190.95636014983569
 20
136.63880633247561
 30
0.0
  0
VERTEX
  5
25DE
  8
0
 10
190.8869295042291
 20
137.04724886550511
 30
0.0
  0
SEQEND
  5
25DF
  8
0
  0
ARC
  5
22BA
  8
0
 10
192.063957713364
 20
117.3032674423871
 30
0.0
 40
1.5
 50
0.0
 51
90.0
  0
ARC
  5
22BB
  8
0
 10
179.06395771336389
 20
117.3032674423871
 30
0.0
 40
1.5
 50
90.0
 51
180.0
  0
ARC
  5
22BC
  8
0
 10
189.41395771336411
 20
100.2032674423871
 30
0.0
 40
0.5999999999999944
 50
90.0
 51
180.0
  0
ARC
  5
22BD
  8
0
 10
181.71395771336401
 20
100.2032674423871
 30
0.0
 40
0.5999999999999944
 50
0.0
 51
90.0
  0
LINE
  5
22BE
  8
0
 10
185.56395771336389
 20
99.553267442387167
 30
0.0
 11
192.06395771336389
 21
99.553267442387167
 31
0.0
  0
LINE
  5
22BF
  8
0
 10
192.06395771336389
 20
94.553267442387167
 30
0.0
 11
192.06395771336389
 21
99.553267442387167
 31
0.0
  0
LINE
  5
22C0
  8
0
 10
185.56395771336389
 20
94.553267442387167
 30
0.0
 11
192.06395771336389
 21
94.553267442387167
 31
0.0
  0
LINE
  5
22C1
  8
0
 10
185.56395771336389
 20
94.553267442387167
 30
0.0
 11
185.56395771336389
 21
99.553267442387167
 31
0.0
  0
LINE
  5
22C2
  8
0
 10
179.06395771336389
 20
94.553267442387167
 30
0.0
 11
179.06395771336389
 21
99.553267442387167
 31
0.0
  0
LINE
  5
22C3
  8
0
 10
185.56395771336389
 20
94.553267442387167
 30
0.0
 11
179.06395771336389
 21
94.553267442387167
 31
0.0
  0
LINE
  5
22C4
  8
0
 10
185.56395771336389
 20
99.553267442387167
 30
0.0
 11
179.06395771336389
 21
99.553267442387167
 31
0.0
  0
LINE
  5
22C5
  8
0
 10
189.17602638325101
 20
121.2032674423871
 30
0.0
 11
189.60540959769151
 21
121.2032674423871
 31
0.0
  0
LINE
  5
22C6
  8
0
 10
189.60540959769151
 20
121.2032674423871
 30
0.0
 11
189.60540959769151
 21
118.8032674423871
 31
0.0
  0
LINE
  5
22C7
  8
0
 10
181.5225058290367
 20
121.2032674423871
 30
0.0
 11
181.5225058290367
 21
118.8032674423871
 31
0.0
  0
LINE
  5
22C8
  8
0
 10
181.5225058290367
 20
121.2032674423871
 30
0.0
 11
181.9518890434768
 21
121.2032674423871
 31
0.0
  0
LINE
  5
22C9
  8
0
 10
184.81395771336389
 20
117.15403805818271
 30
0.0
 11
184.81395771336389
 21
116.3691524909613
 31
0.0
  0
LINE
  5
22CA
  8
0
 10
184.81395771336389
 20
116.3691524909613
 30
0.0
 11
185.56395771336389
 21
115.97670970735059
 31
0.0
  0
LINE
  5
22CB
  8
0
 10
185.56395771336389
 20
115.97670970735059
 30
0.0
 11
186.31395771336389
 21
116.3691524909613
 31
0.0
  0
LINE
  5
22CC
  8
0
 10
186.31395771336389
 20
116.3691524909613
 30
0.0
 11
186.31395771336389
 21
117.15403805818271
 31
0.0
  0
LINE
  5
22CD
  8
0
 10
186.31395771336389
 20
117.15403805818271
 30
0.0
 11
185.56395771336389
 21
117.5464808417934
 31
0.0
  0
LINE
  5
22CE
  8
0
 10
185.56395771336389
 20
117.5464808417934
 30
0.0
 11
184.81395771336389
 21
117.15403805818271
 31
0.0
  0
LINE
  5
22CF
  8
0
 10
186.31395771336389
 20
116.52011066557171
 30
0.0
 11
185.56395771336389
 21
116.9125534491824
 31
0.0
  0
LINE
  5
22D0
  8
0
 10
185.56395771336389
 20
116.9125534491824
 30
0.0
 11
185.56395771336389
 21
117.5464808417934
 31
0.0
  0
LINE
  5
22D1
  8
0
 10
185.56395771336389
 20
116.9125534491824
 30
0.0
 11
184.81395771336389
 21
116.52011066557171
 31
0.0
  0
LINE
  5
22D2
  8
0
 10
193.14826588368939
 20
105.2032674423871
 30
0.0
 11
193.14826588368939
 21
104.9032674423872
 31
0.0
  0
LINE
  5
22D3
  8
0
 10
178.8200640042763
 20
102.5532674423871
 30
0.0
 11
192.30785142245171
 21
102.5532674423871
 31
0.0
  0
LINE
  5
22D4
  8
0
 10
179.44683841346219
 20
102.55826744238711
 30
0.0
 11
179.44683841346219
 21
107.5482674423871
 31
0.0
  0
LINE
  5
22D5
  8
0
 10
177.97964954303859
 20
105.2032674423871
 30
0.0
 11
177.97964954303859
 21
104.9032674423872
 31
0.0
  0
LINE
  5
22D6
  8
0
 10
178.8200640042763
 20
107.5532674423871
 30
0.0
 11
192.30785142245171
 21
107.5532674423871
 31
0.0
  0
ARC
  5
22D7
  8
0
 10
189.10346891624599
 20
114.0484466009467
 30
0.0
 40
0.4629606815900684
 50
265.1041579173941
 51
354.07657238654531
  0
LINE
  5
22D8
  8
0
 10
189.06395771336389
 20
113.5871750350063
 30
0.0
 11
182.06395771336389
 21
113.5871750350063
 31
0.0
  0
ARC
  5
22D9
  8
0
 10
182.02444651048191
 20
114.0484466009466
 30
0.0
 40
0.4629606815899789
 50
185.92342761344739
 51
274.89584208262562
  0
POLYLINE
  5
22DA
  8
0
 66
     1
 10
0.0
 20
0.0
 30
0.0
 70
   128
  0
VERTEX
  5
25E0
  8
0
 10
189.56395771336389
 20
114.66417350582719
 30
0.0
  0
VERTEX
  5
25E1
  8
0
 10
189.55435035356561
 20
114.70539787221369
 30
0.0
  0
VERTEX
  5
25E2
  8
0
 10
189.5258974796196
 20
114.7450380093188
 30
0.0
  0
VERTEX
  5
25E3
  8
0
 10
189.4796925195152
 20
114.7815705689041
 30
0.0
  0
VERTEX
  5
25E4
  8
0
 10
189.4175111039572
 20
114.8135916251923
 30
0.0
  0
VERTEX
  5
25E5
  8
0
 10
189.34174282987379
 20
114.839870626948
 30
0.0
  0
VERTEX
  5
25E6
  8
0
 10
189.25529942954651
 20
114.85939768687111
 30
0.0
  0
VERTEX
  5
25E7
  8
0
 10
189.1615028743721
 20
114.8714223909997
 30
0.0
  0
VERTEX
  5
25E8
  8
0
 10
189.06395771336389
 20
114.8754826366976
 30
0.0
  0
SEQEND
  5
25E9
  8
0
  0
LINE
  5
22DB
  8
0
 10
182.06395771336389
 20
114.8754826366976
 30
0.0
 11
189.06395771336389
 21
114.8754826366976
 31
0.0
  0
POLYLINE
  5
22DC
  8
0
 66
     1
 10
0.0
 20
0.0
 30
0.0
 70
   128
  0
VERTEX
  5
25EA
  8
0
 10
181.56395771336389
 20
114.66417350582719
 30
0.0
  0
VERTEX
  5
25EB
  8
0
 10
181.5735650731624
 20
114.70539787221369
 30
0.0
  0
VERTEX
  5
25EC
  8
0
 10
181.60201794710841
 20
114.7450380093188
 30
0.0
  0
VERTEX
  5
25ED
  8
0
 10
181.6482229072127
 20
114.7815705689041
 30
0.0
  0
VERTEX
  5
25EE
  8
0
 10
181.7104043227707
 20
114.8135916251923
 30
0.0
  0
VERTEX
  5
25EF
  8
0
 10
181.7861725968541
 20
114.839870626948
 30
0.0
  0
VERTEX
  5
25F0
  8
0
 10
181.8726159971815
 20
114.85939768687111
 30
0.0
  0
VERTEX
  5
25F1
  8
0
 10
181.96641255235591
 20
114.8714223909997
 30
0.0
  0
VERTEX
  5
25F2
  8
0
 10
182.06395771336389
 20
114.8754826366976
 30
0.0
  0
SEQEND
  5
25F3
  8
0
  0
POLYLINE
  5
22DD
  8
0
 66
     1
 10
0.0
 20
0.0
 30
0.0
 70
   128
  0
VERTEX
  5
25F4
  8
0
 10
184.9720407124376
 20
118.5145765732785
 30
0.0
  0
VERTEX
  5
25F5
  8
0
 10
184.69467795117319
 20
118.3985481527945
 30
0.0
  0
VERTEX
  5
25F6
  8
0
 10
184.44380375234971
 20
118.2405743203938
 30
0.0
  0
VERTEX
  5
25F7
  8
0
 10
184.2270627168991
 20
118.04546883098659
 30
0.0
  0
VERTEX
  5
25F8
  8
0
 10
184.05105934512241
 20
117.81917690976211
 30
0.0
  0
VERTEX
  5
25F9
  8
0
 10
183.92115678534751
 20
117.5685940901792
 30
0.0
  0
VERTEX
  5
25FA
  8
0
 10
183.84131340887831
 20
117.3013560943054
 30
0.0
  0
VERTEX
  5
25FB
  8
0
 10
183.81396219109899
 20
117.02560615824051
 30
0.0
  0
VERTEX
  5
25FC
  8
0
 10
183.83993657421209
 20
116.7497468926482
 30
0.0
  0
VERTEX
  5
25FD
  8
0
 10
183.91844507071451
 20
116.4821842396651
 30
0.0
  0
VERTEX
  5
25FE
  8
0
 10
184.0470953814837
 20
116.23107132829369
 30
0.0
  0
VERTEX
  5
25FF
  8
0
 10
184.22196729355991
 20
116.00406003347889
 30
0.0
  0
VERTEX
  5
2600
  8
0
 10
184.43773213628509
 20
115.8080678093237
 30
0.0
  0
VERTEX
  5
2601
  8
0
 10
184.68781515575671
 20
115.6490669014655
 30
0.0
  0
VERTEX
  5
2602
  8
0
 10
184.964595859741
 20
115.5319023617035
 30
0.0
  0
VERTEX
  5
2603
  8
0
 10
185.25964022816891
 20
115.460144410308
 30
0.0
  0
VERTEX
  5
2604
  8
0
 10
185.56395771332981
 20
115.4359796448034
 30
0.0
  0
VERTEX
  5
2605
  8
0
 10
185.86827519849169
 20
115.4601444102972
 30
0.0
  0
VERTEX
  5
2606
  8
0
 10
186.1633195669227
 20
115.5319023616823
 30
0.0
  0
VERTEX
  5
2607
  8
0
 10
186.44010027091201
 20
115.64906690143449
 30
0.0
  0
VERTEX
  5
2608
  8
0
 10
186.69018329039059
 20
115.8080678092838
 30
0.0
  0
VERTEX
  5
2609
  8
0
 10
186.9059481331241
 20
116.0040600334314
 30
0.0
  0
VERTEX
  5
260A
  8
0
 10
187.0808200452102
 20
116.23107132823991
 30
0.0
  0
VERTEX
  5
260B
  8
0
 10
187.20947035599031
 20
116.4821842396068
 30
0.0
  0
VERTEX
  5
260C
  8
0
 10
187.28797885250401
 20
116.7497468925872
 30
0.0
  0
VERTEX
  5
260D
  8
0
 10
187.3139532356291
 20
117.0256061581785
 30
0.0
  0
VERTEX
  5
260E
  8
0
 10
187.28660201786161
 20
117.3013560942444
 30
0.0
  0
VERTEX
  5
260F
  8
0
 10
187.20675864140401
 20
117.568594090121
 30
0.0
  0
VERTEX
  5
2610
  8
0
 10
187.0768560816399
 20
117.8191769097086
 30
0.0
  0
VERTEX
  5
2611
  8
0
 10
186.90085270987299
 20
118.0454688309392
 30
0.0
  0
VERTEX
  5
2612
  8
0
 10
186.68411167443071
 20
118.2405743203541
 30
0.0
  0
VERTEX
  5
2613
  8
0
 10
186.43323747561411
 20
118.39854815276369
 30
0.0
  0
VERTEX
  5
2614
  8
0
 10
186.15587471435481
 20
118.5145765732575
 30
0.0
  0
SEQEND
  5
2615
  8
0
  0
LINE
  5
22DE
  8
0
 10
189.06395771336389
 20
110.8701905605441
 30
0.0
 11
186.79495964004661
 21
110.8701905605442
 31
0.0
  0
LINE
  5
22DF
  8
0
 10
184.3329557866814
 20
110.8701905605441
 30
0.0
 11
182.06395771336389
 21
110.8701905605441
 31
0.0
  0
ARC
  5
22E0
  8
0
 10
186.86829364909849
 20
112.06402873184039
 30
0.0
 40
1.196088398124338
 50
252.0834999734798
 51
266.48490350795669
  0
ARC
  5
22E1
  8
0
 10
184.259621777631
 20
112.064028731831
 30
0.0
 40
1.196088398115007
 50
273.51509649200409
 51
287.91650002659549
  0
POLYLINE
  5
22E2
  8
0
 66
     1
 10
0.0
 20
0.0
 30
0.0
 70
   128
  0
VERTEX
  5
2616
  8
0
 10
185.56395771336389
 20
117.94359387504301
 30
0.0
  0
VERTEX
  5
2617
  8
0
 10
185.3040680998418
 20
117.9188376255175
 30
0.0
  0
VERTEX
  5
2618
  8
0
 10
185.05553690951919
 20
117.845650843839
 30
0.0
  0
VERTEX
  5
2619
  8
0
 10
184.82922614799841
 20
117.7272321435559
 30
0.0
  0
VERTEX
  5
261A
  8
0
 10
184.63502668151719
 20
117.56875699010671
 30
0.0
  0
VERTEX
  5
261B
  8
0
 10
184.48142595863339
 20
117.3771515081451
 30
0.0
  0
VERTEX
  5
261C
  8
0
 10
184.37513706799501
 20
117.16078977665801
 30
0.0
  0
VERTEX
  5
261D
  8
0
 10
184.3208053441536
 20
116.9291278415302
 30
0.0
  0
VERTEX
  5
261E
  8
0
 10
184.3208053441536
 20
116.6922904409641
 30
0.0
  0
VERTEX
  5
261F
  8
0
 10
184.37513706799501
 20
116.4606285058363
 30
0.0
  0
VERTEX
  5
2620
  8
0
 10
184.48142595863339
 20
116.2442667743493
 30
0.0
  0
VERTEX
  5
2621
  8
0
 10
184.63502668151719
 20
116.0526612923877
 30
0.0
  0
VERTEX
  5
2622
  8
0
 10
184.82922614799841
 20
115.89418613893839
 30
0.0
  0
VERTEX
  5
2623
  8
0
 10
185.05553690951919
 20
115.77576743865539
 30
0.0
  0
VERTEX
  5
2624
  8
0
 10
185.3040680998418
 20
115.70258065697681
 30
0.0
  0
VERTEX
  5
2625
  8
0
 10
185.56395771336389
 20
115.6778244074514
 30
0.0
  0
VERTEX
  5
2626
  8
0
 10
185.82384732688621
 20
115.70258065697681
 30
0.0
  0
VERTEX
  5
2627
  8
0
 10
186.0723785172087
 20
115.77576743865539
 30
0.0
  0
VERTEX
  5
2628
  8
0
 10
186.2986892787296
 20
115.89418613893839
 30
0.0
  0
VERTEX
  5
2629
  8
0
 10
186.49288874521071
 20
116.0526612923877
 30
0.0
  0
VERTEX
  5
262A
  8
0
 10
186.6464894680945
 20
116.2442667743493
 30
0.0
  0
VERTEX
  5
262B
  8
0
 10
186.75277835873291
 20
116.4606285058363
 30
0.0
  0
VERTEX
  5
262C
  8
0
 10
186.8071100825743
 20
116.6922904409641
 30
0.0
  0
VERTEX
  5
262D
  8
0
 10
186.8071100825743
 20
116.9291278415302
 30
0.0
  0
VERTEX
  5
262E
  8
0
 10
186.75277835873291
 20
117.16078977665801
 30
0.0
  0
VERTEX
  5
262F
  8
0
 10
186.6464894680945
 20
117.3771515081451
 30
0.0
  0
VERTEX
  5
2630
  8
0
 10
186.49288874521071
 20
117.56875699010671
 30
0.0
  0
VERTEX
  5
2631
  8
0
 10
186.29868927872951
 20
117.7272321435559
 30
0.0
  0
VERTEX
  5
2632
  8
0
 10
186.0723785172087
 20
117.845650843839
 30
0.0
  0
VERTEX
  5
2633
  8
0
 10
185.8238473268861
 20
117.9188376255175
 30
0.0
  0
VERTEX
  5
2634
  8
0
 10
185.56395771336389
 20
117.94359387504301
 30
0.0
  0
SEQEND
  5
2635
  8
0
  0
POLYLINE
  5
22E3
  8
0
 66
     1
 10
0.0
 20
0.0
 30
0.0
 70
   128
  0
VERTEX
  5
2636
  8
0
 10
189.56395771336389
 20
111.0535078656592
 30
0.0
  0
VERTEX
  5
2637
  8
0
 10
189.55435035356561
 20
111.0177444335732
 30
0.0
  0
VERTEX
  5
2638
  8
0
 10
189.5258974796196
 20
110.98335537012581
 30
0.0
  0
VERTEX
  5
2639
  8
0
 10
189.47969251951531
 20
110.9516622277398
 30
0.0
  0
VERTEX
  5
263A
  8
0
 10
189.4175111039572
 20
110.9238829561034
 30
0.0
  0
VERTEX
  5
263B
  8
0
 10
189.34174282987379
 20
110.9010850970467
 30
0.0
  0
VERTEX
  5
263C
  8
0
 10
189.25529942954651
 20
110.8841447595082
 30
0.0
  0
VERTEX
  5
263D
  8
0
 10
189.1615028743721
 20
110.87371295115901
 30
0.0
  0
VERTEX
  5
263E
  8
0
 10
189.06395771336389
 20
110.8701905605441
 30
0.0
  0
SEQEND
  5
263F
  8
0
  0
POLYLINE
  5
22E4
  8
0
 66
     1
 10
0.0
 20
0.0
 30
0.0
 70
   128
  0
VERTEX
  5
2640
  8
0
 10
181.56395771336389
 20
111.0535078656592
 30
0.0
  0
VERTEX
  5
2641
  8
0
 10
181.5735650731624
 20
111.0177444335732
 30
0.0
  0
VERTEX
  5
2642
  8
0
 10
181.60201794710841
 20
110.98335537012581
 30
0.0
  0
VERTEX
  5
2643
  8
0
 10
181.6482229072127
 20
110.9516622277398
 30
0.0
  0
VERTEX
  5
2644
  8
0
 10
181.7104043227707
 20
110.9238829561034
 30
0.0
  0
VERTEX
  5
2645
  8
0
 10
181.7861725968541
 20
110.9010850970467
 30
0.0
  0
VERTEX
  5
2646
  8
0
 10
181.8726159971815
 20
110.8841447595082
 30
0.0
  0
VERTEX
  5
2647
  8
0
 10
181.96641255235591
 20
110.87371295115901
 30
0.0
  0
VERTEX
  5
2648
  8
0
 10
182.06395771336389
 20
110.8701905605441
 30
0.0
  0
SEQEND
  5
2649
  8
0
  0
LINE
  5
22E6
  8
0
 10
181.56395771336389
 20
118.8032674423871
 30
0.0
 11
181.56395771336389
 21
109.3032674423871
 31
0.0
  0
LINE
  5
22E7
  8
0
 10
182.06395771336389
 20
108.8032674423871
 30
0.0
 11
189.06395771336389
 21
108.8032674423871
 31
0.0
  0
LINE
  5
22E8
  8
0
 10
189.56395771336389
 20
118.8032674423872
 30
0.0
 11
189.56395771336389
 21
109.3032674423871
 31
0.0
  0
LINE
  5
22E9
  8
0
 10
177.56395771336389
 20
101.3032674423871
 30
0.0
 11
193.563957713364
 21
101.3032674423871
 31
0.0
  0
ARC
  5
22EA
  8
0
 10
201.03381422502079
 20
113.8032676091815
 30
0.0
 40
7.7967662182665167
 50
163.3496433611862
 51
196.6503003302623
  0
LINE
  5
22EB
  8
0
 10
192.5525571947006
 20
107.8032674423871
 30
0.0
 11
178.5753582320275
 21
107.8032674423871
 31
0.0
  0
LINE
  5
22EC
  8
0
 10
192.5525571947006
 20
102.3032674423871
 30
0.0
 11
178.5753582320275
 21
102.3032674423871
 31
0.0
  0
LINE
  5
22ED
  8
0
 10
193.06395771336389
 20
100.8032674423871
 30
0.0
 11
178.06395771336409
 21
100.8032674423871
 31
0.0
  0
LINE
  5
22EE
  8
0
 10
189.49490910020819
 20
118.8032674423871
 30
0.0
 11
192.063957713364
 21
118.8032674423871
 31
0.0
  0
LINE
  5
22EF
  8
0
 10
179.06395771336511
 20
118.8032674423871
 30
0.0
 11
181.63300632651979
 21
118.8032674423871
 31
0.0
  0
LINE
  5
22F0
  8
0
 10
193.563957713364
 20
117.3032674423871
 30
0.0
 11
189.56395771336389
 21
117.3032674423871
 31
0.0
  0
LINE
  5
22F1
  8
0
 10
181.56395771336389
 20
117.3032674423871
 30
0.0
 11
177.56395771336389
 21
117.3032674423871
 31
0.0
  0
LINE
  5
22F2
  8
0
 10
188.813957713364
 20
100.2032674423871
 30
0.0
 11
182.313957713364
 21
100.2032674423871
 31
0.0
  0
POLYLINE
  5
22F3
  8
0
 66
     1
 10
0.0
 20
0.0
 30
0.0
 70
   128
  0
VERTEX
  5
264A
  8
0
 10
31.784841379326281
 20
122.0974960764471
 30
0.0
  0
VERTEX
  5
264B
  8
0
 10
31.809139339628821
 20
123.2613900383098
 30
0.0
  0
VERTEX
  5
264C
  8
0
 10
31.843699304196551
 20
124.4304173490852
 30
0.0
  0
VERTEX
  5
264D
  8
0
 10
31.8987832772948
 20
125.6097113576858
 30
0.0
  0
VERTEX
  5
264E
  8
0
 10
31.984653263188651
 20
126.8044054130242
 30
0.0
  0
VERTEX
  5
264F
  8
0
 10
32.080404756207258
 20
127.75724117631189
 30
0.0
  0
VERTEX
  5
2650
  8
0
 10
32.206474787337363
 20
128.72524314209031
 30
0.0
  0
VERTEX
  5
2651
  8
0
 10
32.367841027015288
 20
129.7109012839027
 30
0.0
  0
VERTEX
  5
2652
  8
0
 10
32.569481145677287
 20
130.71670557529239
 30
0.0
  0
VERTEX
  5
2653
  8
0
 10
32.728740377522627
 20
131.3996636914375
 30
0.0
  0
VERTEX
  5
2654
  8
0
 10
32.908733467693878
 20
132.0930880318966
 30
0.0
  0
VERTEX
  5
2655
  8
0
 10
33.100469457324273
 20
132.7936414428782
 30
0.0
  0
VERTEX
  5
2656
  8
0
 10
33.288895375203431
 20
133.495626494178
 30
0.0
  0
VERTEX
  5
2657
  8
0
 10
33.458863321454722
 20
134.193308794616
 30
0.0
  0
VERTEX
  5
2658
  8
0
 10
33.595225396201158
 20
134.8809539530119
 30
0.0
  0
VERTEX
  5
2659
  8
0
 10
33.660516684122058
 20
135.33552613691401
 30
0.0
  0
VERTEX
  5
265A
  8
0
 10
33.699068092633979
 20
135.78119334414731
 30
0.0
  0
VERTEX
  5
265B
  8
0
 10
33.706252552421688
 20
136.21620395067879
 30
0.0
  0
VERTEX
  5
265C
  8
0
 10
33.677442994169951
 20
136.63880633247561
 30
0.0
  0
VERTEX
  5
265D
  8
0
 10
33.60801234856342
 20
137.04724886550511
 30
0.0
  0
SEQEND
  5
265E
  8
0
  0
POLYLINE
  5
22F4
  8
0
 66
     1
 10
0.0
 20
0.0
 30
0.0
 70
   128
  0
VERTEX
  5
265F
  8
0
 10
24.785239736070249
 20
122.0974960764471
 30
0.0
  0
VERTEX
  5
2660
  8
0
 10
24.760941775767719
 20
123.2613900383098
 30
0.0
  0
VERTEX
  5
2661
  8
0
 10
24.726381811199989
 20
124.4304173490852
 30
0.0
  0
VERTEX
  5
2662
  8
0
 10
24.67129783810174
 20
125.6097113576858
 30
0.0
  0
VERTEX
  5
2663
  8
0
 10
24.585427852207889
 20
126.8044054130242
 30
0.0
  0
VERTEX
  5
2664
  8
0
 10
24.489676359189279
 20
127.75724117631189
 30
0.0
  0
VERTEX
  5
2665
  8
0
 10
24.363606328059181
 20
128.72524314209031
 30
0.0
  0
VERTEX
  5
2666
  8
0
 10
24.202240088381249
 20
129.7109012839027
 30
0.0
  0
VERTEX
  5
2667
  8
0
 10
24.00059996971925
 20
130.71670557529239
 30
0.0
  0
VERTEX
  5
2668
  8
0
 10
23.84134073787391
 20
131.3996636914375
 30
0.0
  0
VERTEX
  5
2669
  8
0
 10
23.661347647702542
 20
132.0930880318966
 30
0.0
  0
VERTEX
  5
266A
  8
0
 10
23.469611658072271
 20
132.7936414428782
 30
0.0
  0
VERTEX
  5
266B
  8
0
 10
23.281185740192999
 20
133.495626494178
 30
0.0
  0
VERTEX
  5
266C
  8
0
 10
23.111217793941819
 20
134.193308794616
 30
0.0
  0
VERTEX
  5
266D
  8
0
 10
22.974855719195261
 20
134.8809539530119
 30
0.0
  0
VERTEX
  5
266E
  8
0
 10
22.909564431274479
 20
135.33552613691401
 30
0.0
  0
VERTEX
  5
266F
  8
0
 10
22.871013022762551
 20
135.78119334414731
 30
0.0
  0
VERTEX
  5
2670
  8
0
 10
22.863828562974732
 20
136.21620395067879
 30
0.0
  0
VERTEX
  5
2671
  8
0
 10
22.87183360202982
 20
136.33362847144051
 30
0.0
  0
SEQEND
  5
2672
  8
0
  0
ARC
  5
22F5
  8
0
 10
21.78504055769827
 20
117.3032674423871
 30
0.0
 40
1.5
 50
90.0
 51
180.0
  0
ARC
  5
22F6
  8
0
 10
34.785040557698267
 20
117.3032674423871
 30
0.0
 40
1.5
 50
0.0
 51
90.0
  0
ARC
  5
22F7
  8
0
 10
32.135040557698289
 20
100.2032674423871
 30
0.0
 40
0.5999999999999944
 50
90.0
 51
180.0
  0
ARC
  5
22F8
  8
0
 10
24.435040557698251
 20
100.2032674423871
 30
0.0
 40
0.5999999999999944
 50
0.0
 51
90.0
  0
LINE
  5
22F9
  8
0
 10
28.28504055769838
 20
94.553267442387167
 30
0.0
 11
28.28504055769838
 21
99.553267442387167
 31
0.0
  0
LINE
  5
22FA
  8
0
 10
28.28504055769838
 20
94.553267442387167
 30
0.0
 11
21.78504055769827
 21
94.553267442387167
 31
0.0
  0
LINE
  5
22FB
  8
0
 10
21.78504055769827
 20
94.553267442387167
 30
0.0
 11
21.78504055769827
 21
99.553267442387167
 31
0.0
  0
LINE
  5
22FC
  8
0
 10
28.28504055769838
 20
99.553267442387167
 30
0.0
 11
21.78504055769827
 21
99.553267442387167
 31
0.0
  0
LINE
  5
22FD
  8
0
 10
34.785040557698267
 20
94.553267442387167
 30
0.0
 11
34.785040557698267
 21
99.553267442387167
 31
0.0
  0
LINE
  5
22FE
  8
0
 10
28.28504055769838
 20
94.553267442387167
 30
0.0
 11
34.785040557698267
 21
94.553267442387167
 31
0.0
  0
LINE
  5
22FF
  8
0
 10
28.28504055769838
 20
99.553267442387167
 30
0.0
 11
34.785040557698267
 21
99.553267442387167
 31
0.0
  0
LINE
  5
2300
  8
0
 10
24.24358867337094
 20
121.2032674423871
 30
0.0
 11
24.24358867337094
 21
118.8032674423871
 31
0.0
  0
LINE
  5
2301
  8
0
 10
24.24358867337094
 20
121.2032674423871
 30
0.0
 11
26.264314615534659
 21
121.2032674423871
 31
0.0
  0
LINE
  5
2302
  8
0
 10
26.264314615534659
 20
121.2032674423871
 30
0.0
 11
26.264314615534659
 21
118.8032674423871
 31
0.0
  0
LINE
  5
2303
  8
0
 10
26.264314615534659
 20
121.2032674423871
 30
0.0
 11
30.305766499862109
 21
121.2032674423871
 31
0.0
  0
LINE
  5
2304
  8
0
 10
30.305766499862109
 20
121.2032674423871
 30
0.0
 11
30.305766499862109
 21
118.8032674423871
 31
0.0
  0
LINE
  5
2305
  8
0
 10
24.24358867337094
 20
118.8032674423871
 30
0.0
 11
32.32649244202571
 21
118.8032674423871
 31
0.0
  0
LINE
  5
2306
  8
0
 10
32.32649244202571
 20
121.2032674423871
 30
0.0
 11
32.32649244202571
 21
118.8032674423871
 31
0.0
  0
LINE
  5
2307
  8
0
 10
30.305766499862109
 20
121.2032674423871
 30
0.0
 11
32.32649244202571
 21
121.2032674423871
 31
0.0
  0
LINE
  5
2308
  8
0
 10
24.781946431554161
 20
108.5032674423871
 30
0.0
 11
24.781946431554161
 21
111.3032674423871
 31
0.0
  0
LINE
  5
2309
  8
0
 10
28.28504055769827
 20
108.5032674423871
 30
0.0
 11
28.28504055769827
 21
111.3032674423871
 31
0.0
  0
LINE
  5
230A
  8
0
 10
28.278844077612579
 20
108.5032674423871
 30
0.0
 11
24.781946431554161
 21
108.5032674423871
 31
0.0
  0
LINE
  5
230B
  8
0
 10
24.781946431554161
 20
111.3032674423871
 30
0.0
 11
31.78813468384249
 21
111.3032674423871
 31
0.0
  0
LINE
  5
230C
  8
0
 10
28.278844077612579
 20
108.5032674423871
 30
0.0
 11
31.78813468384249
 21
108.5032674423871
 31
0.0
  0
LINE
  5
230D
  8
0
 10
30.28504055769838
 20
123.0032674423871
 30
0.0
 11
26.28504055769838
 21
123.0032674423871
 31
0.0
  0
LINE
  5
230E
  8
0
 10
29.78504055769838
 20
123.5032674423871
 30
0.0
 11
26.78504055769838
 21
123.5032674423871
 31
0.0
  0
LINE
  5
230F
  8
0
 10
31.78813468384249
 20
108.5032674423871
 30
0.0
 11
31.78813468384249
 21
111.3032674423871
 31
0.0
  0
ARC
  5
2310
  8
0
 10
31.78504055769838
 20
118.3032674423871
 30
0.0
 40
0.5
 50
0.0
 51
90.0
  0
LINE
  5
2311
  8
0
 10
32.28504055769838
 20
118.3032674423871
 30
0.0
 11
24.28504055769838
 21
118.3032674423871
 31
0.0
  0
ARC
  5
2312
  8
0
 10
24.78504055769838
 20
118.3032674423871
 30
0.0
 40
0.5000000000000071
 50
90.0
 51
180.0
  0
LINE
  5
2313
  8
0
 10
32.28504055769838
 20
109.3032674423868
 30
0.0
 11
32.28504055769838
 21
118.8032674423871
 31
0.0
  0
LINE
  5
2314
  8
0
 10
24.28504055769838
 20
113.3032674423871
 30
0.0
 11
32.28504055769838
 21
113.3032674423871
 31
0.0
  0
LINE
  5
2315
  8
0
 10
24.28504055769838
 20
118.8032674423871
 30
0.0
 11
24.28504055769838
 21
109.3032674423861
 31
0.0
  0
LINE
  5
2316
  8
0
 10
31.78504055769838
 20
112.8032674423871
 30
0.0
 11
24.78504055769838
 21
112.8032674423871
 31
0.0
  0
ARC
  5
2317
  8
0
 10
24.78504055769838
 20
113.3032674423871
 30
0.0
 40
0.5
 50
180.0
 51
270.0
  0
ARC
  5
2318
  8
0
 10
31.78504055769838
 20
113.3032674423871
 30
0.0
 40
0.5
 50
270.0
 51
0.0
  0
POLYLINE
  5
2319
  8
0
 66
     1
 10
0.0
 20
0.0
 30
0.0
 70
   128
  0
VERTEX
  5
2673
  8
0
 10
24.785040557698149
 20
109.8031057194607
 30
0.0
  0
VERTEX
  5
2674
  8
0
 10
24.68749539669011
 20
109.8081919687658
 30
0.0
  0
VERTEX
  5
2675
  8
0
 10
24.593698841515678
 20
109.82325525497249
 30
0.0
  0
VERTEX
  5
2676
  8
0
 10
24.507255441188359
 20
109.84771670443951
 30
0.0
  0
VERTEX
  5
2677
  8
0
 10
24.43148716710493
 20
109.880636277382
 30
0.0
  0
VERTEX
  5
2678
  8
0
 10
24.3693057515469
 20
109.9207488930732
 30
0.0
  0
VERTEX
  5
2679
  8
0
 10
24.323100791442581
 20
109.9665130461877
 30
0.0
  0
VERTEX
  5
267A
  8
0
 10
24.294647917496611
 20
110.0161700459859
 30
0.0
  0
VERTEX
  5
267B
  8
0
 10
24.28504055769816
 20
110.0678116018137
 30
0.0
  0
SEQEND
  5
267C
  8
0
  0
POLYLINE
  5
231A
  8
0
 66
     1
 10
0.0
 20
0.0
 30
0.0
 70
   128
  0
VERTEX
  5
267D
  8
0
 10
32.285040557698153
 20
110.0678116018137
 30
0.0
  0
VERTEX
  5
267E
  8
0
 10
32.275433197899822
 20
110.0161700459859
 30
0.0
  0
VERTEX
  5
267F
  8
0
 10
32.246980323953842
 20
109.9665130461877
 30
0.0
  0
VERTEX
  5
2680
  8
0
 10
32.200775363849523
 20
109.9207488930732
 30
0.0
  0
VERTEX
  5
2681
  8
0
 10
32.138593948291494
 20
109.880636277382
 30
0.0
  0
VERTEX
  5
2682
  8
0
 10
32.06282567420795
 20
109.84771670443951
 30
0.0
  0
VERTEX
  5
2683
  8
0
 10
31.976382273880748
 20
109.82325525497249
 30
0.0
  0
VERTEX
  5
2684
  8
0
 10
31.882585718706309
 20
109.8081919687658
 30
0.0
  0
VERTEX
  5
2685
  8
0
 10
31.78504055769816
 20
109.8031057194607
 30
0.0
  0
SEQEND
  5
2686
  8
0
  0
POLYLINE
  5
231B
  8
0
 66
     1
 10
0.0
 20
0.0
 30
0.0
 70
   128
  0
VERTEX
  5
2687
  8
0
 10
24.28504055769827
 20
118.3032674423871
 30
0.0
  0
VERTEX
  5
2688
  8
0
 10
24.28504055769827
 20
118.3032674423871
 30
0.0
  0
SEQEND
  5
2689
  8
0
  0
POLYLINE
  5
231C
  8
0
 66
     1
 10
0.0
 20
0.0
 30
0.0
 70
   128
  0
VERTEX
  5
268A
  8
0
 10
32.285040557698267
 20
118.3032674423871
 30
0.0
  0
VERTEX
  5
268B
  8
0
 10
32.285040557698267
 20
118.3032674423871
 30
0.0
  0
SEQEND
  5
268C
  8
0
  0
LINE
  5
231D
  8
0
 10
35.785040557698267
 20
100.8032674423871
 30
0.0
 11
20.78504055769827
 21
100.8032674423871
 31
0.0
  0
LINE
  5
231E
  8
0
 10
20.28504055769827
 20
101.3032674423871
 30
0.0
 11
36.285040557698267
 21
101.3032674423871
 31
0.0
  0
LINE
  5
231F
  8
0
 10
21.78504055769827
 20
118.8032674423871
 30
0.0
 11
24.24358867337094
 21
118.8032674423871
 31
0.0
  0
LINE
  5
2320
  8
0
 10
32.32649244202571
 20
118.8032674423871
 30
0.0
 11
34.785040557697243
 21
118.8032674423871
 31
0.0
  0
LINE
  5
2321
  8
0
 10
31.28504055769827
 20
84.803267442387138
 30
0.0
 11
25.28504055769827
 21
84.803267442387138
 31
0.0
  0
LINE
  5
2322
  8
0
 10
24.28504055769827
 20
85.803267442387167
 30
0.0
 11
32.285040557698267
 21
85.803267442387167
 31
0.0
  0
LINE
  5
2323
  8
0
 10
24.78504055769838
 20
112.8032674423871
 30
0.0
 11
24.78504055769838
 21
111.3032674423871
 31
0.0
  0
LINE
  5
2324
  8
0
 10
31.78504055769838
 20
111.3032674423871
 30
0.0
 11
31.78504055769838
 21
112.8032674423871
 31
0.0
  0
LINE
  5
2325
  8
0
 10
24.28504055769838
 20
117.3032674423872
 30
0.0
 11
20.28504055769827
 21
117.3032674423871
 31
0.0
  0
LINE
  5
2326
  8
0
 10
36.285040557698267
 20
117.3032674423871
 30
0.0
 11
32.285040557698267
 21
117.3032674423872
 31
0.0
  0
LINE
  5
2327
  8
0
 10
31.53504055769827
 20
100.2032674423871
 30
0.0
 11
25.03504055769827
 21
100.2032674423871
 31
0.0
  0
POLYLINE
  5
2328
  8
0
 10
110.5774547782095
 20
190.21651498734542
 30
0.0
 66
     1
 70
     8
  0
VERTEX
  8
0
  5
278D
 10
110.577
 20
190.217
 30
0.000000
  70
    32
  0
VERTEX
  8
0
  5
278E
 10
110.534
 20
190.215
 30
0.000000
  70
    32
  0
VERTEX
  8
0
  5
278F
 10
110.492
 20
190.212
 30
0.000000
  70
    32
  0
VERTEX
  8
0
  5
2790
 10
110.449
 20
190.207
 30
0.000000
  70
    32
  0
VERTEX
  8
0
  5
2791
 10
110.406
 20
190.200
 30
0.000000
  70
    32
  0
VERTEX
  8
0
  5
2792
 10
110.363
 20
190.190
 30
0.000000
  70
    32
  0
VERTEX
  8
0
  5
2793
 10
110.321
 20
190.179
 30
0.000000
  70
    32
  0
VERTEX
  8
0
  5
2794
 10
110.278
 20
190.165
 30
0.000000
  70
    32
  0
VERTEX
  8
0
  5
2795
 10
110.236
 20
190.149
 30
0.000000
  70
    32
  0
VERTEX
  8
0
  5
2796
 10
110.194
 20
190.131
 30
0.000000
  70
    32
  0
VERTEX
  8
0
  5
2797
 10
110.152
 20
190.112
 30
0.000000
  70
    32
  0
VERTEX
  8
0
  5
2798
 10
110.111
 20
190.090
 30
0.000000
  70
    32
  0
VERTEX
  8
0
  5
2799
 10
110.069
 20
190.066
 30
0.000000
  70
    32
  0
VERTEX
  8
0
  5
279A
 10
110.028
 20
190.040
 30
0.000000
  70
    32
  0
VERTEX
  8
0
  5
279B
 10
109.988
 20
190.012
 30
0.000000
  70
    32
  0
VERTEX
  8
0
  5
279C
 10
109.947
 20
189.982
 30
0.000000
  70
    32
  0
VERTEX
  8
0
  5
279D
 10
109.908
 20
189.950
 30
0.000000
  70
    32
  0
VERTEX
  8
0
  5
279E
 10
109.868
 20
189.916
 30
0.000000
  70
    32
  0
VERTEX
  8
0
  5
279F
 10
109.829
 20
189.880
 30
0.000000
  70
    32
  0
VERTEX
  8
0
  5
27A0
 10
109.790
 20
189.843
 30
0.000000
  70
    32
  0
VERTEX
  8
0
  5
27A1
 10
109.752
 20
189.803
 30
0.000000
  70
    32
  0
VERTEX
  8
0
  5
27A2
 10
109.715
 20
189.762
 30
0.000000
  70
    32
  0
VERTEX
  8
0
  5
27A3
 10
109.678
 20
189.719
 30
0.000000
  70
    32
  0
VERTEX
  8
0
  5
27A4
 10
109.641
 20
189.674
 30
0.000000
  70
    32
  0
VERTEX
  8
0
  5
27A5
 10
109.605
 20
189.627
 30
0.000000
  70
    32
  0
VERTEX
  8
0
  5
27A6
 10
109.569
 20
189.578
 30
0.000000
  70
    32
  0
VERTEX
  8
0
  5
27A7
 10
109.535
 20
189.528
 30
0.000000
  70
    32
  0
VERTEX
  8
0
  5
27A8
 10
109.500
 20
189.476
 30
0.000000
  70
    32
  0
VERTEX
  8
0
  5
27A9
 10
109.467
 20
189.422
 30
0.000000
  70
    32
  0
VERTEX
  8
0
  5
27AA
 10
109.434
 20
189.367
 30
0.000000
  70
    32
  0
VERTEX
  8
0
  5
27AB
 10
109.402
 20
189.310
 30
0.000000
  70
    32
  0
VERTEX
  8
0
  5
27AC
 10
109.370
 20
189.251
 30
0.000000
  70
    32
  0
VERTEX
  8
0
  5
27AD
 10
109.340
 20
189.191
 30
0.000000
  70
    32
  0
VERTEX
  8
0
  5
27AE
 10
109.310
 20
189.130
 30
0.000000
  70
    32
  0
VERTEX
  8
0
  5
27AF
 10
109.280
 20
189.067
 30
0.000000
  70
    32
  0
VERTEX
  8
0
  5
27B0
 10
109.252
 20
189.003
 30
0.000000
  70
    32
  0
VERTEX
  8
0
  5
27B1
 10
109.224
 20
188.937
 30
0.000000
  70
    32
  0
VERTEX
  8
0
  5
27B2
 10
109.197
 20
188.870
 30
0.000000
  70
    32
  0
VERTEX
  8
0
  5
27B3
 10
109.171
 20
188.802
 30
0.000000
  70
    32
  0
VERTEX
  8
0
  5
27B4
 10
109.146
 20
188.732
 30
0.000000
  70
    32
  0
VERTEX
  8
0
  5
27B5
 10
109.122
 20
188.661
 30
0.000000
  70
    32
  0
VERTEX
  8
0
  5
27B6
 10
109.099
 20
188.589
 30
0.000000
  70
    32
  0
VERTEX
  8
0
  5
27B7
 10
109.076
 20
188.516
 30
0.000000
  70
    32
  0
VERTEX
  8
0
  5
27B8
 10
109.054
 20
188.442
 30
0.000000
  70
    32
  0
VERTEX
  8
0
  5
27B9
 10
109.034
 20
188.367
 30
0.000000
  70
    32
  0
VERTEX
  8
0
  5
27BA
 10
109.014
 20
188.290
 30
0.000000
  70
    32
  0
VERTEX
  8
0
  5
27BB
 10
108.995
 20
188.213
 30
0.000000
  70
    32
  0
VERTEX
  8
0
  5
27BC
 10
108.977
 20
188.135
 30
0.000000
  70
    32
  0
VERTEX
  8
0
  5
27BD
 10
108.960
 20
188.056
 30
0.000000
  70
    32
  0
VERTEX
  8
0
  5
27BE
 10
108.944
 20
187.976
 30
0.000000
  70
    32
  0
VERTEX
  8
0
  5
27BF
 10
108.929
 20
187.896
 30
0.000000
  70
    32
  0
VERTEX
  8
0
  5
27C0
 10
108.915
 20
187.815
 30
0.000000
  70
    32
  0
VERTEX
  8
0
  5
27C1
 10
108.902
 20
187.733
 30
0.000000
  70
    32
  0
VERTEX
  8
0
  5
27C2
 10
108.890
 20
187.650
 30
0.000000
  70
    32
  0
VERTEX
  8
0
  5
27C3
 10
108.879
 20
187.567
 30
0.000000
  70
    32
  0
VERTEX
  8
0
  5
27C4
 10
108.869
 20
187.484
 30
0.000000
  70
    32
  0
VERTEX
  8
0
  5
27C5
 10
108.861
 20
187.399
 30
0.000000
  70
    32
  0
VERTEX
  8
0
  5
27C6
 10
108.853
 20
187.315
 30
0.000000
  70
    32
  0
VERTEX
  8
0
  5
27C7
 10
108.846
 20
187.230
 30
0.000000
  70
    32
  0
VERTEX
  8
0
  5
27C8
 10
108.840
 20
187.145
 30
0.000000
  70
    32
  0
VERTEX
  8
0
  5
27C9
 10
108.835
 20
187.060
 30
0.000000
  70
    32
  0
VERTEX
  8
0
  5
27CA
 10
108.832
 20
186.974
 30
0.000000
  70
    32
  0
VERTEX
  8
0
  5
27CB
 10
108.829
 20
186.888
 30
0.000000
  70
    32
  0
VERTEX
  8
0
  5
27CC
 10
108.827
 20
186.803
 30
0.000000
  70
    32
  0
VERTEX
  8
0
  5
27CD
 10
108.827
 20
186.717
 30
0.000000
  70
    32
  0
VERTEX
  8
0
  5
27CE
 10
108.827
 20
186.631
 30
0.000000
  70
    32
  0
VERTEX
  8
0
  5
27CF
 10
108.829
 20
186.545
 30
0.000000
  70
    32
  0
VERTEX
  8
0
  5
27D0
 10
108.832
 20
186.459
 30
0.000000
  70
    32
  0
VERTEX
  8
0
  5
27D1
 10
108.835
 20
186.374
 30
0.000000
  70
    32
  0
VERTEX
  8
0
  5
27D2
 10
108.840
 20
186.288
 30
0.000000
  70
    32
  0
VERTEX
  8
0
  5
27D3
 10
108.846
 20
186.203
 30
0.000000
  70
    32
  0
VERTEX
  8
0
  5
27D4
 10
108.853
 20
186.118
 30
0.000000
  70
    32
  0
VERTEX
  8
0
  5
27D5
 10
108.861
 20
186.034
 30
0.000000
  70
    32
  0
VERTEX
  8
0
  5
27D6
 10
108.869
 20
185.950
 30
0.000000
  70
    32
  0
VERTEX
  8
0
  5
27D7
 10
108.879
 20
185.866
 30
0.000000
  70
    32
  0
VERTEX
  8
0
  5
27D8
 10
108.890
 20
185.783
 30
0.000000
  70
    32
  0
VERTEX
  8
0
  5
27D9
 10
108.902
 20
185.701
 30
0.000000
  70
    32
  0
VERTEX
  8
0
  5
27DA
 10
108.915
 20
185.619
 30
0.000000
  70
    32
  0
VERTEX
  8
0
  5
27DB
 10
108.929
 20
185.538
 30
0.000000
  70
    32
  0
VERTEX
  8
0
  5
27DC
 10
108.944
 20
185.457
 30
0.000000
  70
    32
  0
VERTEX
  8
0
  5
27DD
 10
108.960
 20
185.377
 30
0.000000
  70
    32
  0
VERTEX
  8
0
  5
27DE
 10
108.977
 20
185.298
 30
0.000000
  70
    32
  0
VERTEX
  8
0
  5
27DF
 10
108.995
 20
185.220
 30
0.000000
  70
    32
  0
VERTEX
  8
0
  5
27E0
 10
109.014
 20
185.143
 30
0.000000
  70
    32
  0
VERTEX
  8
0
  5
27E1
 10
109.034
 20
185.067
 30
0.000000
  70
    32
  0
VERTEX
  8
0
  5
27E2
 10
109.054
 20
184.992
 30
0.000000
  70
    32
  0
VERTEX
  8
0
  5
27E3
 10
109.076
 20
184.917
 30
0.000000
  70
    32
  0
VERTEX
  8
0
  5
27E4
 10
109.099
 20
184.844
 30
0.000000
  70
    32
  0
VERTEX
  8
0
  5
27E5
 10
109.122
 20
184.772
 30
0.000000
  70
    32
  0
VERTEX
  8
0
  5
27E6
 10
109.146
 20
184.702
 30
0.000000
  70
    32
  0
VERTEX
  8
0
  5
27E7
 10
109.171
 20
184.632
 30
0.000000
  70
    32
  0
VERTEX
  8
0
  5
27E8
 10
109.197
 20
184.564
 30
0.000000
  70
    32
  0
VERTEX
  8
0
  5
27E9
 10
109.224
 20
184.496
 30
0.000000
  70
    32
  0
VERTEX
  8
0
  5
27EA
 10
109.252
 20
184.431
 30
0.000000
  70
    32
  0
VERTEX
  8
0
  5
27EB
 10
109.280
 20
184.366
 30
0.000000
  70
    32
  0
VERTEX
  8
0
  5
27EC
 10
109.310
 20
184.303
 30
0.000000
  70
    32
  0
VERTEX
  8
0
  5
27ED
 10
109.340
 20
184.242
 30
0.000000
  70
    32
  0
VERTEX
  8
0
  5
27EE
 10
109.370
 20
184.182
 30
0.000000
  70
    32
  0
VERTEX
  8
0
  5
27EF
 10
109.402
 20
184.124
 30
0.000000
  70
    32
  0
VERTEX
  8
0
  5
27F0
 10
109.434
 20
184.067
 30
0.000000
  70
    32
  0
VERTEX
  8
0
  5
27F1
 10
109.467
 20
184.011
 30
0.000000
  70
    32
  0
VERTEX
  8
0
  5
27F2
 10
109.500
 20
183.958
 30
0.000000
  70
    32
  0
VERTEX
  8
0
  5
27F3
 10
109.535
 20
183.906
 30
0.000000
  70
    32
  0
VERTEX
  8
0
  5
27F4
 10
109.569
 20
183.855
 30
0.000000
  70
    32
  0
VERTEX
  8
0
  5
27F5
 10
109.605
 20
183.807
 30
0.000000
  70
    32
  0
VERTEX
  8
0
  5
27F6
 10
109.641
 20
183.760
 30
0.000000
  70
    32
  0
VERTEX
  8
0
  5
27F7
 10
109.678
 20
183.715
 30
0.000000
  70
    32
  0
VERTEX
  8
0
  5
27F8
 10
109.715
 20
183.672
 30
0.000000
  70
    32
  0
VERTEX
  8
0
  5
27F9
 10
109.752
 20
183.630
 30
0.000000
  70
    32
  0
VERTEX
  8
0
  5
27FA
 10
109.790
 20
183.591
 30
0.000000
  70
    32
  0
VERTEX
  8
0
  5
27FB
 10
109.829
 20
183.553
 30
0.000000
  70
    32
  0
VERTEX
  8
0
  5
27FC
 10
109.868
 20
183.517
 30
0.000000
  70
    32
  0
VERTEX
  8
0
  5
27FD
 10
109.908
 20
183.483
 30
0.000000
  70
    32
  0
VERTEX
  8
0
  5
27FE
 10
109.947
 20
183.451
 30
0.000000
  70
    32
  0
VERTEX
  8
0
  5
27FF
 10
109.988
 20
183.421
 30
0.000000
  70
    32
  0
VERTEX
  8
0
  5
2800
 10
110.028
 20
183.394
 30
0.000000
  70
    32
  0
VERTEX
  8
0
  5
2801
 10
110.069
 20
183.368
 30
0.000000
  70
    32
  0
VERTEX
  8
0
  5
2802
 10
110.111
 20
183.344
 30
0.000000
  70
    32
  0
VERTEX
  8
0
  5
2803
 10
110.152
 20
183.322
 30
0.000000
  70
    32
  0
VERTEX
  8
0
  5
2804
 10
110.194
 20
183.302
 30
0.000000
  70
    32
  0
VERTEX
  8
0
  5
2805
 10
110.236
 20
183.284
 30
0.000000
  70
    32
  0
VERTEX
  8
0
  5
2806
 10
110.278
 20
183.268
 30
0.000000
  70
    32
  0
VERTEX
  8
0
  5
2807
 10
110.321
 20
183.255
 30
0.000000
  70
    32
  0
VERTEX
  8
0
  5
2808
 10
110.363
 20
183.243
 30
0.000000
  70
    32
  0
VERTEX
  8
0
  5
2809
 10
110.406
 20
183.234
 30
0.000000
  70
    32
  0
VERTEX
  8
0
  5
280A
 10
110.449
 20
183.226
 30
0.000000
  70
    32
  0
VERTEX
  8
0
  5
280B
 10
110.492
 20
183.221
 30
0.000000
  70
    32
  0
VERTEX
  8
0
  5
280C
 10
110.534
 20
183.218
 30
0.000000
  70
    32
  0
VERTEX
  8
0
  5
280D
 10
110.577
 20
183.217
 30
0.000000
  70
    32
  0
SEQEND
  8
0
  5
280E
  0
POLYLINE
  5
2329
  8
0
 66
     1
 10
0.0
 20
0.0
 30
0.0
 70
   128
  0
VERTEX
  5
268D
  8
0
 10
110.5774547782095
 20
183.21691334408939
 30
0.0
  0
VERTEX
  5
268E
  8
0
 10
111.24942927039911
 20
183.19261538378689
 30
0.0
  0
VERTEX
  5
268F
  8
0
 10
111.9243675029653
 20
183.1580554192191
 30
0.0
  0
VERTEX
  5
2690
  8
0
 10
112.6052332162845
 20
183.1029714461209
 30
0.0
  0
VERTEX
  5
2691
  8
0
 10
113.2949901507335
 20
183.017101460227
 30
0.0
  0
VERTEX
  5
2692
  8
0
 10
113.84511013516109
 20
182.9213499672085
 30
0.0
  0
VERTEX
  5
2693
  8
0
 10
114.4039863306793
 20
182.79527993607829
 30
0.0
  0
VERTEX
  5
2694
  8
0
 10
114.9730563241837
 20
182.6339136964003
 30
0.0
  0
VERTEX
  5
2695
  8
0
 10
115.5537577025697
 20
182.43227357773841
 30
0.0
  0
VERTEX
  5
2696
  8
0
 10
115.9480637547712
 20
182.27301434589299
 30
0.0
  0
VERTEX
  5
2697
  8
0
 10
116.3484124843979
 20
182.09302125572171
 30
0.0
  0
VERTEX
  5
2698
  8
0
 10
116.7528771848099
 20
181.90128526609141
 30
0.0
  0
VERTEX
  5
2699
  8
0
 10
117.1581684431449
 20
181.71285934821219
 30
0.0
  0
VERTEX
  5
269A
  8
0
 10
117.56097550711161
 20
181.5428914019609
 30
0.0
  0
VERTEX
  5
269B
  8
0
 10
117.95798762441849
 20
181.40652932721451
 30
0.0
  0
VERTEX
  5
269C
  8
0
 10
118.2204349971604
 20
181.34123803929359
 30
0.0
  0
VERTEX
  5
269D
  8
0
 10
118.4777410792255
 20
181.30268663078161
 30
0.0
  0
VERTEX
  5
269E
  8
0
 10
118.7288945700069
 20
181.2955021709939
 30
0.0
  0
VERTEX
  5
269F
  8
0
 10
118.97288416889739
 20
181.32431172924561
 30
0.0
  0
VERTEX
  5
26A0
  8
0
 10
119.2086985752904
 20
181.3937423748522
 30
0.0
  0
VERTEX
  5
26A1
  8
0
 10
119.43532648857899
 20
181.50842117712889
 30
0.0
  0
VERTEX
  5
26A2
  8
0
 10
119.65175660815621
 20
181.672975205391
 30
0.0
  0
VERTEX
  5
26A3
  8
0
 10
119.8578467339067
 20
181.8931131628274
 30
0.0
  0
VERTEX
  5
26A4
  8
0
 10
120.0516051767475
 20
182.1729177895339
 30
0.0
  0
VERTEX
  5
26A5
  8
0
 10
120.2320019606333
 20
182.51536664234669
 30
0.0
  0
VERTEX
  5
26A6
  8
0
 10
120.3979743031888
 20
182.91301645866511
 30
0.0
  0
VERTEX
  5
26A7
  8
0
 10
120.548447067022
 20
183.3544994468686
 30
0.0
  0
VERTEX
  5
26A8
  8
0
 10
120.68234509223529
 20
183.82844066634581
 30
0.0
  0
VERTEX
  5
26A9
  8
0
 10
120.79859321893041
 20
184.32346517648531
 30
0.0
  0
VERTEX
  5
26AA
  8
0
 10
120.89611628720979
 20
184.8281980366757
 30
0.0
  0
VERTEX
  5
26AB
  8
0
 10
120.9738391371753
 20
185.33126430630551
 30
0.0
  0
VERTEX
  5
26AC
  8
0
 10
121.0306866089289
 20
185.8212890447634
 30
0.0
  0
VERTEX
  5
26AD
  8
0
 10
121.06558354257299
 20
186.2868973114378
 30
0.0
  0
VERTEX
  5
26AE
  8
0
 10
121.0775914831008
 20
186.71176454899879
 30
0.0
  0
SEQEND
  5
26AF
  8
0
  0
POLYLINE
  5
232A
  8
0
 66
     1
 10
0.0
 20
0.0
 30
0.0
 70
   128
  0
VERTEX
  5
26B0
  8
0
 10
110.5774547782095
 20
190.21651498734551
 30
0.0
  0
VERTEX
  5
26B1
  8
0
 10
111.24942927039911
 20
190.24081294764801
 30
0.0
  0
VERTEX
  5
26B2
  8
0
 10
111.9243675029653
 20
190.27537291221569
 30
0.0
  0
VERTEX
  5
26B3
  8
0
 10
112.6052332162845
 20
190.33045688531391
 30
0.0
  0
VERTEX
  5
26B4
  8
0
 10
113.2949901507335
 20
190.41632687120779
 30
0.0
  0
VERTEX
  5
26B5
  8
0
 10
113.84511013516109
 20
190.5120783642264
 30
0.0
  0
VERTEX
  5
26B6
  8
0
 10
114.4039863306793
 20
190.6381483953565
 30
0.0
  0
VERTEX
  5
26B7
  8
0
 10
114.9730563241837
 20
190.7995146350344
 30
0.0
  0
VERTEX
  5
26B8
  8
0
 10
115.5537577025697
 20
191.0011547536964
 30
0.0
  0
VERTEX
  5
26B9
  8
0
 10
115.9480637547712
 20
191.16041398554179
 30
0.0
  0
VERTEX
  5
26BA
  8
0
 10
116.3484124843979
 20
191.34040707571299
 30
0.0
  0
VERTEX
  5
26BB
  8
0
 10
116.7528771848099
 20
191.5321430653434
 30
0.0
  0
VERTEX
  5
26BC
  8
0
 10
117.1581684431449
 20
191.72056898322259
 30
0.0
  0
VERTEX
  5
26BD
  8
0
 10
117.56097550711161
 20
191.89053692947391
 30
0.0
  0
VERTEX
  5
26BE
  8
0
 10
117.95798762441849
 20
192.0268990042203
 30
0.0
  0
VERTEX
  5
26BF
  8
0
 10
118.2204349971604
 20
192.0921902921412
 30
0.0
  0
VERTEX
  5
26C0
  8
0
 10
118.4777410792255
 20
192.13074170065309
 30
0.0
  0
VERTEX
  5
26C1
  8
0
 10
118.7288945700069
 20
192.13792616044091
 30
0.0
  0
VERTEX
  5
26C2
  8
0
 10
118.97288416889739
 20
192.10911660218909
 30
0.0
  0
VERTEX
  5
26C3
  8
0
 10
119.2086985752904
 20
192.0396859565825
 30
0.0
  0
VERTEX
  5
26C4
  8
0
 10
119.43532648857899
 20
191.92500715430589
 30
0.0
  0
VERTEX
  5
26C5
  8
0
 10
119.65175660815621
 20
191.76045312604381
 30
0.0
  0
VERTEX
  5
26C6
  8
0
 10
119.8578467339067
 20
191.54031516860729
 30
0.0
  0
VERTEX
  5
26C7
  8
0
 10
120.0516051767475
 20
191.26051054190091
 30
0.0
  0
VERTEX
  5
26C8
  8
0
 10
120.2320019606333
 20
190.91806168908801
 30
0.0
  0
VERTEX
  5
26C9
  8
0
 10
120.3979743031888
 20
190.52041187276961
 30
0.0
  0
VERTEX
  5
26CA
  8
0
 10
120.548447067022
 20
190.0789288845661
 30
0.0
  0
VERTEX
  5
26CB
  8
0
 10
120.68234509223529
 20
189.60498766508891
 30
0.0
  0
VERTEX
  5
26CC
  8
0
 10
120.79859321893041
 20
189.10996315494941
 30
0.0
  0
VERTEX
  5
26CD
  8
0
 10
120.89611628720979
 20
188.605230294759
 30
0.0
  0
VERTEX
  5
26CE
  8
0
 10
120.9738391371753
 20
188.10216402512921
 30
0.0
  0
VERTEX
  5
26CF
  8
0
 10
121.0306866089289
 20
187.61213928667129
 30
0.0
  0
VERTEX
  5
26D0
  8
0
 10
121.06558354257299
 20
187.1465310199969
 30
0.0
  0
VERTEX
  5
26D1
  8
0
 10
121.0774547782095
 20
186.71671416571741
 30
0.0
  0
SEQEND
  5
26D2
  8
0
  0
LINE
  5
232B
  8
0
 10
93.443480181994005
 20
184.69598822355371
 30
0.0
 11
93.443480181994005
 21
188.7374401078811
 31
0.0
  0
LINE
  5
232C
  8
0
 10
89.943480181994005
 20
182.67526228138999
 30
0.0
 11
93.443480181994005
 21
184.69598822355371
 31
0.0
  0
LINE
  5
232D
  8
0
 10
86.443480181994005
 20
184.69598822355371
 30
0.0
 11
89.943480181994005
 21
182.67526228138999
 31
0.0
  0
LINE
  5
232E
  8
0
 10
86.443480181994005
 20
188.7374401078811
 30
0.0
 11
86.443480181994005
 21
184.69598822355371
 31
0.0
  0
LINE
  5
232F
  8
0
 10
93.443480181994005
 20
188.7374401078811
 30
0.0
 11
89.943480181994005
 21
190.75816605004479
 31
0.0
  0
LINE
  5
2330
  8
0
 10
89.943480181994005
 20
190.75816605004479
 30
0.0
 11
86.443480181994005
 21
188.7374401078811
 31
0.0
  0
CIRCLE
  5
2331
  8
0
 10
89.943480181994005
 20
186.71671416571741
 30
0.0
 40
1.994633726775759
  0
LINE
  5
2332
  8
0
 10
87.917390305822437
 20
183.2198165196591
 30
0.0
 11
88.001624475873427
 21
183.2196873690504
 31
0.0
  0
LINE
  5
2333
  8
0
 10
85.902033047987615
 20
186.7229106458033
 30
0.0
 11
85.944038285305155
 21
186.64989713936799
 31
0.0
  0
LINE
  5
2334
  8
0
 10
87.875385068504897
 20
183.29283002609429
 30
0.0
 11
87.917390305822437
 21
183.2198165196591
 31
0.0
  0
LINE
  5
2335
  8
0
 10
85.902033047987615
 20
186.7229106458033
 30
0.0
 11
85.944261980721194
 21
186.79579500162981
 31
0.0
  0
LINE
  5
2336
  8
0
 10
87.885893991425647
 20
190.14692393603499
 30
0.0
 11
87.928122924159084
 21
190.2198082918616
 31
0.0
  0
LINE
  5
2337
  8
0
 10
88.012357094210302
 20
190.21967914125301
 30
0.0
 11
87.928122924159084
 21
190.2198082918616
 31
0.0
  0
LINE
  5
2338
  8
0
 10
101.37062566518701
 20
190.71671416571741
 30
0.0
 11
90.015276951718434
 21
190.71671416571741
 31
0.0
  0
LINE
  5
2339
  8
0
 10
101.37062566518701
 20
182.71671416571741
 30
0.0
 11
90.015276951718434
 21
182.71671416571741
 31
0.0
  0
ARC
  5
233A
  8
0
 10
89.943480181994005
 20
186.71671416571741
 30
0.0
 40
4.0000000000000231
 50
211.04497562814009
 51
268.95502437186059
  0
ARC
  5
233B
  8
0
 10
89.943480181994005
 20
186.71671416571741
 30
0.0
 40
3.999999999999992
 50
151.04497562814009
 51
208.9550243718605
  0
ARC
  5
233C
  8
0
 10
89.943480181994005
 20
186.71671416571741
 30
0.0
 40
3.9999999999999938
 50
91.044975628139326
 51
148.95502437186039
  0
LINE
  5
233D
  8
0
 10
114.44088189625811
 20
190.71671416571741
 30
0.0
 11
114.6294650957097
 21
190.7020854520552
 31
0.0
  0
LINE
  5
233E
  8
0
 10
114.3939057235273
 20
190.71671416571741
 30
0.0
 11
114.44088189625811
 21
190.71671416571741
 31
0.0
  0
LINE
  5
233F
  8
0
 10
114.44088189625811
 20
182.71671416571741
 30
0.0
 11
114.62870591976341
 21
182.73155815231459
 31
0.0
  0
LINE
  5
2340
  8
0
 10
114.44088189625811
 20
182.71671416571741
 30
0.0
 11
114.3939057235273
 21
182.71671416571741
 31
0.0
  0
ARC
  5
2341
  8
0
 10
106.943480181994
 20
186.71671416571741
 30
0.0
 40
6.4999999999999929
 50
37.979872444851473
 51
142.0201275551392
  0
ARC
  5
2342
  8
0
 10
106.943480181994
 20
186.71671416571741
 30
0.0
 40
8.0000000000000409
 50
30.000000000000991
 51
149.99999999999901
  0
ARC
  5
2343
  8
0
 10
106.943480181994
 20
186.71671416571741
 30
0.0
 40
6.499999999999976
 50
217.9798724448612
 51
322.02012755514892
  0
ARC
  5
2344
  8
0
 10
106.943480181994
 20
186.71671416571741
 30
0.0
 40
8.0000000000000409
 50
210.00000000000151
 51
329.99999999999949
  0
LINE
  5
2345
  8
0
 10
114.3939057235273
 20
190.71671416571741
 30
0.0
 11
101.37062566518701
 21
190.71671416571741
 31
0.0
  0
LINE
  5
2346
  8
0
 10
114.3939057235273
 20
182.71671416571741
 30
0.0
 11
101.37062566518701
 21
182.71671416571741
 31
0.0
  0
LINE
  5
2347
  8
0
 10
101.37062566518701
 20
183.21671416571741
 30
0.0
 11
90.881302355502953
 21
183.21671416571741
 31
0.0
  0
LINE
  5
2348
  8
0
 10
101.37062566518701
 20
190.21671416571741
 30
0.0
 11
90.881302355502839
 21
190.21671416571741
 31
0.0
  0
ARC
  5
2349
  8
0
 10
113.9212178003193
 20
26.055506811370591
 30
0.0
 40
0.5
 50
270.0
 51
0.0
  0
ARC
  5
234A
  8
0
 10
113.9212178003193
 20
33.055506811370591
 30
0.0
 40
0.5
 50
0.0
 51
90.0
  0
LINE
  5
234B
  8
0
 10
99.437926682528897
 20
29.555506811370648
 30
0.0
 11
103.1907034322613
 21
36.055506811370648
 31
0.0
  0
LINE
  5
234C
  8
0
 10
110.6962569317265
 20
36.055506811370648
 30
0.0
 11
103.1907034322613
 21
36.055506811370648
 31
0.0
  0
LINE
  5
234D
  8
0
 10
114.4490336814591
 20
29.555506811370648
 30
0.0
 11
110.6962569317265
 21
36.055506811370648
 31
0.0
  0
LINE
  5
234E
  8
0
 10
110.6962569317265
 20
23.055506811370648
 30
0.0
 11
103.1907034322613
 21
23.055506811370648
 31
0.0
  0
LINE
  5
234F
  8
0
 10
114.4490336814591
 20
29.555506811370648
 30
0.0
 11
110.6962569317265
 21
23.055506811370648
 31
0.0
  0
LINE
  5
2350
  8
0
 10
99.437926682528897
 20
29.555506811370648
 30
0.0
 11
103.1907034322613
 21
23.055506811370648
 31
0.0
  0
LINE
  5
2351
  8
0
 10
89.943480181994005
 20
25.51405492704319
 30
0.0
 11
89.870531165118777
 21
25.556172061573189
 31
0.0
  0
LINE
  5
2352
  8
0
 10
86.516429198869105
 20
27.492663734676881
 30
0.0
 11
86.443480181994005
 21
27.53478086920687
 31
0.0
  0
LINE
  5
2353
  8
0
 10
86.443480181994005
 20
27.53478086920687
 30
0.0
 11
86.443480181994005
 21
27.619015138266889
 31
0.0
  0
LINE
  5
2354
  8
0
 10
86.443480181994005
 20
31.491998484474291
 30
0.0
 11
86.443480181994005
 21
31.57623275353426
 31
0.0
  0
LINE
  5
2355
  8
0
 10
86.443480181994005
 20
31.57623275353426
 30
0.0
 11
86.516429198869105
 21
31.61834988806423
 31
0.0
  0
LINE
  5
2356
  8
0
 10
89.870531165118777
 20
33.55484156116799
 30
0.0
 11
89.943480181994005
 21
33.59695869569795
 31
0.0
  0
LINE
  5
2357
  8
0
 10
89.943480181994005
 20
33.59695869569795
 30
0.0
 11
90.015276951718434
 21
33.555506811370577
 31
0.0
  0
LINE
  5
2358
  8
0
 10
90.015276951718434
 20
25.555506811370581
 30
0.0
 11
89.943480181994005
 21
25.51405492704319
 31
0.0
  0
LINE
  5
2359
  8
0
 10
108.0873805004402
 20
29.713067576765951
 30
0.0
 11
107.37897871574501
 21
30.624933929239859
 31
0.0
  0
LINE
  5
235A
  8
0
 10
107.37897871574501
 20
30.624933929239859
 30
0.0
 11
106.23507839729881
 21
30.467373163844599
 31
0.0
  0
LINE
  5
235B
  8
0
 10
106.23507839729881
 20
30.467373163844599
 30
0.0
 11
105.79957986354771
 21
29.39794604597542
 31
0.0
  0
LINE
  5
235C
  8
0
 10
105.79957986354771
 20
29.39794604597542
 30
0.0
 11
106.5079816482429
 21
28.486079693501502
 31
0.0
  0
LINE
  5
235D
  8
0
 10
106.5079816482429
 20
28.486079693501502
 30
0.0
 11
107.651881966689
 21
28.643640458896769
 31
0.0
  0
LINE
  5
235E
  8
0
 10
107.651881966689
 20
28.643640458896769
 30
0.0
 11
108.0873805004402
 21
29.713067576765951
 31
0.0
  0
LINE
  5
235F
  8
0
 10
85.902033047987615
 20
29.549310331284801
 30
0.0
 11
87.928122924159084
 21
26.052412685226422
 31
0.0
  0
LINE
  5
2360
  8
0
 10
85.902033047987615
 20
29.549310331284801
 30
0.0
 11
87.917390305822437
 21
33.052404457428977
 31
0.0
  0
LINE
  5
2361
  8
0
 10
87.917390305822437
 20
33.052404457428977
 30
0.0
 11
91.958837439828699
 21
33.058600937514768
 31
0.0
  0
LINE
  5
2362
  8
0
 10
93.984927316000267
 20
29.561703291456411
 30
0.0
 11
91.958837439828699
 21
33.058600937514768
 31
0.0
  0
LINE
  5
2363
  8
0
 10
91.969570058165459
 20
26.058609165312241
 30
0.0
 11
93.984927316000267
 21
29.561703291456411
 31
0.0
  0
LINE
  5
2364
  8
0
 10
91.969570058165459
 20
26.058609165312241
 30
0.0
 11
87.928122924159084
 21
26.052412685226422
 31
0.0
  0
LINE
  5
2365
  8
0
 10
113.9212178003193
 20
25.555506811370591
 30
0.0
 11
113.87168341226941
 21
25.555506811370591
 31
0.0
  0
LINE
  5
2366
  8
0
 10
113.87168341226941
 20
33.555506811370591
 30
0.0
 11
113.9212178003193
 21
33.555506811370591
 31
0.0
  0
ARC
  5
2367
  8
0
 10
99.268239708413034
 20
26.024256811370559
 30
0.0
 40
0.4701368373498304
 50
176.18873895053181
 51
265.59805034773109
  0
LINE
  5
2368
  8
0
 10
98.799142614696507
 20
26.055506811370591
 30
0.0
 11
98.799142614696507
 21
33.055506811370613
 31
0.0
  0
ARC
  5
2369
  8
0
 10
99.268239708413148
 20
33.086756811370613
 30
0.0
 40
0.4701368373498791
 50
94.401949652275377
 51
183.81126104946659
  0
LINE
  5
236A
  8
0
 10
114.44088189625811
 20
25.555506811370581
 30
0.0
 11
113.87168341226941
 21
25.555506811370581
 31
0.0
  0
LINE
  5
236B
  8
0
 10
113.87168341226941
 20
33.555506811370577
 30
0.0
 11
114.44088189625811
 21
33.555506811370577
 31
0.0
  0
ARC
  5
236C
  8
0
 10
89.943480181994005
 20
29.555506811370581
 30
0.0
 40
4.0
 50
241.13282333881759
 51
270.0
  0
ARC
  5
236D
  8
0
 10
89.943480181994005
 20
29.555506811370581
 30
0.0
 40
3.9999999999999978
 50
181.13282333881889
 51
239.04287208254149
  0
ARC
  5
236E
  8
0
 10
89.943480181994005
 20
29.555506811370581
 30
0.0
 40
3.9999999999999911
 50
121.13282333882
 51
179.0428720825374
  0
ARC
  5
236F
  8
0
 10
89.943480181994005
 20
29.555506811370581
 30
0.0
 40
4.0
 50
90.0
 51
119.0428720825366
  0
LINE
  5
2370
  8
0
 10
93.443480181994005
 20
25.555506811370581
 30
0.0
 11
89.943480181994005
 21
25.555506811370581
 31
0.0
  0
ARC
  5
2371
  8
0
 10
93.443480181994005
 20
26.055506811370591
 30
0.0
 40
0.5000000000000036
 50
270.0
 51
0.0
  0
LINE
  5
2372
  8
0
 10
93.943480181994005
 20
26.055506811370591
 30
0.0
 11
93.943480181994005
 21
29.489659880235639
 31
0.0
  0
LINE
  5
2373
  8
0
 10
93.943480181994005
 20
29.633238314185199
 30
0.0
 11
93.943480181994005
 21
33.055506811370577
 31
0.0
  0
LINE
  5
2374
  8
0
 10
89.943480181994005
 20
33.555506811370577
 30
0.0
 11
93.443480181994005
 21
33.555506811370577
 31
0.0
  0
ARC
  5
2375
  8
0
 10
93.443480181994005
 20
33.055506811370577
 30
0.0
 40
0.5
 50
0.0
 51
90.0
  0
LINE
  5
2376
  8
0
 10
100.0152769517185
 20
25.555506811370581
 30
0.0
 11
93.443480181994005
 21
25.555506811370581
 31
0.0
  0
LINE
  5
2377
  8
0
 10
93.443480181994005
 20
33.555506811370577
 30
0.0
 11
100.01527695171841
 21
33.555506811370577
 31
0.0
  0
LINE
  5
2378
  8
0
 10
114.94088189625811
 20
26.055506811370581
 30
0.0
 11
114.940708677209
 21
26.055506811370581
 31
0.0
  0
ARC
  5
2379
  8
0
 10
114.4407952717261
 20
26.055420216848422
 30
0.0
 40
0.4999134129829466
 50
270.00992815953288
 51
0.0099247200523585
  0
ARC
  5
237A
  8
0
 10
114.4407952717261
 20
33.055593405892751
 30
0.0
 40
0.4999134129829431
 50
359.99007527994928
 51
89.990071840467053
  0
CIRCLE
  5
237B
  8
0
 10
106.943480181994
 20
29.555506811370691
 30
0.0
 40
3.0
  0
CIRCLE
  5
237C
  8
0
 10
106.943480181994
 20
29.555506811370691
 30
0.0
 40
4.0
  0
CIRCLE
  5
237D
  8
0
 10
106.943480181994
 20
29.555506811370691
 30
0.0
 40
2.350000000000001
  0
CIRCLE
  5
237E
  8
0
 10
106.943480181994
 20
29.555506811370691
 30
0.0
 40
1.6499999999999979
  0
CIRCLE
  5
237F
  8
0
 10
106.943480181994
 20
29.555506811370641
 30
0.0
 40
7.4999999999999849
  0
CIRCLE
  5
2380
  8
0
 10
106.943480181994
 20
29.555506811370641
 30
0.0
 40
8.0
  0
TEXT
  5
253E
  8
0
 62
     3
 10
0.0
 20
0.0
 30
0.0
 40
10.0
  1
QLSNDM08-01-NP
  7
STANDARD1
  0
ENDSEC
  0
EOF
