  0
SECTION
  2
HEADER
  9
$ACADVER
  1
AC1009
  9
$INSBASE
 10
0.0
 20
0.0
 30
0.0
  9
$EXTMIN
 10
0.0
 20
-2.960436562073669
 30
0.0
  9
$EXTMAX
 10
91.042219225920121
 20
57.018798776271062
 30
0.0
  9
$LIMMIN
 10
0.0
 20
0.0
  9
$LIMMAX
 10
375.0
 20
278.0
  9
$ORTHOMODE
 70
     1
  9
$REGENMODE
 70
     1
  9
$FILLMODE
 70
     1
  9
$QTEXTMODE
 70
     0
  9
$MIRRTEXT
 70
     0
  9
$DRAGMODE
 70
     2
  9
$LTSCALE
 40
10.0
  9
$OSMODE
 70
  3071
  9
$ATTMODE
 70
     1
  9
$TEXTSIZE
 40
0.2
  9
$TRACEWID
 40
0.05
  9
$TEXTSTYLE
  7
STANDARD
  9
$CLAYER
  8
0
  9
$CELTYPE
  6
BYLAYER
  9
$CECOLOR
 62
   256
  9
$DIMSCALE
 40
1.0
  9
$DIMASZ
 40
3.0
  9
$DIMEXO
 40
1.0
  9
$DIMDLI
 40
6.0
  9
$DIMRND
 40
0.0
  9
$DIMDLE
 40
0.0
  9
$DIMEXE
 40
1.0
  9
$DIMTP
 40
495.0
  9
$DIMTM
 40
0.0
  9
$DIMTXT
 40
3.0
  9
$DIMCEN
 40
0.0
  9
$DIMTSZ
 40
0.0
  9
$DIMTOL
 70
     0
  9
$DIMLIM
 70
     0
  9
$DIMTIH
 70
     0
  9
$DIMTOH
 70
     0
  9
$DIMSE1
 70
     0
  9
$DIMSE2
 70
     0
  9
$DIMTAD
 70
     1
  9
$DIMZIN
 70
     0
  9
$DIMBLK
  1

  9
$DIMASO
 70
     0
  9
$DIMSHO
 70
     0
  9
$DIMPOST
  1

  9
$DIMAPOST
  1

  9
$DIMALT
 70
     0
  9
$DIMALTD
 70
     2
  9
$DIMALTF
 40
25.399999999999999
  9
$DIMLFAC
 40
1.0
  9
$DIMTOFL
 70
     1
  9
$DIMTVP
 40
0.0
  9
$DIMTIX
 70
     1
  9
$DIMSOXD
 70
     0
  9
$DIMSAH
 70
     0
  9
$DIMBLK1
  1

  9
$DIMBLK2
  1

  9
$DIMSTYLE
  2
STANDARD
  9
$DIMCLRD
 70
     0
  9
$DIMCLRE
 70
     0
  9
$DIMCLRT
 70
     4
  9
$DIMTFAC
 40
1.0
  9
$DIMGAP
 40
1.0
  9
$LUNITS
 70
     2
  9
$LUPREC
 70
     4
  9
$SKETCHINC
 40
0.1
  9
$FILLETRAD
 40
0.0
  9
$AUNITS
 70
     0
  9
$AUPREC
 70
     0
  9
$MENU
  1
C:\R13\WIN\SUPPORT\ACAD-I
  9
$ELEVATION
 40
0.0
  9
$PELEVATION
 40
0.0
  9
$THICKNESS
 40
0.0
  9
$LIMCHECK
 70
     0
  9
$BLIPMODE
 70
     0
  9
$CHAMFERA
 40
0.0
  9
$CHAMFERB
 40
0.0
  9
$SKPOLY
 70
     0
  9
$TDCREATE
 40
2450834.4199027782
  9
$TDUPDATE
 40
2456598.429864028
  9
$TDINDWG
 40
0.0818888889
  9
$TDUSRTIMER
 40
0.0818888889
  9
$USRTIMER
 70
     1
  9
$ANGBASE
 50
0.0
  9
$ANGDIR
 70
     0
  9
$PDMODE
 70
     0
  9
$PDSIZE
 40
0.0
  9
$PLINEWID
 40
0.0
  9
$COORDS
 70
     1
  9
$SPLFRAME
 70
     0
  9
$SPLINETYPE
 70
     6
  9
$SPLINESEGS
 70
     8
  9
$ATTDIA
 70
     0
  9
$ATTREQ
 70
     1
  9
$HANDLING
 70
     1
  9
$HANDSEED
  5
1EF4
  9
$SURFTAB1
 70
     6
  9
$SURFTAB2
 70
     6
  9
$SURFTYPE
 70
     6
  9
$SURFU
 70
     6
  9
$SURFV
 70
     6
  9
$UCSNAME
  2

  9
$UCSORG
 10
0.0
 20
0.0
 30
0.0
  9
$UCSXDIR
 10
1.0
 20
0.0
 30
0.0
  9
$UCSYDIR
 10
0.0
 20
1.0
 30
0.0
  9
$PUCSNAME
  2

  9
$PUCSORG
 10
0.0
 20
0.0
 30
0.0
  9
$PUCSXDIR
 10
1.0
 20
0.0
 30
0.0
  9
$PUCSYDIR
 10
0.0
 20
1.0
 30
0.0
  9
$USERI1
 70
     4
  9
$USERI2
 70
     1
  9
$USERI3
 70
     1
  9
$USERI4
 70
     0
  9
$USERI5
 70
     0
  9
$USERR1
 40
1.0
  9
$USERR2
 40
3.0
  9
$USERR3
 40
3.0
  9
$USERR4
 40
3.0
  9
$USERR5
 40
10.0
  9
$WORLDVIEW
 70
     1
  9
$SHADEDGE
 70
     3
  9
$SHADEDIF
 70
    70
  9
$TILEMODE
 70
     1
  9
$MAXACTVP
 70
    16
  9
$PLIMCHECK
 70
     0
  9
$PEXTMIN
 10
1.0000000000000000E+020
 20
1.0000000000000000E+020
 30
1.0000000000000000E+020
  9
$PEXTMAX
 10
-1.0000000000000000E+020
 20
-1.0000000000000000E+020
 30
-1.0000000000000000E+020
  9
$PLIMMIN
 10
0.0
 20
0.0
  9
$PLIMMAX
 10
12.0
 20
9.0
  9
$UNITMODE
 70
     0
  9
$VISRETAIN
 70
     0
  9
$PLINEGEN
 70
     0
  9
$PSLTSCALE
 70
     0
  0
ENDSEC
  0
SECTION
  2
TABLES
  0
TABLE
  2
VPORT
 70
     1
  0
VPORT
  2
*ACTIVE
 70
     0
 10
0.0
 20
0.0
 11
1.0
 21
1.0
 12
187.49427839065231
 22
153.8386822830239
 13
0.0
 23
0.0
 14
10.0
 24
10.0
 15
10.0
 25
10.0
 16
0.0
 26
0.0
 36
1.0
 17
0.0
 27
0.0
 37
0.0
 40
317.57199348763811
 41
2.304913294797688
 42
50.0
 43
0.0
 44
0.0
 50
0.0
 51
0.0
 71
     0
 72
   100
 73
     1
 74
     0
 75
     0
 76
     0
 77
     0
 78
     0
  0
ENDTAB
  0
TABLE
  2
LTYPE
 70
     3
  0
LTYPE
  2
CONTINUOUS
 70
     0
  3
Solid Line
 72
    65
 73
     0
 40
0.0
  0
LTYPE
  2
CENTER
 70
     0
  3
____ _ ____ _ ____ _ ____ _ ____ _ ____ _ ____
 72
    65
 73
     4
 40
2.0
 49
1.25
 49
-0.25
 49
0.25
 49
-0.25
  0
LTYPE
  2
PHANTOM2
 70
     0
  3
___ _ _ ___ _ _ ___ _ _ ___ _ _
 72
    65
 73
     6
 40
1.25
 49
0.625
 49
-0.125
 49
0.125
 49
-0.125
 49
0.125
 49
-0.125
  0
ENDTAB
  0
TABLE
  2
LAYER
 70
     3
  0
LAYER
  2
0
 70
     0
 62
     7
  6
CONTINUOUS
  0
LAYER
  2
1
 70
     0
 62
     1
  6
CENTER
  0
LAYER
  2
3
 70
     0
 62
     3
  6
CONTINUOUS
  0
ENDTAB
  0
TABLE
  2
STYLE
 70
     2
  0
STYLE
  2
STANDARD
 70
     0
 40
0.0
 41
1.0
 50
0.0
 71
     0
 42
0.2
  3
SIMPLEX
  4
BIGFONT
  0
STYLE
  2
STANDARD1
 70
     0
 40
0.0
 41
1.0
 50
0.0
 71
     0
 42
3.0
  3
txt
  4

  0
ENDTAB
  0
TABLE
  2
VIEW
 70
     0
  0
ENDTAB
  0
TABLE
  2
UCS
 70
     0
  0
ENDTAB
  0
TABLE
  2
APPID
 70
    34
  0
APPID
  2
ACAD
 70
     0
  0
APPID
  2
GENIUS_GENOBJ_13
 70
     0
  0
APPID
  2
GENIUS_GENODEF_13
 70
     0
  0
APPID
  2
GENIUS_GENOENT_13
 70
     0
  0
APPID
  2
GENIUS_GENOLIS_13
 70
     0
  0
APPID
  2
GENIUS_GENOREF_13
 70
     0
  0
APPID
  2
GENIUS_GENOBJ-N-TIT_13
 70
     0
  0
APPID
  2
GENIUS_GENTITLE_13
 70
     0
  0
APPID
  2
GENIUS_GENZVEED_13
 70
     0
  0
APPID
  2
GENIUS_GENOBJ-N-FIL_13
 70
     0
  0
APPID
  2
GENIUS_GENOBJ-N-CRS_13
 70
     0
  0
APPID
  2
GENIUS_GEFINERT_13
 70
     0
  0
APPID
  2
GENIUS_GENOBJ-F-INER_13
 70
     0
  0
APPID
  2
GENIUS_GENOBJ-N-ZOO_13
 70
     0
  0
APPID
  2
GENIUS_GENZOO_13
 70
     0
  0
APPID
  2
GENIUS_GENOBJ-F-TOL_13
 70
     0
  0
APPID
  2
GENIUS_GENOBJ-N-RSSYM_13
 70
     0
  0
APPID
  2
GENIUS_GENSYMENT_13
 70
     0
  0
APPID
  2
GENIUS_GENBH_13
 70
     0
  0
APPID
  2
GENIUS_GENOBJ-NBEHI-BHF_13
 70
     0
  0
APPID
  2
GENIUS_GENOBJ-NBEHI-BHB_13
 70
     0
  0
APPID
  2
GENIUS_GENOBJ-F-PART_13
 70
     0
  0
APPID
  2
GENIUS_GEFSTDP_13
 70
     0
  0
APPID
  2
GENIUS_GENOBJ-N-LEADER_13
 70
     0
  0
APPID
  2
GENIUS_GENOBJ-N-REV_13
 70
     0
  0
APPID
  2
GENIUS_GENDTOL_13
 70
     0
  0
APPID
  2
GENIUS_GENOBJ-N-REC_13
 70
     0
  0
APPID
  2
GENIUS_GENFIL_13
 70
     0
  0
APPID
  2
GENIUS_GENOBJ-N-CHA_13
 70
     0
  0
APPID
  2
GENIUS_GENOBJ-N-SEC_13
 70
     0
  0
APPID
  2
GENIUS_GENOBJ-N-CEN_13
 70
     0
  0
APPID
  2
GENIUS_GENOBJ-F-EDG_13
 70
     0
  0
APPID
  2
ACAD_MLEADERVER
 70
     0
  0
APPID
  2
ACAD_NAV_VCDISPLAY
 70
     0
  0
ENDTAB
  0
TABLE
  2
DIMSTYLE
 70
     1
  0
DIMSTYLE
  2
STANDARD
 70
     0
  3

  4

  5

  6

  7

 40
1.0
 41
0.18
 42
0.0625
 43
0.38
 44
0.18
 45
0.0
 46
0.0
 47
0.0
 48
0.0
140
0.18
141
0.09
142
0.0
143
25.399999999999999
144
1.0
145
0.0
146
1.0
147
0.09
 71
     0
 72
     0
 73
     1
 74
     1
 75
     0
 76
     0
 77
     0
 78
     0
170
     0
171
     2
172
     0
173
     0
174
     0
175
     0
176
     0
177
     0
178
     0
  0
ENDTAB
  0
ENDSEC
  0
SECTION
  2
BLOCKS
  0
BLOCK
  8
0
  2
$MODEL_SPACE
 70
     0
 10
0.0
 20
0.0
 30
0.0
  3
$MODEL_SPACE
  1

  0
ENDBLK
  5
15E7
  8
0
  0
BLOCK
 67
     1
  8
0
  2
$PAPER_SPACE
 70
     0
 10
0.0
 20
0.0
 30
0.0
  3
$PAPER_SPACE
  1

  0
ENDBLK
  5
15E5
 67
     1
  8
0
  0
ENDSEC
  0
SECTION
  2
ENTITIES
  0
CIRCLE
  5
1872
  8
0
 10
49.410030878410787
 20
50.368798776270921
 30
0.0
 40
2.1000000000001928
  0
CIRCLE
  5
1873
  8
0
 10
59.410030878410787
 20
50.368798776270971
 30
0.0
 40
2.100000000000136
  0
LINE
  5
1A4D
  8
1
 10
86.042219225920121
 20
28.897074108895708
 30
0.0
 11
86.042219225920121
 21
15.89707410889571
 31
0.0
  0
ARC
  5
1A4E
  8
0
 10
81.542219225920135
 20
24.897074108895708
 30
0.0
 40
0.5000000000002274
 50
90.0
 51
180.0
  0
ARC
  5
1A4F
  8
0
 10
90.542219225920107
 20
24.897074108895708
 30
0.0
 40
0.5
 50
0.0
 51
90.0
  0
LINE
  5
1A50
  8
0
 10
81.542219225920135
 20
25.397074108895708
 30
0.0
 11
90.542219225920107
 21
25.397074108895708
 31
0.0
  0
LINE
  5
1A51
  8
0
 10
91.042219225920121
 20
19.897074108895708
 30
0.0
 11
91.042219225920121
 21
24.897074108895708
 31
0.0
  0
LINE
  5
1A52
  8
0
 10
81.042219225920121
 20
24.897074108895708
 30
0.0
 11
81.042219225920121
 21
19.897074108895708
 31
0.0
  0
ARC
  5
1A53
  8
0
 10
81.542219225920135
 20
19.897074108895708
 30
0.0
 40
0.5000000000002274
 50
180.0
 51
270.0
  0
LINE
  5
1A54
  8
0
 10
90.542219225920107
 20
19.397074108895708
 30
0.0
 11
81.542219225920135
 21
19.397074108895708
 31
0.0
  0
ARC
  5
1A55
  8
0
 10
90.542219225920107
 20
19.897074108895708
 30
0.0
 40
0.5
 50
270.0
 51
359.99999999999841
  0
CIRCLE
  5
1A56
  8
3
 10
59.410030878410787
 20
50.368798776270971
 30
0.0
 40
2.4999999999997722
  0
CIRCLE
  5
1A57
  8
3
 10
49.410030878410787
 20
50.368798776270971
 30
0.0
 40
2.4999999999997722
  0
LINE
  5
1A58
  8
0
 10
59.410030878410787
 20
45.368798776270971
 30
0.0
 11
29.410030878410801
 21
45.368798776270971
 31
0.0
  0
LINE
  5
1A59
  8
0
 10
29.410030878410801
 20
47.71879877627088
 30
0.0
 11
39.410030878410801
 21
47.71879877627088
 31
0.0
  0
ARC
  5
1A5A
  8
0
 10
29.410030878410801
 20
50.368798776270971
 30
0.0
 40
2.6500000000000901
 50
90.0
 51
270.0
  0
LINE
  5
1A5B
  8
0
 10
39.410030878410801
 20
53.018798776271069
 30
0.0
 11
29.410030878410801
 21
53.018798776271069
 31
0.0
  0
ARC
  5
1A5C
  8
0
 10
39.410030878410801
 20
50.368798776270971
 30
0.0
 40
2.6500000000000901
 50
270.0
 51
90.0
  0
ARC
  5
1A5D
  8
0
 10
29.410030878410801
 20
50.368798776270971
 30
0.0
 40
5.0
 50
90.0
 51
270.0
  0
ARC
  5
1A5E
  8
0
 10
59.410030878410787
 20
50.368798776270971
 30
0.0
 40
5.0
 50
270.0
 51
90.0
  0
LINE
  5
1A5F
  8
0
 10
29.410030878410801
 20
55.368798776270971
 30
0.0
 11
59.410030878410787
 21
55.368798776270971
 31
0.0
  0
LINE
  5
1A61
  8
1
 10
20.410030878411021
 20
50.368798776270971
 30
0.0
 11
68.410030878410794
 21
50.368798776270971
 31
0.0
  0
LINE
  5
1A62
  8
1
 10
49.410030878410787
 20
28.81336211988458
 30
0.0
 11
49.410030878410787
 21
15.24837524475322
 31
0.0
  0
LINE
  5
1A63
  8
1
 10
59.410030878410787
 20
28.897074108895708
 30
0.0
 11
59.410030878410787
 21
15.89707410889571
 31
0.0
  0
LINE
  5
1A64
  8
1
 10
39.410030878410801
 20
28.897074108895708
 30
0.0
 11
39.410030878410801
 21
15.39707410889571
 31
0.0
  0
LINE
  5
1A65
  8
1
 10
29.410030878410801
 20
28.897074108895708
 30
0.0
 11
29.410030878410801
 21
15.39707410889571
 31
0.0
  0
LINE
  5
1A67
  8
0
 10
59.410030878410787
 20
25.397074108895708
 30
0.0
 11
63.910030878410787
 21
25.397074108895708
 31
0.0
  0
LINE
  5
1A68
  8
0
 10
29.410030878410801
 20
19.397074108895708
 30
0.0
 11
24.91003087841079
 21
19.397074108895708
 31
0.0
  0
LINE
  5
1A69
  8
0
 10
59.410030878410787
 20
19.397074108895708
 30
0.0
 11
29.410030878410801
 21
19.397074108895708
 31
0.0
  0
LINE
  5
1A6A
  8
0
 10
63.910030878410787
 20
19.397074108895708
 30
0.0
 11
59.410030878410787
 21
19.397074108895708
 31
0.0
  0
LINE
  5
1A6B
  8
0
 10
24.91003087841079
 20
25.397074108895708
 30
0.0
 11
29.410030878410801
 21
25.397074108895708
 31
0.0
  0
LINE
  5
1A6C
  8
0
 10
29.410030878410801
 20
25.397074108895708
 30
0.0
 11
59.410030878410787
 21
25.397074108895708
 31
0.0
  0
ARC
  5
1A6D
  8
0
 10
63.910030878410787
 20
24.897074108895708
 30
0.0
 40
0.5
 50
0.0
 51
90.0
  0
ARC
  5
1A6E
  8
0
 10
24.91003087841079
 20
19.897074108895708
 30
0.0
 40
0.5
 50
180.0
 51
270.0
  0
ARC
  5
1A6F
  8
0
 10
63.910030878410787
 20
19.897074108895708
 30
0.0
 40
0.5
 50
270.0
 51
359.99999999999841
  0
ARC
  5
1A70
  8
0
 10
24.91003087841079
 20
24.897074108895708
 30
0.0
 40
0.5
 50
90.0
 51
180.0
  0
LINE
  5
1A71
  8
1
 10
39.410030878411249
 20
57.018798776271062
 30
0.0
 11
39.410030878410801
 21
43.718798776270887
 31
0.0
  0
LINE
  5
1A72
  8
1
 10
29.410030878411249
 20
57.018798776271062
 30
0.0
 11
29.410030878410801
 21
43.718798776270887
 31
0.0
  0
LINE
  5
1A73
  8
1
 10
49.410030878410787
 20
56.868798776270751
 30
0.0
 11
49.410030878410787
 21
43.868798776271198
 31
0.0
  0
LINE
  5
1A74
  8
1
 10
59.410030878410787
 20
43.868798776271198
 30
0.0
 11
59.410030878410787
 21
56.868798776270751
 31
0.0
  0
LINE
  5
1A75
  8
1
 10
59.410030878410787
 20
50.368798776270971
 30
0.0
 11
59.410030878410787
 21
47.868798776270971
 31
0.0
  0
LINE
  5
1A76
  8
0
 10
24.41003087841079
 20
24.897074108895708
 30
0.0
 11
24.41003087841079
 21
19.897074108895708
 31
0.0
  0
LINE
  5
1A77
  8
0
 10
64.410030878410794
 20
24.897074108895708
 30
0.0
 11
64.410030878410794
 21
19.897074108895708
 31
0.0
  0
TEXT
  5
1E8F
  8
0
 62
     3
 10
0.0
 20
0.0
 30
0.0
 40
10.0
  1
QLSND-EX20
  7
STANDARD1
  0
ENDSEC
  0
EOF
