  0
SECTION
  2
HEADER
  9
$ACADVER
  1
AC1009
  9
$INSBASE
 10
57.26310498930394
 20
69.51894581396607
 30
0.0
  9
$EXTMIN
 10
0.0
 20
-2.960436562073669
 30
0.0
  9
$EXTMAX
 10
286.10687297261501
 20
104.3244728748291
 30
0.0
  9
$LIMMIN
 10
0.0
 20
0.0
  9
$LIMMAX
 10
390.0
 20
270.0
  9
$ORTHOMODE
 70
     1
  9
$REGENMODE
 70
     1
  9
$FILLMODE
 70
     1
  9
$QTEXTMODE
 70
     0
  9
$MIRRTEXT
 70
     1
  9
$DRAGMODE
 70
     2
  9
$LTSCALE
 40
5.0
  9
$OSMODE
 70
  3071
  9
$ATTMODE
 70
     1
  9
$TEXTSIZE
 40
3.2000000000000002
  9
$TRACEWID
 40
1.0
  9
$TEXTSTYLE
  7
K
  9
$CLAYER
  8
0
  9
$CELTYPE
  6
BYLAYER
  9
$CECOLOR
 62
   256
  9
$DIMSCALE
 40
1.0
  9
$DIMASZ
 40
3.0
  9
$DIMEXO
 40
1.0
  9
$DIMDLI
 40
6.0
  9
$DIMRND
 40
0.0
  9
$DIMDLE
 40
0.0
  9
$DIMEXE
 40
1.0
  9
$DIMTP
 40
495.0
  9
$DIMTM
 40
0.0
  9
$DIMTXT
 40
3.2000000000000002
  9
$DIMCEN
 40
0.0
  9
$DIMTSZ
 40
0.0
  9
$DIMTOL
 70
     0
  9
$DIMLIM
 70
     0
  9
$DIMTIH
 70
     0
  9
$DIMTOH
 70
     0
  9
$DIMSE1
 70
     0
  9
$DIMSE2
 70
     0
  9
$DIMTAD
 70
     1
  9
$DIMZIN
 70
     8
  9
$DIMBLK
  1

  9
$DIMASO
 70
     0
  9
$DIMSHO
 70
     1
  9
$DIMPOST
  1

  9
$DIMAPOST
  1

  9
$DIMALT
 70
     0
  9
$DIMALTD
 70
     2
  9
$DIMALTF
 40
25.399999999999999
  9
$DIMLFAC
 40
1.0
  9
$DIMTOFL
 70
     0
  9
$DIMTVP
 40
0.0
  9
$DIMTIX
 70
     0
  9
$DIMSOXD
 70
     0
  9
$DIMSAH
 70
     0
  9
$DIMBLK1
  1

  9
$DIMBLK2
  1

  9
$DIMSTYLE
  2
ITM
  9
$DIMCLRD
 70
     4
  9
$DIMCLRE
 70
     4
  9
$DIMCLRT
 70
     4
  9
$DIMTFAC
 40
1.0
  9
$DIMGAP
 40
1.0
  9
$LUNITS
 70
     2
  9
$LUPREC
 70
     2
  9
$SKETCHINC
 40
1.0
  9
$FILLETRAD
 40
0.4
  9
$AUNITS
 70
     0
  9
$AUPREC
 70
     0
  9
$MENU
  1
.
  9
$ELEVATION
 40
0.0
  9
$PELEVATION
 40
0.0
  9
$THICKNESS
 40
0.0
  9
$LIMCHECK
 70
     0
  9
$BLIPMODE
 70
     0
  9
$CHAMFERA
 40
1.1999999999999991
  9
$CHAMFERB
 40
1.1999999999999991
  9
$SKPOLY
 70
     0
  9
$TDCREATE
 40
2453354.0921258219
  9
$TDUPDATE
 40
2456598.429577813
  9
$TDINDWG
 40
512.49830271990004
  9
$TDUSRTIMER
 40
512.49802474540002
  9
$USRTIMER
 70
     1
  9
$ANGBASE
 50
0.0
  9
$ANGDIR
 70
     0
  9
$PDMODE
 70
     0
  9
$PDSIZE
 40
0.0
  9
$PLINEWID
 40
0.0
  9
$COORDS
 70
     1
  9
$SPLFRAME
 70
     0
  9
$SPLINETYPE
 70
     6
  9
$SPLINESEGS
 70
     8
  9
$ATTDIA
 70
     0
  9
$ATTREQ
 70
     1
  9
$HANDLING
 70
     1
  9
$HANDSEED
  5
20A
  9
$SURFTAB1
 70
     6
  9
$SURFTAB2
 70
     6
  9
$SURFTYPE
 70
     6
  9
$SURFU
 70
     6
  9
$SURFV
 70
     6
  9
$UCSNAME
  2

  9
$UCSORG
 10
0.0
 20
0.0
 30
0.0
  9
$UCSXDIR
 10
1.0
 20
0.0
 30
0.0
  9
$UCSYDIR
 10
0.0
 20
1.0
 30
0.0
  9
$PUCSNAME
  2

  9
$PUCSORG
 10
0.0
 20
0.0
 30
0.0
  9
$PUCSXDIR
 10
1.0
 20
0.0
 30
0.0
  9
$PUCSYDIR
 10
0.0
 20
1.0
 30
0.0
  9
$USERI1
 70
     4
  9
$USERI2
 70
     1
  9
$USERI3
 70
     1
  9
$USERI4
 70
     0
  9
$USERI5
 70
     0
  9
$USERR1
 40
1.0
  9
$USERR2
 40
3.0
  9
$USERR3
 40
3.2000000000000002
  9
$USERR4
 40
3.0
  9
$USERR5
 40
10.0
  9
$WORLDVIEW
 70
     1
  9
$SHADEDGE
 70
     3
  9
$SHADEDIF
 70
    70
  9
$TILEMODE
 70
     1
  9
$MAXACTVP
 70
    16
  9
$PLIMCHECK
 70
     0
  9
$PEXTMIN
 10
0.0
 20
0.0
 30
0.0
  9
$PEXTMAX
 10
0.0
 20
0.0
 30
0.0
  9
$PLIMMIN
 10
0.0
 20
0.0
  9
$PLIMMAX
 10
12.0
 20
9.0
  9
$UNITMODE
 70
     0
  9
$VISRETAIN
 70
     0
  9
$PLINEGEN
 70
     0
  9
$PSLTSCALE
 70
     1
  0
ENDSEC
  0
SECTION
  2
TABLES
  0
TABLE
  2
VPORT
 70
     1
  0
VPORT
  2
*ACTIVE
 70
     0
 10
0.0
 20
0.0
 11
1.0
 21
1.0
 12
194.9940495262785
 22
149.37525922376949
 13
0.0
 23
0.0
 14
5.0
 24
5.0
 15
10.0
 25
10.0
 16
0.0
 26
0.0
 36
1.0
 17
0.0
 27
0.0
 37
0.0
 40
308.52635987286669
 41
2.304913294797688
 42
50.0
 43
0.0
 44
0.0
 50
0.0
 51
0.0
 71
    16
 72
   500
 73
     1
 74
     1
 75
     0
 76
     0
 77
     0
 78
     1
  0
ENDTAB
  0
TABLE
  2
LTYPE
 70
     4
  0
LTYPE
  2
CONTINUOUS
 70
     0
  3
Solid line
 72
    65
 73
     0
 40
0.0
  0
LTYPE
  2
DASHED
 70
     0
  3
__ __ __ __ __ __ __ __ __ __ __ __ __ __ __
 72
    65
 73
     2
 40
0.75
 49
0.5
 49
-0.25
  0
LTYPE
  2
CENTER
 70
     0
  3
____ _ ____ _ ____ _ ____ _ ____ _ ____ _ ____
 72
    65
 73
     4
 40
2.0
 49
1.25
 49
-0.25
 49
0.25
 49
-0.25
  0
LTYPE
  2
PHANTOM2
 70
     0
  3
___ _ _ ___ _ _ ___ _ _ ___ _ _
 72
    65
 73
     6
 40
1.25
 49
0.625
 49
-0.125
 49
0.125
 49
-0.125
 49
0.125
 49
-0.125
  0
ENDTAB
  0
TABLE
  2
LAYER
 70
     5
  0
LAYER
  2
0
 70
     0
 62
     7
  6
CONTINUOUS
  0
LAYER
  2
2
 70
     0
 62
     2
  6
DASHED
  0
LAYER
  2
1
 70
     0
 62
     1
  6
CENTER
  0
LAYER
  2
WAKU
 70
     0
 62
     5
  6
CONTINUOUS
  0
LAYER
  2
3
 70
     0
 62
     3
  6
CONTINUOUS
  0
ENDTAB
  0
TABLE
  2
STYLE
 70
     3
  0
STYLE
  2
STANDARD
 70
     0
 40
0.0
 41
1.0
 50
0.0
 71
     0
 42
2.5
  3
ROMANS
  4
EXTFONT
  0
STYLE
  2
K
 70
     0
 40
0.0
 41
0.75
 50
0.0
 71
     0
 42
3.2000000000000002
  3
ROMANS.shx
  4
EXTFONT.shx
  0
STYLE
  2
STANDARD1
 70
     0
 40
0.0
 41
1.0
 50
0.0
 71
     0
 42
3.0
  3
txt
  4

  0
ENDTAB
  0
TABLE
  2
VIEW
 70
     0
  0
ENDTAB
  0
TABLE
  2
UCS
 70
     0
  0
ENDTAB
  0
TABLE
  2
APPID
 70
     3
  0
APPID
  2
ACAD
 70
     0
  0
APPID
  2
ACAD_MLEADERVER
 70
     0
  0
APPID
  2
ACAD_NAV_VCDISPLAY
 70
     0
  0
ENDTAB
  0
TABLE
  2
DIMSTYLE
 70
     2
  0
DIMSTYLE
  2
ITM
 70
     0
  3

  4

  5

  6

  7

 40
0.0
 41
2.5
 42
1.0
 43
6.0
 44
1.0
 45
0.0
 46
0.0
 47
495.0
 48
0.0
140
3.0
141
0.0
142
0.0
143
25.399999999999999
144
1.0
145
0.0
146
1.0
147
1.0
 71
     0
 72
     0
 73
     0
 74
     0
 75
     0
 76
     0
 77
     3
 78
     8
170
     0
171
     2
172
     1
173
     0
174
     0
175
     0
176
     0
177
     0
178
     0
  0
DIMSTYLE
  2
STANDARD
 70
     0
  3

  4

  5

  6

  7

 40
1.0
 41
0.18
 42
0.0625
 43
0.38
 44
0.18
 45
0.0
 46
0.0
 47
0.0
 48
0.0
140
0.18
141
0.09
142
0.0
143
25.399999999999999
144
1.0
145
0.0
146
1.0
147
0.09
 71
     0
 72
     0
 73
     1
 74
     1
 75
     0
 76
     0
 77
     0
 78
     0
170
     0
171
     2
172
     0
173
     0
174
     0
175
     0
176
     0
177
     0
178
     0
  0
ENDTAB
  0
ENDSEC
  0
SECTION
  2
BLOCKS
  0
BLOCK
  8
0
  2
$MODEL_SPACE
 70
     0
 10
0.0
 20
0.0
 30
0.0
  3
$MODEL_SPACE
  1

  0
ENDBLK
  5
12
  8
0
  0
BLOCK
 67
     1
  8
0
  2
$PAPER_SPACE
 70
     0
 10
0.0
 20
0.0
 30
0.0
  3
$PAPER_SPACE
  1

  0
ENDBLK
  5
19
 67
     1
  8
0
  0
BLOCK
  8
0
  2
ARROW1
 70
     0
 10
0.0
 20
0.0
 30
0.0
  3
ARROW1
  1

  0
SOLID
  5
4A
  8
WAKU
  6
CONTINUOUS
 62
     4
 10
-1.0
 20
0.1666666666666714
 30
0.0
 11
-1.0
 21
-0.1666666666666714
 31
0.0
 12
0.0
 22
0.0
 32
0.0
 13
0.0
 23
0.0
 33
0.0
  0
ENDBLK
  5
4C
  8
0
  0
ENDSEC
  0
SECTION
  2
ENTITIES
  0
LINE
  5
73
  8
0
 10
253.9330250334439
 20
80.356757788702893
 30
0.0
 11
253.9330250334439
 21
92.356757788702893
 31
0.0
  0
LINE
  5
74
  8
0
 10
254.93302503344381
 20
91.255737726202867
 30
0.0
 11
254.9330250334439
 21
81.356757788702879
 31
0.0
  0
LINE
  5
75
  8
0
 10
130.93302503344381
 20
83.040132998347474
 30
0.0
 11
130.93302503344381
 21
80.356757788702893
 31
0.0
  0
LINE
  5
76
  8
0
 10
130.93302503344381
 20
83.040132998347474
 30
0.0
 11
135.93302503344381
 21
83.040132998347474
 31
0.0
  0
LINE
  5
77
  8
0
 10
135.93302503344381
 20
83.040132998347474
 30
0.0
 11
135.93302503344381
 21
89.673382579058284
 31
0.0
  0
LINE
  5
78
  8
0
 10
135.93302503344381
 20
89.673382579058284
 30
0.0
 11
130.93302503344381
 21
89.673382579058284
 31
0.0
  0
LINE
  5
79
  8
0
 10
130.93302503344381
 20
92.356757788702907
 30
0.0
 11
130.93302503344381
 21
89.673382579058284
 31
0.0
  0
LINE
  5
7A
  8
0
 10
129.93302503344381
 20
81.356757788702907
 30
0.0
 11
129.93302503344381
 21
91.356757788702907
 31
0.0
  0
LINE
  5
7B
  8
1
 10
124.9467132755742
 20
86.356757788702907
 30
0.0
 11
286.10687297261501
 21
86.356757788702907
 31
0.0
  0
CIRCLE
  5
7E
  8
0
 10
79.226991598465617
 20
86.356757788702765
 30
0.0
 40
12.5000001526262
  0
ARC
  5
7F
  8
0
 10
79.2269915984661
 20
86.356757788702907
 30
0.0
 40
5.0
 50
180.0
 51
0.0
  0
ARC
  5
80
  8
0
 10
79.2269915984661
 20
86.356757788702907
 30
0.0
 40
5.0
 50
0.0
 51
180.0
  0
CIRCLE
  5
81
  8
0
 10
79.2269915984661
 20
86.356757788702907
 30
0.0
 40
3.499999999999992
  0
ARC
  5
82
  8
0
 10
79.2269915984661
 20
86.356757788702907
 30
0.0
 40
6.000000000000008
 50
213.5573097619212
 51
326.44269023807988
  0
ARC
  5
83
  8
0
 10
79.2269915984661
 20
86.356757788702907
 30
0.0
 40
6.000000000000008
 50
33.557309761920891
 51
146.44269023807911
  0
ARC
  5
84
  8
0
 10
79.226991598466071
 20
86.356757788702907
 30
0.0
 40
6.0000000000000018
 50
146.44269023807911
 51
213.5573097619212
  0
ARC
  5
85
  8
0
 10
79.226991598466071
 20
86.356757788702907
 30
0.0
 40
6.0000000000000018
 50
326.44269023807988
 51
33.557309761920891
  0
LINE
  5
86
  8
1
 10
95.273786868117995
 20
86.356757788702907
 30
0.0
 11
63.098090558538033
 21
86.356757788702907
 31
0.0
  0
LINE
  5
87
  8
1
 10
79.2269915984661
 20
104.3244728748291
 30
0.0
 11
79.2269915984661
 21
69.51894581396607
 31
0.0
  0
LINE
  5
88
  8
0
 10
84.226991598466057
 20
89.673382579058327
 30
0.0
 11
84.226991598466114
 21
83.040132998347573
 31
0.0
  0
LINE
  5
89
  8
0
 10
74.226991598466071
 20
89.673382579058327
 30
0.0
 11
74.226991598466114
 21
83.040132998347474
 31
0.0
  0
LINE
  5
8A
  8
0
 10
129.93302503344381
 20
91.356757788702907
 30
0.0
 11
130.9330250334439
 21
92.356757788702907
 31
0.0
  0
LINE
  5
8B
  8
0
 10
130.9330250334439
 20
92.356757788702907
 30
0.0
 11
253.9330250334439
 21
92.356757788702907
 31
0.0
  0
LINE
  5
8C
  8
0
 10
253.9330250334439
 20
92.356757788702907
 30
0.0
 11
254.9330250334439
 21
91.356757788702907
 31
0.0
  0
LINE
  5
8D
  8
0
 10
254.9330250334439
 20
81.356757788702879
 30
0.0
 11
253.9330250334439
 21
80.356757788702893
 31
0.0
  0
LINE
  5
8E
  8
0
 10
253.9330250334439
 20
80.356757788702893
 30
0.0
 11
130.93302503344381
 21
80.356757788702893
 31
0.0
  0
LINE
  5
8F
  8
0
 10
130.93302503344381
 20
80.356757788702893
 30
0.0
 11
129.93302503344381
 21
81.356757788702907
 31
0.0
  0
ARC
  5
90
  8
0
 10
135.93302503344381
 20
86.356757788702879
 30
0.0
 40
5.9999999999999707
 50
146.44269023807911
 51
213.55730976192089
  0
LINE
  5
91
  8
2
 10
130.391525033444
 20
89.356757788702936
 30
0.0
 11
141.93302503344381
 21
89.356757788702922
 31
0.0
  0
LINE
  5
94
  8
2
 10
130.93302503344381
 20
88.815257788703008
 30
0.0
 11
146.93302503344381
 21
88.815257788702993
 31
0.0
  0
LINE
  5
95
  8
2
 10
130.93302503344381
 20
83.898257788702836
 30
0.0
 11
146.93302503344381
 21
83.898257788702821
 31
0.0
  0
LINE
  5
96
  8
2
 10
130.391525033444
 20
83.356757788702936
 30
0.0
 11
141.93302503344381
 21
83.356757788702922
 31
0.0
  0
LINE
  5
97
  8
2
 10
141.93302503344381
 20
89.356757788702922
 30
0.0
 11
141.93302503344381
 21
83.356757788702922
 31
0.0
  0
LINE
  5
98
  8
2
 10
146.93302503344381
 20
88.815257788702993
 30
0.0
 11
146.93302503344381
 21
83.898257788702821
 31
0.0
  0
LINE
  5
99
  8
2
 10
146.93302503344381
 20
88.815257788702965
 30
0.0
 11
148.4102408653232
 21
86.356757788702893
 31
0.0
  0
LINE
  5
9A
  8
2
 10
146.9330250334439
 20
83.898257788702821
 30
0.0
 11
148.4102408653232
 21
86.356757788702893
 31
0.0
  0
LINE
  5
9B
  8
2
 10
141.93302503344381
 20
83.356757788702922
 30
0.0
 11
142.87093054574231
 21
83.89825778870285
 31
0.0
  0
LINE
  5
9C
  8
2
 10
141.93302503344381
 20
89.356757788702808
 30
0.0
 11
142.87093054574231
 21
88.815257788702894
 31
0.0
  0
LINE
  5
9D
  8
2
 10
129.93302503344381
 20
89.815257788703036
 30
0.0
 11
130.9330250334439
 21
88.815257788702965
 31
0.0
  0
LINE
  5
9E
  8
2
 10
130.93302503344381
 20
83.898257788702836
 30
0.0
 11
129.93302503344381
 21
82.898257788702793
 31
0.0
  0
LINE
  5
9F
  8
2
 10
130.93302503344381
 20
88.815257788703008
 30
0.0
 11
130.93302503344381
 21
83.898257788702864
 31
0.0
  0
CIRCLE
  5
A0
  8
3
 10
79.2269915984661
 20
86.356757788702907
 30
0.0
 40
3.0
  0
CIRCLE
  5
A2
  8
0
 10
79.2269915984661
 20
86.356757788702907
 30
0.0
 40
2.458499999999999
  0
ARC
  5
A3
  8
0
 10
266.43302503344381
 20
86.356757788702794
 30
0.0
 40
12.500000177121111
 50
203.0739199714227
 51
156.92608002857861
  0
TEXT
  5
1AA
  8
0
 62
     3
 10
0.0
 20
0.0
 30
0.0
 40
10.0
  1
QLRCS-12125
  7
STANDARD1
  0
ENDSEC
  0
EOF
