  0
SECTION
  2
HEADER
  9
$ACADVER
  1
AC1009
  9
$INSBASE
 10
0.0
 20
0.0
 30
0.0
  9
$EXTMIN
 10
0.0
 20
-2.960436562073669
 30
0.0
  9
$EXTMAX
 10
317.8362451794269
 20
301.64323645759242
 30
0.0
  9
$LIMMIN
 10
0.0
 20
0.0
  9
$LIMMAX
 10
0.0
 20
0.0
  9
$ORTHOMODE
 70
     1
  9
$REGENMODE
 70
     1
  9
$FILLMODE
 70
     1
  9
$QTEXTMODE
 70
     0
  9
$MIRRTEXT
 70
     0
  9
$DRAGMODE
 70
     2
  9
$LTSCALE
 40
1.0
  9
$OSMODE
 70
    37
  9
$ATTMODE
 70
     1
  9
$TEXTSIZE
 40
0.0
  9
$TRACEWID
 40
0.05
  9
$TEXTSTYLE
  7
STANDARD
  9
$CLAYER
  8
0
  9
$CELTYPE
  6
BYLAYER
  9
$CECOLOR
 62
   256
  9
$DIMSCALE
 40
1.0
  9
$DIMASZ
 40
6.0
  9
$DIMEXO
 40
1.0
  9
$DIMDLI
 40
0.38
  9
$DIMRND
 40
0.0
  9
$DIMDLE
 40
1.0
  9
$DIMEXE
 40
0.18
  9
$DIMTP
 40
0.0
  9
$DIMTM
 40
0.0
  9
$DIMTXT
 40
3.5
  9
$DIMCEN
 40
0.09
  9
$DIMTSZ
 40
0.0
  9
$DIMTOL
 70
     0
  9
$DIMLIM
 70
     0
  9
$DIMTIH
 70
     1
  9
$DIMTOH
 70
     1
  9
$DIMSE1
 70
     0
  9
$DIMSE2
 70
     0
  9
$DIMTAD
 70
     1
  9
$DIMZIN
 70
     0
  9
$DIMBLK
  1

  9
$DIMASO
 70
     1
  9
$DIMSHO
 70
     1
  9
$DIMPOST
  1

  9
$DIMAPOST
  1

  9
$DIMALT
 70
     0
  9
$DIMALTD
 70
     2
  9
$DIMALTF
 40
0.0394
  9
$DIMLFAC
 40
2.0
  9
$DIMTOFL
 70
     0
  9
$DIMTVP
 40
0.0
  9
$DIMTIX
 70
     0
  9
$DIMSOXD
 70
     0
  9
$DIMSAH
 70
     0
  9
$DIMBLK1
  1

  9
$DIMBLK2
  1

  9
$DIMSTYLE
  2
STANDARD
  9
$DIMCLRD
 70
     0
  9
$DIMCLRE
 70
     0
  9
$DIMCLRT
 70
     0
  9
$DIMTFAC
 40
1.0
  9
$DIMGAP
 40
1.0
  9
$LUNITS
 70
     2
  9
$LUPREC
 70
     2
  9
$SKETCHINC
 40
0.1
  9
$FILLETRAD
 40
0.0
  9
$AUNITS
 70
     0
  9
$AUPREC
 70
     2
  9
$MENU
  1
acad
  9
$ELEVATION
 40
0.0
  9
$PELEVATION
 40
0.0
  9
$THICKNESS
 40
0.0
  9
$LIMCHECK
 70
     0
  9
$BLIPMODE
 70
     0
  9
$CHAMFERA
 40
0.0
  9
$CHAMFERB
 40
0.0
  9
$SKPOLY
 70
     0
  9
$TDCREATE
 40
2444972.375
  9
$TDUPDATE
 40
2456969.4107182748
  9
$TDINDWG
 40
0.1823472685
  9
$TDUSRTIMER
 40
0.1823472685
  9
$USRTIMER
 70
     1
  9
$ANGBASE
 50
0.0
  9
$ANGDIR
 70
     0
  9
$PDMODE
 70
     0
  9
$PDSIZE
 40
-1.0
  9
$PLINEWID
 40
0.0
  9
$COORDS
 70
     1
  9
$SPLFRAME
 70
     0
  9
$SPLINETYPE
 70
     6
  9
$SPLINESEGS
 70
     8
  9
$ATTDIA
 70
     0
  9
$ATTREQ
 70
     1
  9
$HANDLING
 70
     1
  9
$HANDSEED
  5
29E2
  9
$SURFTAB1
 70
     6
  9
$SURFTAB2
 70
     6
  9
$SURFTYPE
 70
     6
  9
$SURFU
 70
     6
  9
$SURFV
 70
     6
  9
$UCSNAME
  2

  9
$UCSORG
 10
0.0
 20
0.0
 30
0.0
  9
$UCSXDIR
 10
1.0
 20
0.0
 30
0.0
  9
$UCSYDIR
 10
0.0
 20
1.0
 30
0.0
  9
$PUCSNAME
  2

  9
$PUCSORG
 10
0.0
 20
0.0
 30
0.0
  9
$PUCSXDIR
 10
1.0
 20
0.0
 30
0.0
  9
$PUCSYDIR
 10
0.0
 20
1.0
 30
0.0
  9
$USERI1
 70
     0
  9
$USERI2
 70
     1
  9
$USERI3
 70
     0
  9
$USERI4
 70
     0
  9
$USERI5
 70
     0
  9
$USERR1
 40
0.0
  9
$USERR2
 40
0.0
  9
$USERR3
 40
0.0
  9
$USERR4
 40
0.0
  9
$USERR5
 40
0.0
  9
$WORLDVIEW
 70
     1
  9
$SHADEDGE
 70
     3
  9
$SHADEDIF
 70
    70
  9
$TILEMODE
 70
     1
  9
$MAXACTVP
 70
    16
  9
$PLIMCHECK
 70
     0
  9
$PEXTMIN
 10
1.0000000000000000E+020
 20
1.0000000000000000E+020
 30
1.0000000000000000E+020
  9
$PEXTMAX
 10
-1.0000000000000000E+020
 20
-1.0000000000000000E+020
 30
-1.0000000000000000E+020
  9
$PLIMMIN
 10
0.0
 20
0.0
  9
$PLIMMAX
 10
12.0
 20
9.0
  9
$UNITMODE
 70
     0
  9
$VISRETAIN
 70
     0
  9
$PLINEGEN
 70
     1
  9
$PSLTSCALE
 70
     1
  0
ENDSEC
  0
SECTION
  2
TABLES
  0
TABLE
  2
VPORT
 70
     1
  0
VPORT
  2
*ACTIVE
 70
     0
 10
0.0
 20
0.0
 11
1.0
 21
1.0
 12
314.18636995827541
 22
180.0
 13
0.0
 23
0.0
 14
1.0
 24
1.0
 15
0.0
 25
0.0
 16
0.0
 26
0.0
 36
1.0
 17
0.0
 27
0.0
 37
0.0
 40
360.0
 41
1.7454798331015291
 42
50.0
 43
0.0
 44
0.0
 50
0.0
 51
0.0
 71
     0
 72
  2000
 73
     1
 74
     0
 75
     0
 76
     0
 77
     0
 78
     0
  0
ENDTAB
  0
TABLE
  2
LTYPE
 70
     3
  0
LTYPE
  2
CONTINUOUS
 70
     0
  3
Solid Line
 72
    65
 73
     0
 40
0.0
  0
LTYPE
  2
CENTERX2
 70
     0
  3
Center (2x) ________  __  ________  __  _____
 72
    65
 73
     4
 40
20.32
 49
12.699999999999999
 49
-2.54
 49
2.54
 49
-2.54
  0
LTYPE
  2
PHANTOM2
 70
     0
  3
___ _ _ ___ _ _ ___ _ _ ___ _ _
 72
    65
 73
     6
 40
1.25
 49
0.625
 49
-0.125
 49
0.125
 49
-0.125
 49
0.125
 49
-0.125
  0
ENDTAB
  0
TABLE
  2
LAYER
 70
     4
  0
LAYER
  2
0
 70
     0
 62
     7
  6
CONTINUOUS
  0
LAYER
  2
DEFPOINTS
 70
     0
 62
     7
  6
CONTINUOUS
  0
LAYER
  2
1
 70
     0
 62
     1
  6
CENTERX2
  0
LAYER
  2
3
 70
     0
 62
     3
  6
CONTINUOUS
  0
ENDTAB
  0
TABLE
  2
STYLE
 70
     2
  0
STYLE
  2
STANDARD
 70
     0
 40
0.0
 41
1.0
 50
0.0
 71
     0
 42
0.0
  3
txt
  4
bigfont
  0
STYLE
  2
STANDARD1
 70
     0
 40
0.0
 41
1.0
 50
0.0
 71
     0
 42
3.0
  3
txt
  4

  0
ENDTAB
  0
TABLE
  2
VIEW
 70
     0
  0
ENDTAB
  0
TABLE
  2
UCS
 70
     0
  0
ENDTAB
  0
TABLE
  2
APPID
 70
    30
  0
APPID
  2
ACAD
 70
     0
  0
APPID
  2
DCO15
 70
     0
  0
APPID
  2
GENIUS_GENOREF_13
 70
     0
  0
APPID
  2
GENIUS_GENOENT_13
 70
     0
  0
APPID
  2
GENIUS_GENBH_13
 70
     0
  0
APPID
  2
GENIUS_GENOBJ_13
 70
     0
  0
APPID
  2
GENIUS_GENODEF_13
 70
     0
  0
APPID
  2
GENIUS_GENOLIS_13
 70
     0
  0
APPID
  2
GENIUS_GENOBJ-NBEHI-BHF_13
 70
     0
  0
APPID
  2
GENIUS_GENOBJ-NBEHI-BHB_13
 70
     0
  0
APPID
  2
GENIUS_GENOBJ-F-PART_13
 70
     0
  0
APPID
  2
GENIUS_GEFSTDP_13
 70
     0
  0
APPID
  2
GENIUS_GENOBJ-N-RSSYM_13
 70
     0
  0
APPID
  2
GENIUS_GENSYMENT_13
 70
     0
  0
APPID
  2
GENIUS_GENOBJ-N-TIT_13
 70
     0
  0
APPID
  2
GENIUS_GENTITLE_13
 70
     0
  0
APPID
  2
GENIUS_GENZVEED_13
 70
     0
  0
APPID
  2
GENIUS_GENOBJ-N-LEADER_13
 70
     0
  0
APPID
  2
GENIUS_GENOBJ-N-FIL_13
 70
     0
  0
APPID
  2
GENIUS_GENOBJ-N-SEC_13
 70
     0
  0
APPID
  2
GENIUS_GENOBJ-N-CRS_13
 70
     0
  0
APPID
  2
GENIUS_GENOBJ-N-ZOO_13
 70
     0
  0
APPID
  2
GENIUS_GENZOO_13
 70
     0
  0
APPID
  2
GENIUS_GENOBJ-F-TOL_13
 70
     0
  0
APPID
  2
GENIUS_GENFIL_13
 70
     0
  0
APPID
  2
GENIUS_GENOBJ-N-CHA_13
 70
     0
  0
APPID
  2
_CALL_MAC$
 70
     0
  0
APPID
  2
ACAD_MLEADERVER
 70
     0
  0
APPID
  2
ACAD_NAV_VCDISPLAY
 70
     0
  0
APPID
  2
ACAD_EXEMPT_FROM_CAD_STANDARDS
 70
     0
  0
ENDTAB
  0
TABLE
  2
DIMSTYLE
 70
     1
  0
DIMSTYLE
  2
STANDARD
 70
     0
  3

  4

  5

  6

  7

 40
1.0
 41
0.18
 42
0.0625
 43
0.38
 44
0.18
 45
0.0
 46
0.0
 47
0.0
 48
0.0
140
0.18
141
0.09
142
0.0
143
25.399999999999999
144
1.0
145
0.0
146
1.0
147
0.09
 71
     0
 72
     0
 73
     1
 74
     1
 75
     0
 76
     0
 77
     0
 78
     0
170
     0
171
     2
172
     0
173
     0
174
     0
175
     0
176
     0
177
     0
178
     0
  0
ENDTAB
  0
ENDSEC
  0
SECTION
  2
BLOCKS
  0
BLOCK
  8
0
  2
$MODEL_SPACE
 70
     0
 10
0.0
 20
0.0
 30
0.0
  3
$MODEL_SPACE
  1

  0
ENDBLK
  5
E
  8
0
  0
BLOCK
 67
     1
  8
0
  2
$PAPER_SPACE
 70
     0
 10
0.0
 20
0.0
 30
0.0
  3
$PAPER_SPACE
  1

  0
ENDBLK
  5
10
 67
     1
  8
0
  0
ENDSEC
  0
SECTION
  2
ENTITIES
  0
TEXT
  5
1201
  8
0
 62
     3
 10
0.0
 20
0.0
 30
0.0
 40
10.0
  1
QLPD150NR
  7
STANDARD1
  0
LINE
  5
1647
  8
0
 10
217.83624855703391
 20
168.84233093935711
 30
0.0
 11
217.83624855703391
 21
183.44233128357379
 31
0.0
  0
LINE
  5
1648
  8
0
 10
177.83624945110361
 20
183.44233128357379
 30
0.0
 11
177.83624945110361
 21
168.842330939357
 31
0.0
  0
LINE
  5
1649
  8
0
 10
177.83624945110361
 20
168.842330939357
 30
0.0
 11
178.03624911135711
 21
168.64233081344219
 31
0.0
  0
LINE
  5
164A
  8
0
 10
217.63624889678039
 20
168.64233081344219
 30
0.0
 11
217.83624855703391
 21
168.842330939357
 31
0.0
  0
LINE
  5
164B
  8
0
 10
217.83624855703391
 20
183.44233128357379
 30
0.0
 11
217.63624889678039
 21
183.64233094382729
 31
0.0
  0
LINE
  5
164C
  8
0
 10
178.03624911135711
 20
183.64233094382729
 30
0.0
 11
177.83624945110361
 21
183.44233128357379
 31
0.0
  0
LINE
  5
164D
  8
0
 10
177.83624945110361
 20
167.64233088236
 30
0.0
 11
178.3362486017374
 21
167.14233103323431
 31
0.0
  0
LINE
  5
164E
  8
0
 10
217.3362494064001
 20
167.14233103323431
 30
0.0
 11
217.83624855703391
 21
167.64233088236
 31
0.0
  0
LINE
  5
164F
  8
0
 10
217.83624855703391
 20
168.44233092035799
 30
0.0
 11
217.63624889678039
 21
168.64233081344219
 31
0.0
  0
LINE
  5
1650
  8
0
 10
178.03624911135711
 20
168.64233081344219
 30
0.0
 11
177.83624945110361
 21
168.44233092035799
 31
0.0
  0
LINE
  5
1651
  8
0
 10
217.83624855703391
 20
167.64233088236
 30
0.0
 11
217.83624855703391
 21
168.44233092035799
 31
0.0
  0
LINE
  5
1652
  8
0
 10
177.83624945110361
 20
168.44233092035799
 30
0.0
 11
177.83624945110361
 21
167.64233088236
 31
0.0
  0
ARC
  5
1653
  8
0
 10
181.33624900406869
 20
192.6423309981609
 30
0.0
 40
2.0
 50
90.0
 51
180.0
  0
ARC
  5
1654
  8
0
 10
214.33624900406869
 20
192.6423309981609
 30
0.0
 40
2.0
 50
22.024281766621979
 51
90.0
  0
LINE
  5
1655
  8
0
 10
216.3362492424873
 20
183.64233094382729
 30
0.0
 11
216.3362492424873
 21
184.90091282058211
 31
0.0
  0
LINE
  5
1656
  8
0
 10
179.33624876565011
 20
192.6423305563971
 30
0.0
 11
179.33624876565011
 21
183.64233094382729
 31
0.0
  0
LINE
  5
1657
  8
0
 10
210.33624919033321
 20
165.143234961421
 30
0.0
 11
210.33624919033321
 21
167.14233103323431
 31
0.0
  0
LINE
  5
1658
  8
0
 10
185.3362488178042
 20
167.14233103323431
 30
0.0
 11
185.3362488178042
 21
165.143234961421
 31
0.0
  0
LINE
  5
1659
  8
0
 10
185.3362488178042
 20
165.143234961421
 30
0.0
 11
185.83624889976059
 21
164.6432349376723
 31
0.0
  0
LINE
  5
165A
  8
0
 10
209.8362491083769
 20
164.6432349376723
 30
0.0
 11
210.33624919033321
 21
165.143234961421
 31
0.0
  0
LINE
  5
165B
  8
0
 10
204.58624917915739
 20
196.14323544431181
 30
0.0
 11
204.08624909720101
 21
196.6432364575908
 31
0.0
  0
LINE
  5
165C
  8
0
 10
191.58624891093649
 20
196.6432364575908
 30
0.0
 11
191.0862488289801
 21
196.14323544431181
 31
0.0
  0
LINE
  5
165D
  8
0
 10
204.58624917915739
 20
194.6423308842227
 30
0.0
 11
204.58624917915739
 21
196.14323544431181
 31
0.0
  0
LINE
  5
165E
  8
0
 10
191.0862488289801
 20
196.14323544431181
 30
0.0
 11
191.0862488289801
 21
194.6423308842227
 31
0.0
  0
LINE
  5
1678
  8
0
 10
217.83624855703391
 20
183.44233128357379
 30
0.0
 11
177.83624945110361
 21
183.44233128357379
 31
0.0
  0
LINE
  5
167A
  8
0
 10
177.83624945110361
 20
168.842330939357
 30
0.0
 11
217.83624855703391
 21
168.842330939357
 31
0.0
  0
LINE
  5
167D
  8
0
 10
178.03624911135699
 20
183.64233094382729
 30
0.0
 11
217.63624889678039
 21
183.64233094382729
 31
0.0
  0
LINE
  5
167F
  8
0
 10
217.3362494064001
 20
167.14233103323431
 30
0.0
 11
178.3362486017374
 21
167.14233103323431
 31
0.0
  0
LINE
  5
1680
  8
0
 10
177.83624945110361
 20
167.64233088236
 30
0.0
 11
217.83624855703391
 21
167.64233088236
 31
0.0
  0
LINE
  5
1681
  8
0
 10
217.8362485570338
 20
168.44233092035799
 30
0.0
 11
177.83624945110361
 21
168.44233092035799
 31
0.0
  0
LINE
  5
1684
  8
0
 10
178.03624911135711
 20
168.64233081344219
 30
0.0
 11
217.63624889678039
 21
168.64233081344219
 31
0.0
  0
POLYLINE
  5
1685
  8
0
 66
     1
 10
0.0
 20
0.0
 30
0.0
 70
   128
  0
VERTEX
  5
20A8
  8
0
 10
216.1902990325533
 20
193.39232999274461
 30
0.0
  0
VERTEX
  5
20A9
  8
0
 10
216.19031844562571
 20
193.3922147296712
 30
0.0
  0
VERTEX
  5
20AA
  8
0
 10
216.20015693730389
 20
193.3288251899526
 30
0.0
  0
VERTEX
  5
20AB
  8
0
 10
216.2166506601003
 20
193.14398373592351
 30
0.0
  0
VERTEX
  5
20AC
  8
0
 10
216.17848133570229
 20
192.6423305563971
 30
0.0
  0
SEQEND
  5
20AD
  8
0
  0
LINE
  5
1686
  8
0
 10
216.17848133570229
 20
192.6423305563971
 30
0.0
 11
214.82062630515259
 21
192.6423305563971
 31
0.0
  0
LINE
  5
1689
  8
0
 10
181.33624909347569
 20
194.6423308842227
 30
0.0
 11
214.3369240986064
 21
194.6423308842227
 31
0.0
  0
POLYLINE
  5
168A
  8
0
 66
     1
 10
0.0
 20
0.0
 30
0.0
 70
   128
  0
VERTEX
  5
20AE
  8
0
 10
216.17848133570229
 20
192.6423305563971
 30
0.0
  0
VERTEX
  5
20AF
  8
0
 10
216.10190985626261
 20
192.21591147709341
 30
0.0
  0
VERTEX
  5
20B0
  8
0
 10
216.02046383446731
 20
191.68755169141741
 30
0.0
  0
VERTEX
  5
20B1
  8
0
 10
215.94435801631491
 20
191.07005688477011
 30
0.0
  0
VERTEX
  5
20B2
  8
0
 10
215.8861913335947
 20
190.4123345308349
 30
0.0
  0
VERTEX
  5
20B3
  8
0
 10
215.84997406131299
 20
189.69618844914879
 30
0.0
  0
VERTEX
  5
20B4
  8
0
 10
215.84201684123551
 20
189.00030422139619
 30
0.0
  0
VERTEX
  5
20B5
  8
0
 10
215.8617124510435
 20
188.2880268536851
 30
0.0
  0
VERTEX
  5
20B6
  8
0
 10
215.9692336422828
 20
186.99346426058261
 30
0.0
  0
VERTEX
  5
20B7
  8
0
 10
216.1283799064783
 20
185.91516967046709
 30
0.0
  0
VERTEX
  5
20B8
  8
0
 10
216.20616769320051
 20
185.5000195943162
 30
0.0
  0
VERTEX
  5
20B9
  8
0
 10
216.27264922386681
 20
185.17832587588279
 30
0.0
  0
VERTEX
  5
20BA
  8
0
 10
216.3165201050667
 20
184.9790451966569
 30
0.0
  0
VERTEX
  5
20BB
  8
0
 10
216.33579661971601
 20
184.89429670501201
 30
0.0
  0
VERTEX
  5
20BC
  8
0
 10
216.33428415185489
 20
184.90091282058211
 30
0.0
  0
SEQEND
  5
20BD
  8
0
  0
LINE
  5
1691
  8
0
 10
185.3362488178042
 20
165.143234961421
 30
0.0
 11
210.33624919033321
 21
165.143234961421
 31
0.0
  0
LINE
  5
1692
  8
0
 10
209.8362491083769
 20
164.6432349376723
 30
0.0
 11
185.83624889976059
 21
164.6432349376723
 31
0.0
  0
LINE
  5
1694
  8
0
 10
204.58624917915739
 20
196.14323544431181
 30
0.0
 11
191.0862488289801
 21
196.14323544431181
 31
0.0
  0
LINE
  5
1695
  8
0
 10
191.58624891093649
 20
196.6432364575908
 30
0.0
 11
204.08624909720101
 21
196.6432364575908
 31
0.0
  0
LINE
  5
1697
  8
0
 10
212.40962788773911
 20
192.6423305563971
 30
0.0
 11
179.33624876565011
 21
192.6423305563971
 31
0.0
  0
LINE
  5
1699
  8
0
 10
317.8362451794269
 20
183.44233128357541
 30
0.0
 11
317.63624551917343
 21
183.64233094382899
 31
0.0
  0
LINE
  5
169A
  8
0
 10
278.03624573375009
 20
183.64233094382899
 30
0.0
 11
277.83624607349662
 21
183.44233128357541
 31
0.0
  0
LINE
  5
169B
  8
0
 10
317.8362451794269
 20
168.84233093935859
 30
0.0
 11
317.8362451794269
 21
183.44233128357541
 31
0.0
  0
LINE
  5
169C
  8
0
 10
277.83624607349662
 20
183.44233128357541
 30
0.0
 11
277.83624607349662
 21
168.84233093935859
 31
0.0
  0
LINE
  5
169D
  8
0
 10
277.83624607349662
 20
168.84233093935859
 30
0.0
 11
278.03624573375009
 21
168.64233081344381
 31
0.0
  0
LINE
  5
169E
  8
0
 10
317.63624551917343
 20
168.64233081344381
 30
0.0
 11
317.8362451794269
 21
168.84233093935859
 31
0.0
  0
LINE
  5
169F
  8
0
 10
277.83624607349662
 20
167.6423308823617
 30
0.0
 11
278.33624522413038
 21
167.14233103323591
 31
0.0
  0
LINE
  5
16A0
  8
0
 10
317.33624602879308
 20
167.14233103323591
 30
0.0
 11
317.8362451794269
 21
167.6423308823617
 31
0.0
  0
LINE
  5
16A1
  8
0
 10
317.8362451794269
 20
167.6423308823617
 30
0.0
 11
317.8362451794269
 21
168.44233092035961
 31
0.0
  0
LINE
  5
16A2
  8
0
 10
277.83624607349662
 20
168.44233092035961
 30
0.0
 11
277.83624607349662
 21
167.6423308823617
 31
0.0
  0
LINE
  5
16A3
  8
0
 10
317.8362451794269
 20
168.44233092035961
 30
0.0
 11
317.63624551917343
 21
168.64233081344381
 31
0.0
  0
LINE
  5
16A4
  8
0
 10
278.03624573375009
 20
168.64233081344381
 30
0.0
 11
277.83624607349662
 21
168.44233092035961
 31
0.0
  0
ARC
  5
16A5
  8
0
 10
281.33624562646179
 20
192.64233099816249
 30
0.0
 40
2.0
 50
90.0
 51
180.0
  0
ARC
  5
16A6
  8
0
 10
314.33624562646179
 20
192.64233099816249
 30
0.0
 40
2.0
 50
0.0
 51
90.0
  0
LINE
  5
16A7
  8
0
 10
316.33624586488042
 20
183.64233094382899
 30
0.0
 11
316.33624586488042
 21
192.6423305563988
 31
0.0
  0
LINE
  5
16A8
  8
0
 10
279.33624538804321
 20
192.6423305563988
 30
0.0
 11
279.33624538804321
 21
183.64233094382899
 31
0.0
  0
LINE
  5
16A9
  8
0
 10
310.3362458127263
 20
165.14323496142271
 30
0.0
 11
310.3362458127263
 21
167.14233103323591
 31
0.0
  0
LINE
  5
16AA
  8
0
 10
285.33624544019727
 20
167.14233103323591
 30
0.0
 11
285.33624544019727
 21
165.14323496142271
 31
0.0
  0
LINE
  5
16AB
  8
0
 10
285.33624544019727
 20
165.14323496142271
 30
0.0
 11
285.8362455221536
 21
164.64323493767401
 31
0.0
  0
LINE
  5
16AC
  8
0
 10
309.83624573076992
 20
164.64323493767401
 30
0.0
 11
310.3362458127263
 21
165.14323496142271
 31
0.0
  0
LINE
  5
16AF
  8
0
 10
296.33689195129
 20
179.14233113754409
 30
0.0
 11
296.33689195129
 21
177.6423308916749
 31
0.0
  0
LINE
  5
16B0
  8
0
 10
304.22672315711992
 20
177.6423308916749
 30
0.0
 11
296.33689195129
 21
177.6423308916749
 31
0.0
  0
LINE
  5
16B1
  8
0
 10
304.22672315711992
 20
177.6423308916749
 30
0.0
 11
304.22672315711992
 21
174.64233133125919
 31
0.0
  0
LINE
  5
16B2
  8
0
 10
304.22672315711992
 20
174.64233133125919
 30
0.0
 11
296.33689195129
 21
174.64233133125919
 31
0.0
  0
LINE
  5
16B3
  8
0
 10
296.33689195129
 20
174.64233133125919
 30
0.0
 11
296.33689195129
 21
173.14233108539
 31
0.0
  0
LINE
  5
16B4
  8
0
 10
290.65049545119422
 20
179.89233079481741
 30
0.0
 11
290.65049545119422
 21
172.39233096245539
 31
0.0
  0
LINE
  5
16B5
  8
0
 10
305.02199580172908
 20
179.89233079481741
 30
0.0
 11
290.65049545119422
 21
179.89233079481741
 31
0.0
  0
LINE
  5
16B7
  8
0
 10
305.02199580172908
 20
179.89233079481741
 30
0.0
 11
305.02199580172908
 21
172.39233096245539
 31
0.0
  0
LINE
  5
16B8
  8
0
 10
305.02199580172908
 20
172.39233096245539
 30
0.0
 11
290.65049545119422
 21
172.39233096245539
 31
0.0
  0
LINE
  5
16BD
  8
0
 10
278.03624573374998
 20
183.64233094382899
 30
0.0
 11
317.63624551917343
 21
183.64233094382899
 31
0.0
  0
LINE
  5
16C2
  8
0
 10
317.8362451794269
 20
183.44233128357541
 30
0.0
 11
277.83624607349662
 21
183.44233128357541
 31
0.0
  0
LINE
  5
16C3
  8
0
 10
277.83624607349662
 20
168.84233093935859
 30
0.0
 11
317.8362451794269
 21
168.84233093935859
 31
0.0
  0
LINE
  5
16C7
  8
0
 10
317.33624602879308
 20
167.14233103323591
 30
0.0
 11
278.33624522413038
 21
167.14233103323591
 31
0.0
  0
LINE
  5
16C8
  8
0
 10
277.83624607349662
 20
167.6423308823617
 30
0.0
 11
317.8362451794269
 21
167.6423308823617
 31
0.0
  0
LINE
  5
16C9
  8
0
 10
317.8362451794269
 20
168.44233092035961
 30
0.0
 11
277.83624607349662
 21
168.44233092035961
 31
0.0
  0
LINE
  5
16CA
  8
0
 10
278.03624573375009
 20
168.64233081344381
 30
0.0
 11
317.63624551917343
 21
168.64233081344381
 31
0.0
  0
LINE
  5
16CE
  8
0
 10
281.33557053187781
 20
194.64233088422429
 30
0.0
 11
314.33624553705482
 21
194.64233088422429
 31
0.0
  0
LINE
  5
16DA
  8
0
 10
285.33624544019727
 20
165.14323496142271
 30
0.0
 11
310.3362458127263
 21
165.14323496142271
 31
0.0
  0
LINE
  5
16DB
  8
0
 10
309.83624573076992
 20
164.64323493767401
 30
0.0
 11
285.8362455221536
 21
164.64323493767401
 31
0.0
  0
LINE
  5
16DD
  8
0
 10
316.33624586488042
 20
192.6423305563988
 30
0.0
 11
309.03381648784961
 21
192.6423305563988
 31
0.0
  0
LINE
  5
16DF
  8
0
 10
117.8362451794265
 20
168.84233093935859
 30
0.0
 11
117.8362451794265
 21
183.44233128357541
 31
0.0
  0
LINE
  5
16E0
  8
0
 10
77.836246073496227
 20
183.44233128357541
 30
0.0
 11
77.836246073496227
 21
168.84233093935859
 31
0.0
  0
LINE
  5
16E1
  8
0
 10
77.836246073496227
 20
168.84233093935859
 30
0.0
 11
78.036245733749752
 21
168.64233081344381
 31
0.0
  0
LINE
  5
16E2
  8
0
 10
117.6362455191729
 20
168.64233081344381
 30
0.0
 11
117.8362451794265
 21
168.84233093935859
 31
0.0
  0
LINE
  5
16E3
  8
0
 10
117.8362451794265
 20
183.44233128357541
 30
0.0
 11
117.6362455191729
 21
183.64233094382899
 31
0.0
  0
LINE
  5
16E4
  8
0
 10
78.036245733749752
 20
183.64233094382899
 30
0.0
 11
77.836246073496227
 21
183.44233128357541
 31
0.0
  0
LINE
  5
16E5
  8
0
 10
117.8362451794265
 20
167.6423308823617
 30
0.0
 11
117.8362451794265
 21
168.44233092035961
 31
0.0
  0
LINE
  5
16E6
  8
0
 10
77.836246073496227
 20
168.44233092035961
 30
0.0
 11
77.836246073496227
 21
167.6423308823617
 31
0.0
  0
LINE
  5
16E7
  8
0
 10
77.836246073496227
 20
167.6423308823617
 30
0.0
 11
78.336245224130025
 21
167.14233103323591
 31
0.0
  0
LINE
  5
16E8
  8
0
 10
117.3362460287927
 20
167.14233103323591
 30
0.0
 11
117.8362451794265
 21
167.6423308823617
 31
0.0
  0
LINE
  5
16E9
  8
0
 10
117.8362451794265
 20
168.44233092035961
 30
0.0
 11
117.6362455191729
 21
168.64233081344381
 31
0.0
  0
LINE
  5
16EA
  8
0
 10
78.036245733749752
 20
168.64233081344381
 30
0.0
 11
77.836246073496227
 21
168.44233092035961
 31
0.0
  0
ARC
  5
16EB
  8
0
 10
81.336245626461377
 20
192.64233099816249
 30
0.0
 40
2.0000000000000071
 50
90.0
 51
180.0
  0
ARC
  5
16EC
  8
0
 10
114.33624562646131
 20
192.64233099816249
 30
0.0
 40
2.0000000000000142
 50
0.0
 51
90.0
  0
LINE
  5
16ED
  8
0
 10
116.3362458648799
 20
183.64233094382899
 30
0.0
 11
116.3362458648799
 21
192.6423305563988
 31
0.0
  0
LINE
  5
16EE
  8
0
 10
79.336245388042812
 20
192.6423305563988
 30
0.0
 11
79.336245388042812
 21
183.64233094382899
 31
0.0
  0
LINE
  5
16EF
  8
0
 10
110.33624581272581
 20
165.14323496142271
 30
0.0
 11
110.33624581272581
 21
167.14233103323591
 31
0.0
  0
LINE
  5
16F0
  8
0
 10
85.336245440196876
 20
167.14233103323591
 30
0.0
 11
85.336245440196876
 21
165.14323496142271
 31
0.0
  0
LINE
  5
16F1
  8
0
 10
85.336245440196876
 20
165.14323496142271
 30
0.0
 11
85.836245522153263
 21
164.64323493767401
 31
0.0
  0
LINE
  5
16F2
  8
0
 10
109.83624573076941
 20
164.64323493767401
 30
0.0
 11
110.33624581272581
 21
165.14323496142271
 31
0.0
  0
LINE
  5
16F3
  8
0
 10
104.58624580155001
 20
196.1432354443134
 30
0.0
 11
104.08624571959361
 21
196.64323645759239
 31
0.0
  0
LINE
  5
16F4
  8
0
 10
91.586245533329134
 20
196.64323645759239
 30
0.0
 11
91.086245451372747
 21
196.1432354443134
 31
0.0
  0
LINE
  5
16F5
  8
0
 10
104.58624580155001
 20
194.64233088422429
 30
0.0
 11
104.58624580155001
 21
196.1432354443134
 31
0.0
  0
LINE
  5
16F6
  8
0
 10
91.086245451372747
 20
196.1432354443134
 30
0.0
 11
91.086245451372747
 21
194.64233088422429
 31
0.0
  0
LINE
  5
16F7
  8
0
 10
117.8362451794265
 20
183.44233128357541
 30
0.0
 11
77.836246073496227
 21
183.44233128357541
 31
0.0
  0
LINE
  5
16F8
  8
0
 10
77.836246073496227
 20
168.84233093935859
 30
0.0
 11
117.8362451794265
 21
168.84233093935859
 31
0.0
  0
LINE
  5
16FA
  8
0
 10
78.036245733749752
 20
183.64233094382899
 30
0.0
 11
117.6362455191729
 21
183.64233094382899
 31
0.0
  0
LINE
  5
16FB
  8
0
 10
77.836246073496227
 20
167.6423308823617
 30
0.0
 11
117.8362451794265
 21
167.6423308823617
 31
0.0
  0
LINE
  5
16FC
  8
0
 10
117.8362451794265
 20
168.44233092035961
 30
0.0
 11
77.836246073496227
 21
168.44233092035961
 31
0.0
  0
LINE
  5
16FD
  8
0
 10
117.3362460287927
 20
167.14233103323591
 30
0.0
 11
78.336245224130025
 21
167.14233103323591
 31
0.0
  0
LINE
  5
16FE
  8
0
 10
78.036245733749752
 20
168.64233081344381
 30
0.0
 11
117.6362455191729
 21
168.64233081344381
 31
0.0
  0
LINE
  5
16FF
  8
0
 10
81.336245715868344
 20
194.64233088422429
 30
0.0
 11
114.3362455370543
 21
194.64233088422429
 31
0.0
  0
LINE
  5
1700
  8
0
 10
85.336245440196876
 20
165.14323496142271
 30
0.0
 11
110.33624581272581
 21
165.14323496142271
 31
0.0
  0
LINE
  5
1701
  8
0
 10
109.83624573076941
 20
164.64323493767401
 30
0.0
 11
85.836245522153263
 21
164.64323493767401
 31
0.0
  0
LINE
  5
1702
  8
0
 10
104.58624580155001
 20
196.1432354443134
 30
0.0
 11
91.086245451372747
 21
196.1432354443134
 31
0.0
  0
LINE
  5
1703
  8
0
 10
91.586245533329134
 20
196.64323645759239
 30
0.0
 11
104.08624571959361
 21
196.64323645759239
 31
0.0
  0
LINE
  5
1704
  8
0
 10
116.3362458648799
 20
192.6423305563988
 30
0.0
 11
79.336245388042812
 21
192.6423305563988
 31
0.0
  0
ARC
  5
1705
  8
0
 10
195.29866446164669
 20
281.03845596338169
 30
0.0
 40
2.9999999999999818
 50
279.41791242009549
 51
320.58208757990542
  0
ARC
  5
1706
  8
0
 10
195.29866446164661
 20
272.24801695180321
 30
0.0
 40
2.9999999999999818
 50
39.417912420095057
 51
80.582087579904439
  0
ARC
  5
1707
  8
0
 10
202.91140795609141
 20
276.64323645759242
 30
0.0
 40
3.0000000000000142
 50
159.41791242009671
 51
200.58208757990479
  0
CIRCLE
  5
1735
  8
0
 10
197.8362456264615
 20
276.64323645759242
 30
0.0
 40
6.7499999999999707
  0
CIRCLE
  5
1737
  8
0
 10
197.8362456264615
 20
276.64323645759242
 30
0.0
 40
4.25
  0
CIRCLE
  5
1739
  8
0
 10
197.8362456264615
 20
276.64323645759242
 30
0.0
 40
2.5
  0
ARC
  5
173E
  8
0
 10
202.91140795609141
 20
84.643234937672304
 30
0.0
 40
2.9999999999999991
 50
159.4179124200956
 51
200.5820875799044
  0
CIRCLE
  5
1765
  8
0
 10
197.8362456264615
 20
84.643234937672375
 30
0.0
 40
19.999999999999979
  0
CIRCLE
  5
1767
  8
0
 10
197.8362456264615
 20
84.643234937672375
 30
0.0
 40
12.0
  0
CIRCLE
  5
1768
  8
0
 10
197.8362456264615
 20
84.643234937672375
 30
0.0
 40
12.5
  0
CIRCLE
  5
1772
  8
0
 10
197.8362456264615
 20
84.643234937672375
 30
0.0
 40
4.0
  0
CIRCLE
  5
1777
  8
0
 10
197.8362456264615
 20
84.643234937672332
 30
0.0
 40
2.75
  0
CIRCLE
  5
1778
  8
0
 10
197.8362456264615
 20
84.643234937672304
 30
0.0
 40
2.5
  0
LINE
  5
194D
  8
1
 10
97.836245626461562
 20
201.64323645759239
 30
0.0
 11
97.836245626461562
 21
159.64323493767401
 31
0.0
  0
CIRCLE
  5
1959
  8
0
 10
197.8362456264615
 20
276.64323645759242
 30
0.0
 40
18.5
  0
LINE
  5
196D
  8
1
 10
172.8362456264615
 20
276.64323645759242
 30
0.0
 11
222.83624562646159
 21
276.64323645759242
 31
0.0
  0
LINE
  5
196E
  8
1
 10
197.8362456264615
 20
251.64323645759239
 30
0.0
 11
197.8362456264615
 21
301.64323645759242
 31
0.0
  0
LINE
  5
197D
  8
1
 10
188.29030408044329
 20
75.097293391653807
 30
0.0
 11
194.6542651111221
 21
81.461254422332885
 31
0.0
  0
LINE
  5
197E
  8
1
 10
207.38218717248
 20
75.097293391654034
 30
0.0
 11
201.01822614180119
 21
81.461254422333056
 31
0.0
  0
LINE
  5
197F
  8
1
 10
207.3821871724798
 20
94.189176483690815
 30
0.0
 11
201.01822614180099
 21
87.825215453011765
 31
0.0
  0
LINE
  5
1980
  8
1
 10
188.29030408044329
 20
94.189176483690758
 30
0.0
 11
194.6542651111221
 21
87.825215453011737
 31
0.0
  0
LINE
  5
1981
  8
1
 10
197.8362456264615
 20
59.643234937672382
 30
0.0
 11
197.8362456264615
 21
109.6432349376723
 31
0.0
  0
LINE
  5
1982
  8
1
 10
172.8362456264615
 20
84.643234937672304
 30
0.0
 11
222.83624562646159
 21
84.643234937672304
 31
0.0
  0
CIRCLE
  5
198B
  8
1
 10
197.8362456264615
 20
84.643234937672304
 30
0.0
 40
8.999999999999952
  0
LINE
  5
19C7
  8
1
 10
282.65303380067371
 20
189.14233099816241
 30
0.0
 11
313.01945745224981
 21
189.14233099816241
 31
0.0
  0
LINE
  5
19DA
  8
1
 10
297.83624562646162
 20
201.64323645759239
 30
0.0
 11
297.8362456264615
 21
159.64323493767401
 31
0.0
  0
LINE
  5
1A4E
  8
1
 10
197.8362456264615
 20
201.64323645759239
 30
0.0
 11
197.8362456264615
 21
159.6432349376723
 31
0.0
  0
LINE
  5
1A50
  8
1
 10
208.8063856576953
 20
189.14233289921441
 30
0.0
 11
220.84364089506749
 21
189.14233289921441
 31
0.0
  0
LINE
  5
1A51
  8
0
 10
291.44576809580349
 20
176.14233064580571
 30
0.0
 11
296.33689195129
 21
173.14233108539
 31
0.0
  0
LINE
  5
1A52
  8
0
 10
291.44576809580349
 20
176.14233064580571
 30
0.0
 11
296.33689195129
 21
179.14233020622149
 31
0.0
  0
POLYLINE
  5
1BB0
  8
0
 10
213.8577237238209
 20
193.39323645759069
 30
0.0
 66
     1
 70
     8
  0
VERTEX
  8
0
  5
20BE
 10
213.858
 20
193.393
 30
0.000000
  70
    32
  0
VERTEX
  8
0
  5
20BF
 10
213.795
 20
193.392
 30
0.000000
  70
    32
  0
VERTEX
  8
0
  5
20C0
 10
213.733
 20
193.388
 30
0.000000
  70
    32
  0
VERTEX
  8
0
  5
20C1
 10
213.670
 20
193.382
 30
0.000000
  70
    32
  0
VERTEX
  8
0
  5
20C2
 10
213.608
 20
193.373
 30
0.000000
  70
    32
  0
VERTEX
  8
0
  5
20C3
 10
213.545
 20
193.361
 30
0.000000
  70
    32
  0
VERTEX
  8
0
  5
20C4
 10
213.483
 20
193.347
 30
0.000000
  70
    32
  0
VERTEX
  8
0
  5
20C5
 10
213.422
 20
193.331
 30
0.000000
  70
    32
  0
VERTEX
  8
0
  5
20C6
 10
213.360
 20
193.312
 30
0.000000
  70
    32
  0
VERTEX
  8
0
  5
20C7
 10
213.299
 20
193.290
 30
0.000000
  70
    32
  0
VERTEX
  8
0
  5
20C8
 10
213.238
 20
193.266
 30
0.000000
  70
    32
  0
VERTEX
  8
0
  5
20C9
 10
213.177
 20
193.239
 30
0.000000
  70
    32
  0
VERTEX
  8
0
  5
20CA
 10
213.117
 20
193.210
 30
0.000000
  70
    32
  0
VERTEX
  8
0
  5
20CB
 10
213.057
 20
193.179
 30
0.000000
  70
    32
  0
VERTEX
  8
0
  5
20CC
 10
212.998
 20
193.145
 30
0.000000
  70
    32
  0
VERTEX
  8
0
  5
20CD
 10
212.940
 20
193.108
 30
0.000000
  70
    32
  0
VERTEX
  8
0
  5
20CE
 10
212.881
 20
193.070
 30
0.000000
  70
    32
  0
VERTEX
  8
0
  5
20CF
 10
212.824
 20
193.029
 30
0.000000
  70
    32
  0
VERTEX
  8
0
  5
20D0
 10
212.767
 20
192.985
 30
0.000000
  70
    32
  0
VERTEX
  8
0
  5
20D1
 10
212.711
 20
192.939
 30
0.000000
  70
    32
  0
VERTEX
  8
0
  5
20D2
 10
212.655
 20
192.891
 30
0.000000
  70
    32
  0
VERTEX
  8
0
  5
20D3
 10
212.600
 20
192.841
 30
0.000000
  70
    32
  0
VERTEX
  8
0
  5
20D4
 10
212.546
 20
192.789
 30
0.000000
  70
    32
  0
VERTEX
  8
0
  5
20D5
 10
212.493
 20
192.734
 30
0.000000
  70
    32
  0
VERTEX
  8
0
  5
20D6
 10
212.440
 20
192.677
 30
0.000000
  70
    32
  0
VERTEX
  8
0
  5
20D7
 10
212.389
 20
192.618
 30
0.000000
  70
    32
  0
VERTEX
  8
0
  5
20D8
 10
212.338
 20
192.557
 30
0.000000
  70
    32
  0
VERTEX
  8
0
  5
20D9
 10
212.288
 20
192.494
 30
0.000000
  70
    32
  0
VERTEX
  8
0
  5
20DA
 10
212.239
 20
192.429
 30
0.000000
  70
    32
  0
VERTEX
  8
0
  5
20DB
 10
212.191
 20
192.361
 30
0.000000
  70
    32
  0
VERTEX
  8
0
  5
20DC
 10
212.144
 20
192.292
 30
0.000000
  70
    32
  0
VERTEX
  8
0
  5
20DD
 10
212.098
 20
192.221
 30
0.000000
  70
    32
  0
VERTEX
  8
0
  5
20DE
 10
212.054
 20
192.148
 30
0.000000
  70
    32
  0
VERTEX
  8
0
  5
20DF
 10
212.010
 20
192.074
 30
0.000000
  70
    32
  0
VERTEX
  8
0
  5
20E0
 10
211.967
 20
191.997
 30
0.000000
  70
    32
  0
VERTEX
  8
0
  5
20E1
 10
211.926
 20
191.919
 30
0.000000
  70
    32
  0
VERTEX
  8
0
  5
20E2
 10
211.886
 20
191.839
 30
0.000000
  70
    32
  0
VERTEX
  8
0
  5
20E3
 10
211.846
 20
191.758
 30
0.000000
  70
    32
  0
VERTEX
  8
0
  5
20E4
 10
211.808
 20
191.675
 30
0.000000
  70
    32
  0
VERTEX
  8
0
  5
20E5
 10
211.772
 20
191.590
 30
0.000000
  70
    32
  0
VERTEX
  8
0
  5
20E6
 10
211.736
 20
191.504
 30
0.000000
  70
    32
  0
VERTEX
  8
0
  5
20E7
 10
211.702
 20
191.417
 30
0.000000
  70
    32
  0
VERTEX
  8
0
  5
20E8
 10
211.669
 20
191.328
 30
0.000000
  70
    32
  0
VERTEX
  8
0
  5
20E9
 10
211.638
 20
191.238
 30
0.000000
  70
    32
  0
VERTEX
  8
0
  5
20EA
 10
211.608
 20
191.147
 30
0.000000
  70
    32
  0
VERTEX
  8
0
  5
20EB
 10
211.579
 20
191.054
 30
0.000000
  70
    32
  0
VERTEX
  8
0
  5
20EC
 10
211.551
 20
190.960
 30
0.000000
  70
    32
  0
VERTEX
  8
0
  5
20ED
 10
211.525
 20
190.866
 30
0.000000
  70
    32
  0
VERTEX
  8
0
  5
20EE
 10
211.501
 20
190.770
 30
0.000000
  70
    32
  0
VERTEX
  8
0
  5
20EF
 10
211.477
 20
190.673
 30
0.000000
  70
    32
  0
VERTEX
  8
0
  5
20F0
 10
211.456
 20
190.575
 30
0.000000
  70
    32
  0
VERTEX
  8
0
  5
20F1
 10
211.435
 20
190.476
 30
0.000000
  70
    32
  0
VERTEX
  8
0
  5
20F2
 10
211.416
 20
190.377
 30
0.000000
  70
    32
  0
VERTEX
  8
0
  5
20F3
 10
211.399
 20
190.277
 30
0.000000
  70
    32
  0
VERTEX
  8
0
  5
20F4
 10
211.383
 20
190.176
 30
0.000000
  70
    32
  0
VERTEX
  8
0
  5
20F5
 10
211.368
 20
190.074
 30
0.000000
  70
    32
  0
VERTEX
  8
0
  5
20F6
 10
211.355
 20
189.972
 30
0.000000
  70
    32
  0
VERTEX
  8
0
  5
20F7
 10
211.344
 20
189.870
 30
0.000000
  70
    32
  0
VERTEX
  8
0
  5
20F8
 10
211.334
 20
189.767
 30
0.000000
  70
    32
  0
VERTEX
  8
0
  5
20F9
 10
211.326
 20
189.663
 30
0.000000
  70
    32
  0
VERTEX
  8
0
  5
20FA
 10
211.319
 20
189.560
 30
0.000000
  70
    32
  0
VERTEX
  8
0
  5
20FB
 10
211.313
 20
189.456
 30
0.000000
  70
    32
  0
VERTEX
  8
0
  5
20FC
 10
211.309
 20
189.352
 30
0.000000
  70
    32
  0
VERTEX
  8
0
  5
20FD
 10
211.307
 20
189.248
 30
0.000000
  70
    32
  0
VERTEX
  8
0
  5
20FE
 10
211.306
 20
189.143
 30
0.000000
  70
    32
  0
VERTEX
  8
0
  5
20FF
 10
211.307
 20
189.039
 30
0.000000
  70
    32
  0
VERTEX
  8
0
  5
2100
 10
211.309
 20
188.935
 30
0.000000
  70
    32
  0
VERTEX
  8
0
  5
2101
 10
211.313
 20
188.831
 30
0.000000
  70
    32
  0
VERTEX
  8
0
  5
2102
 10
211.319
 20
188.727
 30
0.000000
  70
    32
  0
VERTEX
  8
0
  5
2103
 10
211.326
 20
188.623
 30
0.000000
  70
    32
  0
VERTEX
  8
0
  5
2104
 10
211.334
 20
188.520
 30
0.000000
  70
    32
  0
VERTEX
  8
0
  5
2105
 10
211.344
 20
188.417
 30
0.000000
  70
    32
  0
VERTEX
  8
0
  5
2106
 10
211.355
 20
188.314
 30
0.000000
  70
    32
  0
VERTEX
  8
0
  5
2107
 10
211.368
 20
188.212
 30
0.000000
  70
    32
  0
VERTEX
  8
0
  5
2108
 10
211.383
 20
188.111
 30
0.000000
  70
    32
  0
VERTEX
  8
0
  5
2109
 10
211.399
 20
188.010
 30
0.000000
  70
    32
  0
VERTEX
  8
0
  5
210A
 10
211.416
 20
187.910
 30
0.000000
  70
    32
  0
VERTEX
  8
0
  5
210B
 10
211.435
 20
187.810
 30
0.000000
  70
    32
  0
VERTEX
  8
0
  5
210C
 10
211.456
 20
187.711
 30
0.000000
  70
    32
  0
VERTEX
  8
0
  5
210D
 10
211.477
 20
187.614
 30
0.000000
  70
    32
  0
VERTEX
  8
0
  5
210E
 10
211.501
 20
187.517
 30
0.000000
  70
    32
  0
VERTEX
  8
0
  5
210F
 10
211.525
 20
187.421
 30
0.000000
  70
    32
  0
VERTEX
  8
0
  5
2110
 10
211.551
 20
187.326
 30
0.000000
  70
    32
  0
VERTEX
  8
0
  5
2111
 10
211.579
 20
187.232
 30
0.000000
  70
    32
  0
VERTEX
  8
0
  5
2112
 10
211.608
 20
187.140
 30
0.000000
  70
    32
  0
VERTEX
  8
0
  5
2113
 10
211.638
 20
187.048
 30
0.000000
  70
    32
  0
VERTEX
  8
0
  5
2114
 10
211.669
 20
186.958
 30
0.000000
  70
    32
  0
VERTEX
  8
0
  5
2115
 10
211.702
 20
186.869
 30
0.000000
  70
    32
  0
VERTEX
  8
0
  5
2116
 10
211.736
 20
186.782
 30
0.000000
  70
    32
  0
VERTEX
  8
0
  5
2117
 10
211.772
 20
186.696
 30
0.000000
  70
    32
  0
VERTEX
  8
0
  5
2118
 10
211.808
 20
186.612
 30
0.000000
  70
    32
  0
VERTEX
  8
0
  5
2119
 10
211.846
 20
186.529
 30
0.000000
  70
    32
  0
VERTEX
  8
0
  5
211A
 10
211.886
 20
186.447
 30
0.000000
  70
    32
  0
VERTEX
  8
0
  5
211B
 10
211.926
 20
186.367
 30
0.000000
  70
    32
  0
VERTEX
  8
0
  5
211C
 10
211.967
 20
186.289
 30
0.000000
  70
    32
  0
VERTEX
  8
0
  5
211D
 10
212.010
 20
186.213
 30
0.000000
  70
    32
  0
VERTEX
  8
0
  5
211E
 10
212.054
 20
186.138
 30
0.000000
  70
    32
  0
VERTEX
  8
0
  5
211F
 10
212.098
 20
186.065
 30
0.000000
  70
    32
  0
VERTEX
  8
0
  5
2120
 10
212.144
 20
185.994
 30
0.000000
  70
    32
  0
VERTEX
  8
0
  5
2121
 10
212.191
 20
185.925
 30
0.000000
  70
    32
  0
VERTEX
  8
0
  5
2122
 10
212.239
 20
185.858
 30
0.000000
  70
    32
  0
VERTEX
  8
0
  5
2123
 10
212.288
 20
185.793
 30
0.000000
  70
    32
  0
VERTEX
  8
0
  5
2124
 10
212.338
 20
185.730
 30
0.000000
  70
    32
  0
VERTEX
  8
0
  5
2125
 10
212.389
 20
185.669
 30
0.000000
  70
    32
  0
VERTEX
  8
0
  5
2126
 10
212.440
 20
185.609
 30
0.000000
  70
    32
  0
VERTEX
  8
0
  5
2127
 10
212.493
 20
185.553
 30
0.000000
  70
    32
  0
VERTEX
  8
0
  5
2128
 10
212.546
 20
185.498
 30
0.000000
  70
    32
  0
VERTEX
  8
0
  5
2129
 10
212.600
 20
185.445
 30
0.000000
  70
    32
  0
VERTEX
  8
0
  5
212A
 10
212.655
 20
185.395
 30
0.000000
  70
    32
  0
VERTEX
  8
0
  5
212B
 10
212.711
 20
185.347
 30
0.000000
  70
    32
  0
VERTEX
  8
0
  5
212C
 10
212.767
 20
185.301
 30
0.000000
  70
    32
  0
VERTEX
  8
0
  5
212D
 10
212.824
 20
185.258
 30
0.000000
  70
    32
  0
VERTEX
  8
0
  5
212E
 10
212.881
 20
185.217
 30
0.000000
  70
    32
  0
VERTEX
  8
0
  5
212F
 10
212.940
 20
185.178
 30
0.000000
  70
    32
  0
VERTEX
  8
0
  5
2130
 10
212.998
 20
185.142
 30
0.000000
  70
    32
  0
VERTEX
  8
0
  5
2131
 10
213.057
 20
185.108
 30
0.000000
  70
    32
  0
VERTEX
  8
0
  5
2132
 10
213.117
 20
185.076
 30
0.000000
  70
    32
  0
VERTEX
  8
0
  5
2133
 10
213.177
 20
185.047
 30
0.000000
  70
    32
  0
VERTEX
  8
0
  5
2134
 10
213.238
 20
185.021
 30
0.000000
  70
    32
  0
VERTEX
  8
0
  5
2135
 10
213.299
 20
184.997
 30
0.000000
  70
    32
  0
VERTEX
  8
0
  5
2136
 10
213.360
 20
184.975
 30
0.000000
  70
    32
  0
VERTEX
  8
0
  5
2137
 10
213.422
 20
184.956
 30
0.000000
  70
    32
  0
VERTEX
  8
0
  5
2138
 10
213.483
 20
184.939
 30
0.000000
  70
    32
  0
VERTEX
  8
0
  5
2139
 10
213.545
 20
184.925
 30
0.000000
  70
    32
  0
VERTEX
  8
0
  5
213A
 10
213.608
 20
184.914
 30
0.000000
  70
    32
  0
VERTEX
  8
0
  5
213B
 10
213.670
 20
184.905
 30
0.000000
  70
    32
  0
VERTEX
  8
0
  5
213C
 10
213.733
 20
184.898
 30
0.000000
  70
    32
  0
VERTEX
  8
0
  5
213D
 10
213.795
 20
184.895
 30
0.000000
  70
    32
  0
VERTEX
  8
0
  5
213E
 10
213.858
 20
184.893
 30
0.000000
  70
    32
  0
SEQEND
  8
0
  5
213F
  0
POLYLINE
  5
1BB1
  8
0
 10
213.8577237238209
 20
184.89323645759069
 30
0.0
 66
     1
 70
     8
  0
VERTEX
  8
0
  5
2140
 10
213.858
 20
184.893
 30
0.000000
  70
    32
  0
VERTEX
  8
0
  5
2141
 10
213.899
 20
184.895
 30
0.000000
  70
    32
  0
VERTEX
  8
0
  5
2142
 10
213.941
 20
184.898
 30
0.000000
  70
    32
  0
VERTEX
  8
0
  5
2143
 10
213.983
 20
184.905
 30
0.000000
  70
    32
  0
VERTEX
  8
0
  5
2144
 10
214.024
 20
184.914
 30
0.000000
  70
    32
  0
VERTEX
  8
0
  5
2145
 10
214.065
 20
184.925
 30
0.000000
  70
    32
  0
VERTEX
  8
0
  5
2146
 10
214.107
 20
184.939
 30
0.000000
  70
    32
  0
VERTEX
  8
0
  5
2147
 10
214.148
 20
184.956
 30
0.000000
  70
    32
  0
VERTEX
  8
0
  5
2148
 10
214.189
 20
184.975
 30
0.000000
  70
    32
  0
VERTEX
  8
0
  5
2149
 10
214.229
 20
184.997
 30
0.000000
  70
    32
  0
VERTEX
  8
0
  5
214A
 10
214.270
 20
185.021
 30
0.000000
  70
    32
  0
VERTEX
  8
0
  5
214B
 10
214.310
 20
185.047
 30
0.000000
  70
    32
  0
VERTEX
  8
0
  5
214C
 10
214.350
 20
185.076
 30
0.000000
  70
    32
  0
VERTEX
  8
0
  5
214D
 10
214.390
 20
185.108
 30
0.000000
  70
    32
  0
VERTEX
  8
0
  5
214E
 10
214.429
 20
185.142
 30
0.000000
  70
    32
  0
VERTEX
  8
0
  5
214F
 10
214.468
 20
185.178
 30
0.000000
  70
    32
  0
VERTEX
  8
0
  5
2150
 10
214.507
 20
185.217
 30
0.000000
  70
    32
  0
VERTEX
  8
0
  5
2151
 10
214.545
 20
185.258
 30
0.000000
  70
    32
  0
VERTEX
  8
0
  5
2152
 10
214.583
 20
185.301
 30
0.000000
  70
    32
  0
VERTEX
  8
0
  5
2153
 10
214.620
 20
185.347
 30
0.000000
  70
    32
  0
VERTEX
  8
0
  5
2154
 10
214.657
 20
185.395
 30
0.000000
  70
    32
  0
VERTEX
  8
0
  5
2155
 10
214.694
 20
185.445
 30
0.000000
  70
    32
  0
VERTEX
  8
0
  5
2156
 10
214.730
 20
185.498
 30
0.000000
  70
    32
  0
VERTEX
  8
0
  5
2157
 10
214.765
 20
185.553
 30
0.000000
  70
    32
  0
VERTEX
  8
0
  5
2158
 10
214.800
 20
185.609
 30
0.000000
  70
    32
  0
VERTEX
  8
0
  5
2159
 10
214.835
 20
185.669
 30
0.000000
  70
    32
  0
VERTEX
  8
0
  5
215A
 10
214.868
 20
185.730
 30
0.000000
  70
    32
  0
VERTEX
  8
0
  5
215B
 10
214.901
 20
185.793
 30
0.000000
  70
    32
  0
VERTEX
  8
0
  5
215C
 10
214.934
 20
185.858
 30
0.000000
  70
    32
  0
VERTEX
  8
0
  5
215D
 10
214.966
 20
185.925
 30
0.000000
  70
    32
  0
VERTEX
  8
0
  5
215E
 10
214.997
 20
185.994
 30
0.000000
  70
    32
  0
VERTEX
  8
0
  5
215F
 10
215.028
 20
186.065
 30
0.000000
  70
    32
  0
VERTEX
  8
0
  5
2160
 10
215.057
 20
186.138
 30
0.000000
  70
    32
  0
VERTEX
  8
0
  5
2161
 10
215.086
 20
186.213
 30
0.000000
  70
    32
  0
VERTEX
  8
0
  5
2162
 10
215.115
 20
186.289
 30
0.000000
  70
    32
  0
VERTEX
  8
0
  5
2163
 10
215.142
 20
186.367
 30
0.000000
  70
    32
  0
VERTEX
  8
0
  5
2164
 10
215.169
 20
186.447
 30
0.000000
  70
    32
  0
VERTEX
  8
0
  5
2165
 10
215.195
 20
186.529
 30
0.000000
  70
    32
  0
VERTEX
  8
0
  5
2166
 10
215.220
 20
186.612
 30
0.000000
  70
    32
  0
VERTEX
  8
0
  5
2167
 10
215.245
 20
186.696
 30
0.000000
  70
    32
  0
VERTEX
  8
0
  5
2168
 10
215.268
 20
186.782
 30
0.000000
  70
    32
  0
VERTEX
  8
0
  5
2169
 10
215.291
 20
186.869
 30
0.000000
  70
    32
  0
VERTEX
  8
0
  5
216A
 10
215.313
 20
186.958
 30
0.000000
  70
    32
  0
VERTEX
  8
0
  5
216B
 10
215.334
 20
187.048
 30
0.000000
  70
    32
  0
VERTEX
  8
0
  5
216C
 10
215.354
 20
187.140
 30
0.000000
  70
    32
  0
VERTEX
  8
0
  5
216D
 10
215.373
 20
187.232
 30
0.000000
  70
    32
  0
VERTEX
  8
0
  5
216E
 10
215.391
 20
187.326
 30
0.000000
  70
    32
  0
VERTEX
  8
0
  5
216F
 10
215.409
 20
187.421
 30
0.000000
  70
    32
  0
VERTEX
  8
0
  5
2170
 10
215.425
 20
187.517
 30
0.000000
  70
    32
  0
VERTEX
  8
0
  5
2171
 10
215.441
 20
187.614
 30
0.000000
  70
    32
  0
VERTEX
  8
0
  5
2172
 10
215.455
 20
187.711
 30
0.000000
  70
    32
  0
VERTEX
  8
0
  5
2173
 10
215.469
 20
187.810
 30
0.000000
  70
    32
  0
VERTEX
  8
0
  5
2174
 10
215.481
 20
187.910
 30
0.000000
  70
    32
  0
VERTEX
  8
0
  5
2175
 10
215.493
 20
188.010
 30
0.000000
  70
    32
  0
VERTEX
  8
0
  5
2176
 10
215.503
 20
188.111
 30
0.000000
  70
    32
  0
VERTEX
  8
0
  5
2177
 10
215.513
 20
188.212
 30
0.000000
  70
    32
  0
VERTEX
  8
0
  5
2178
 10
215.522
 20
188.314
 30
0.000000
  70
    32
  0
VERTEX
  8
0
  5
2179
 10
215.529
 20
188.417
 30
0.000000
  70
    32
  0
VERTEX
  8
0
  5
217A
 10
215.536
 20
188.520
 30
0.000000
  70
    32
  0
VERTEX
  8
0
  5
217B
 10
215.541
 20
188.623
 30
0.000000
  70
    32
  0
VERTEX
  8
0
  5
217C
 10
215.546
 20
188.727
 30
0.000000
  70
    32
  0
VERTEX
  8
0
  5
217D
 10
215.550
 20
188.831
 30
0.000000
  70
    32
  0
VERTEX
  8
0
  5
217E
 10
215.552
 20
188.935
 30
0.000000
  70
    32
  0
VERTEX
  8
0
  5
217F
 10
215.554
 20
189.039
 30
0.000000
  70
    32
  0
VERTEX
  8
0
  5
2180
 10
215.554
 20
189.143
 30
0.000000
  70
    32
  0
VERTEX
  8
0
  5
2181
 10
215.554
 20
189.248
 30
0.000000
  70
    32
  0
VERTEX
  8
0
  5
2182
 10
215.552
 20
189.352
 30
0.000000
  70
    32
  0
VERTEX
  8
0
  5
2183
 10
215.550
 20
189.456
 30
0.000000
  70
    32
  0
VERTEX
  8
0
  5
2184
 10
215.546
 20
189.560
 30
0.000000
  70
    32
  0
VERTEX
  8
0
  5
2185
 10
215.541
 20
189.663
 30
0.000000
  70
    32
  0
VERTEX
  8
0
  5
2186
 10
215.536
 20
189.767
 30
0.000000
  70
    32
  0
VERTEX
  8
0
  5
2187
 10
215.529
 20
189.870
 30
0.000000
  70
    32
  0
VERTEX
  8
0
  5
2188
 10
215.522
 20
189.972
 30
0.000000
  70
    32
  0
VERTEX
  8
0
  5
2189
 10
215.513
 20
190.074
 30
0.000000
  70
    32
  0
VERTEX
  8
0
  5
218A
 10
215.503
 20
190.176
 30
0.000000
  70
    32
  0
VERTEX
  8
0
  5
218B
 10
215.493
 20
190.277
 30
0.000000
  70
    32
  0
VERTEX
  8
0
  5
218C
 10
215.481
 20
190.377
 30
0.000000
  70
    32
  0
VERTEX
  8
0
  5
218D
 10
215.469
 20
190.476
 30
0.000000
  70
    32
  0
VERTEX
  8
0
  5
218E
 10
215.455
 20
190.575
 30
0.000000
  70
    32
  0
VERTEX
  8
0
  5
218F
 10
215.441
 20
190.673
 30
0.000000
  70
    32
  0
VERTEX
  8
0
  5
2190
 10
215.425
 20
190.770
 30
0.000000
  70
    32
  0
VERTEX
  8
0
  5
2191
 10
215.409
 20
190.866
 30
0.000000
  70
    32
  0
VERTEX
  8
0
  5
2192
 10
215.391
 20
190.960
 30
0.000000
  70
    32
  0
VERTEX
  8
0
  5
2193
 10
215.373
 20
191.054
 30
0.000000
  70
    32
  0
VERTEX
  8
0
  5
2194
 10
215.354
 20
191.147
 30
0.000000
  70
    32
  0
VERTEX
  8
0
  5
2195
 10
215.334
 20
191.238
 30
0.000000
  70
    32
  0
VERTEX
  8
0
  5
2196
 10
215.313
 20
191.328
 30
0.000000
  70
    32
  0
VERTEX
  8
0
  5
2197
 10
215.291
 20
191.417
 30
0.000000
  70
    32
  0
VERTEX
  8
0
  5
2198
 10
215.268
 20
191.504
 30
0.000000
  70
    32
  0
VERTEX
  8
0
  5
2199
 10
215.245
 20
191.590
 30
0.000000
  70
    32
  0
VERTEX
  8
0
  5
219A
 10
215.220
 20
191.675
 30
0.000000
  70
    32
  0
VERTEX
  8
0
  5
219B
 10
215.195
 20
191.758
 30
0.000000
  70
    32
  0
VERTEX
  8
0
  5
219C
 10
215.169
 20
191.839
 30
0.000000
  70
    32
  0
VERTEX
  8
0
  5
219D
 10
215.142
 20
191.919
 30
0.000000
  70
    32
  0
VERTEX
  8
0
  5
219E
 10
215.115
 20
191.997
 30
0.000000
  70
    32
  0
VERTEX
  8
0
  5
219F
 10
215.086
 20
192.074
 30
0.000000
  70
    32
  0
VERTEX
  8
0
  5
21A0
 10
215.057
 20
192.148
 30
0.000000
  70
    32
  0
VERTEX
  8
0
  5
21A1
 10
215.028
 20
192.221
 30
0.000000
  70
    32
  0
VERTEX
  8
0
  5
21A2
 10
214.997
 20
192.292
 30
0.000000
  70
    32
  0
VERTEX
  8
0
  5
21A3
 10
214.966
 20
192.361
 30
0.000000
  70
    32
  0
VERTEX
  8
0
  5
21A4
 10
214.934
 20
192.429
 30
0.000000
  70
    32
  0
VERTEX
  8
0
  5
21A5
 10
214.901
 20
192.494
 30
0.000000
  70
    32
  0
VERTEX
  8
0
  5
21A6
 10
214.868
 20
192.557
 30
0.000000
  70
    32
  0
VERTEX
  8
0
  5
21A7
 10
214.835
 20
192.618
 30
0.000000
  70
    32
  0
VERTEX
  8
0
  5
21A8
 10
214.800
 20
192.677
 30
0.000000
  70
    32
  0
VERTEX
  8
0
  5
21A9
 10
214.765
 20
192.734
 30
0.000000
  70
    32
  0
VERTEX
  8
0
  5
21AA
 10
214.730
 20
192.789
 30
0.000000
  70
    32
  0
VERTEX
  8
0
  5
21AB
 10
214.694
 20
192.841
 30
0.000000
  70
    32
  0
VERTEX
  8
0
  5
21AC
 10
214.657
 20
192.891
 30
0.000000
  70
    32
  0
VERTEX
  8
0
  5
21AD
 10
214.620
 20
192.939
 30
0.000000
  70
    32
  0
VERTEX
  8
0
  5
21AE
 10
214.583
 20
192.985
 30
0.000000
  70
    32
  0
VERTEX
  8
0
  5
21AF
 10
214.545
 20
193.029
 30
0.000000
  70
    32
  0
VERTEX
  8
0
  5
21B0
 10
214.507
 20
193.070
 30
0.000000
  70
    32
  0
VERTEX
  8
0
  5
21B1
 10
214.468
 20
193.108
 30
0.000000
  70
    32
  0
VERTEX
  8
0
  5
21B2
 10
214.429
 20
193.145
 30
0.000000
  70
    32
  0
VERTEX
  8
0
  5
21B3
 10
214.390
 20
193.179
 30
0.000000
  70
    32
  0
VERTEX
  8
0
  5
21B4
 10
214.350
 20
193.210
 30
0.000000
  70
    32
  0
VERTEX
  8
0
  5
21B5
 10
214.310
 20
193.239
 30
0.000000
  70
    32
  0
VERTEX
  8
0
  5
21B6
 10
214.270
 20
193.266
 30
0.000000
  70
    32
  0
VERTEX
  8
0
  5
21B7
 10
214.229
 20
193.290
 30
0.000000
  70
    32
  0
VERTEX
  8
0
  5
21B8
 10
214.189
 20
193.312
 30
0.000000
  70
    32
  0
VERTEX
  8
0
  5
21B9
 10
214.148
 20
193.331
 30
0.000000
  70
    32
  0
VERTEX
  8
0
  5
21BA
 10
214.107
 20
193.347
 30
0.000000
  70
    32
  0
VERTEX
  8
0
  5
21BB
 10
214.065
 20
193.361
 30
0.000000
  70
    32
  0
VERTEX
  8
0
  5
21BC
 10
214.024
 20
193.373
 30
0.000000
  70
    32
  0
VERTEX
  8
0
  5
21BD
 10
213.983
 20
193.382
 30
0.000000
  70
    32
  0
VERTEX
  8
0
  5
21BE
 10
213.941
 20
193.388
 30
0.000000
  70
    32
  0
VERTEX
  8
0
  5
21BF
 10
213.899
 20
193.392
 30
0.000000
  70
    32
  0
VERTEX
  8
0
  5
21C0
 10
213.858
 20
193.393
 30
0.000000
  70
    32
  0
SEQEND
  8
0
  5
21C1
  0
POLYLINE
  5
1BB2
  8
3
 10
212.29887840970096
 20
186.64323645759069
 30
0.0
 66
     1
 70
     8
  0
VERTEX
  8
3
  5
21C2
 10
212.299
 20
186.643
 30
0.000000
  70
    32
  0
VERTEX
  8
3
  5
21C3
 10
212.337
 20
186.644
 30
0.000000
  70
    32
  0
VERTEX
  8
3
  5
21C4
 10
212.375
 20
186.646
 30
0.000000
  70
    32
  0
VERTEX
  8
3
  5
21C5
 10
212.414
 20
186.650
 30
0.000000
  70
    32
  0
VERTEX
  8
3
  5
21C6
 10
212.452
 20
186.655
 30
0.000000
  70
    32
  0
VERTEX
  8
3
  5
21C7
 10
212.490
 20
186.662
 30
0.000000
  70
    32
  0
VERTEX
  8
3
  5
21C8
 10
212.528
 20
186.670
 30
0.000000
  70
    32
  0
VERTEX
  8
3
  5
21C9
 10
212.565
 20
186.680
 30
0.000000
  70
    32
  0
VERTEX
  8
3
  5
21CA
 10
212.603
 20
186.691
 30
0.000000
  70
    32
  0
VERTEX
  8
3
  5
21CB
 10
212.640
 20
186.704
 30
0.000000
  70
    32
  0
VERTEX
  8
3
  5
21CC
 10
212.678
 20
186.718
 30
0.000000
  70
    32
  0
VERTEX
  8
3
  5
21CD
 10
212.715
 20
186.734
 30
0.000000
  70
    32
  0
VERTEX
  8
3
  5
21CE
 10
212.751
 20
186.751
 30
0.000000
  70
    32
  0
VERTEX
  8
3
  5
21CF
 10
212.788
 20
186.769
 30
0.000000
  70
    32
  0
VERTEX
  8
3
  5
21D0
 10
212.824
 20
186.789
 30
0.000000
  70
    32
  0
VERTEX
  8
3
  5
21D1
 10
212.860
 20
186.811
 30
0.000000
  70
    32
  0
VERTEX
  8
3
  5
21D2
 10
212.895
 20
186.834
 30
0.000000
  70
    32
  0
VERTEX
  8
3
  5
21D3
 10
212.931
 20
186.858
 30
0.000000
  70
    32
  0
VERTEX
  8
3
  5
21D4
 10
212.965
 20
186.883
 30
0.000000
  70
    32
  0
VERTEX
  8
3
  5
21D5
 10
213.000
 20
186.910
 30
0.000000
  70
    32
  0
VERTEX
  8
3
  5
21D6
 10
213.034
 20
186.938
 30
0.000000
  70
    32
  0
VERTEX
  8
3
  5
21D7
 10
213.067
 20
186.968
 30
0.000000
  70
    32
  0
VERTEX
  8
3
  5
21D8
 10
213.100
 20
186.999
 30
0.000000
  70
    32
  0
VERTEX
  8
3
  5
21D9
 10
213.133
 20
187.031
 30
0.000000
  70
    32
  0
VERTEX
  8
3
  5
21DA
 10
213.165
 20
187.065
 30
0.000000
  70
    32
  0
VERTEX
  8
3
  5
21DB
 10
213.196
 20
187.099
 30
0.000000
  70
    32
  0
VERTEX
  8
3
  5
21DC
 10
213.227
 20
187.135
 30
0.000000
  70
    32
  0
VERTEX
  8
3
  5
21DD
 10
213.258
 20
187.172
 30
0.000000
  70
    32
  0
VERTEX
  8
3
  5
21DE
 10
213.288
 20
187.211
 30
0.000000
  70
    32
  0
VERTEX
  8
3
  5
21DF
 10
213.317
 20
187.250
 30
0.000000
  70
    32
  0
VERTEX
  8
3
  5
21E0
 10
213.346
 20
187.291
 30
0.000000
  70
    32
  0
VERTEX
  8
3
  5
21E1
 10
213.374
 20
187.333
 30
0.000000
  70
    32
  0
VERTEX
  8
3
  5
21E2
 10
213.401
 20
187.375
 30
0.000000
  70
    32
  0
VERTEX
  8
3
  5
21E3
 10
213.428
 20
187.419
 30
0.000000
  70
    32
  0
VERTEX
  8
3
  5
21E4
 10
213.454
 20
187.464
 30
0.000000
  70
    32
  0
VERTEX
  8
3
  5
21E5
 10
213.479
 20
187.510
 30
0.000000
  70
    32
  0
VERTEX
  8
3
  5
21E6
 10
213.504
 20
187.557
 30
0.000000
  70
    32
  0
VERTEX
  8
3
  5
21E7
 10
213.528
 20
187.605
 30
0.000000
  70
    32
  0
VERTEX
  8
3
  5
21E8
 10
213.551
 20
187.654
 30
0.000000
  70
    32
  0
VERTEX
  8
3
  5
21E9
 10
213.573
 20
187.704
 30
0.000000
  70
    32
  0
VERTEX
  8
3
  5
21EA
 10
213.595
 20
187.754
 30
0.000000
  70
    32
  0
VERTEX
  8
3
  5
21EB
 10
213.616
 20
187.806
 30
0.000000
  70
    32
  0
VERTEX
  8
3
  5
21EC
 10
213.636
 20
187.858
 30
0.000000
  70
    32
  0
VERTEX
  8
3
  5
21ED
 10
213.655
 20
187.911
 30
0.000000
  70
    32
  0
VERTEX
  8
3
  5
21EE
 10
213.674
 20
187.965
 30
0.000000
  70
    32
  0
VERTEX
  8
3
  5
21EF
 10
213.691
 20
188.019
 30
0.000000
  70
    32
  0
VERTEX
  8
3
  5
21F0
 10
213.708
 20
188.074
 30
0.000000
  70
    32
  0
VERTEX
  8
3
  5
21F1
 10
213.724
 20
188.130
 30
0.000000
  70
    32
  0
VERTEX
  8
3
  5
21F2
 10
213.739
 20
188.187
 30
0.000000
  70
    32
  0
VERTEX
  8
3
  5
21F3
 10
213.753
 20
188.243
 30
0.000000
  70
    32
  0
VERTEX
  8
3
  5
21F4
 10
213.767
 20
188.301
 30
0.000000
  70
    32
  0
VERTEX
  8
3
  5
21F5
 10
213.779
 20
188.359
 30
0.000000
  70
    32
  0
VERTEX
  8
3
  5
21F6
 10
213.791
 20
188.418
 30
0.000000
  70
    32
  0
VERTEX
  8
3
  5
21F7
 10
213.801
 20
188.476
 30
0.000000
  70
    32
  0
VERTEX
  8
3
  5
21F8
 10
213.811
 20
188.536
 30
0.000000
  70
    32
  0
VERTEX
  8
3
  5
21F9
 10
213.820
 20
188.595
 30
0.000000
  70
    32
  0
VERTEX
  8
3
  5
21FA
 10
213.828
 20
188.656
 30
0.000000
  70
    32
  0
VERTEX
  8
3
  5
21FB
 10
213.835
 20
188.716
 30
0.000000
  70
    32
  0
VERTEX
  8
3
  5
21FC
 10
213.841
 20
188.776
 30
0.000000
  70
    32
  0
VERTEX
  8
3
  5
21FD
 10
213.846
 20
188.837
 30
0.000000
  70
    32
  0
VERTEX
  8
3
  5
21FE
 10
213.850
 20
188.898
 30
0.000000
  70
    32
  0
VERTEX
  8
3
  5
21FF
 10
213.853
 20
188.959
 30
0.000000
  70
    32
  0
VERTEX
  8
3
  5
2200
 10
213.856
 20
189.021
 30
0.000000
  70
    32
  0
VERTEX
  8
3
  5
2201
 10
213.857
 20
189.082
 30
0.000000
  70
    32
  0
VERTEX
  8
3
  5
2202
 10
213.858
 20
189.143
 30
0.000000
  70
    32
  0
VERTEX
  8
3
  5
2203
 10
213.857
 20
189.205
 30
0.000000
  70
    32
  0
VERTEX
  8
3
  5
2204
 10
213.856
 20
189.266
 30
0.000000
  70
    32
  0
VERTEX
  8
3
  5
2205
 10
213.853
 20
189.327
 30
0.000000
  70
    32
  0
VERTEX
  8
3
  5
2206
 10
213.850
 20
189.388
 30
0.000000
  70
    32
  0
VERTEX
  8
3
  5
2207
 10
213.846
 20
189.449
 30
0.000000
  70
    32
  0
VERTEX
  8
3
  5
2208
 10
213.841
 20
189.510
 30
0.000000
  70
    32
  0
VERTEX
  8
3
  5
2209
 10
213.835
 20
189.571
 30
0.000000
  70
    32
  0
VERTEX
  8
3
  5
220A
 10
213.828
 20
189.631
 30
0.000000
  70
    32
  0
VERTEX
  8
3
  5
220B
 10
213.820
 20
189.691
 30
0.000000
  70
    32
  0
VERTEX
  8
3
  5
220C
 10
213.811
 20
189.751
 30
0.000000
  70
    32
  0
VERTEX
  8
3
  5
220D
 10
213.801
 20
189.810
 30
0.000000
  70
    32
  0
VERTEX
  8
3
  5
220E
 10
213.791
 20
189.869
 30
0.000000
  70
    32
  0
VERTEX
  8
3
  5
220F
 10
213.779
 20
189.927
 30
0.000000
  70
    32
  0
VERTEX
  8
3
  5
2210
 10
213.767
 20
189.985
 30
0.000000
  70
    32
  0
VERTEX
  8
3
  5
2211
 10
213.753
 20
190.043
 30
0.000000
  70
    32
  0
VERTEX
  8
3
  5
2212
 10
213.739
 20
190.100
 30
0.000000
  70
    32
  0
VERTEX
  8
3
  5
2213
 10
213.724
 20
190.156
 30
0.000000
  70
    32
  0
VERTEX
  8
3
  5
2214
 10
213.708
 20
190.212
 30
0.000000
  70
    32
  0
VERTEX
  8
3
  5
2215
 10
213.691
 20
190.267
 30
0.000000
  70
    32
  0
VERTEX
  8
3
  5
2216
 10
213.674
 20
190.322
 30
0.000000
  70
    32
  0
VERTEX
  8
3
  5
2217
 10
213.655
 20
190.375
 30
0.000000
  70
    32
  0
VERTEX
  8
3
  5
2218
 10
213.636
 20
190.428
 30
0.000000
  70
    32
  0
VERTEX
  8
3
  5
2219
 10
213.616
 20
190.481
 30
0.000000
  70
    32
  0
VERTEX
  8
3
  5
221A
 10
213.595
 20
190.532
 30
0.000000
  70
    32
  0
VERTEX
  8
3
  5
221B
 10
213.573
 20
190.583
 30
0.000000
  70
    32
  0
VERTEX
  8
3
  5
221C
 10
213.551
 20
190.632
 30
0.000000
  70
    32
  0
VERTEX
  8
3
  5
221D
 10
213.528
 20
190.681
 30
0.000000
  70
    32
  0
VERTEX
  8
3
  5
221E
 10
213.504
 20
190.729
 30
0.000000
  70
    32
  0
VERTEX
  8
3
  5
221F
 10
213.479
 20
190.776
 30
0.000000
  70
    32
  0
VERTEX
  8
3
  5
2220
 10
213.454
 20
190.822
 30
0.000000
  70
    32
  0
VERTEX
  8
3
  5
2221
 10
213.428
 20
190.867
 30
0.000000
  70
    32
  0
VERTEX
  8
3
  5
2222
 10
213.401
 20
190.911
 30
0.000000
  70
    32
  0
VERTEX
  8
3
  5
2223
 10
213.374
 20
190.954
 30
0.000000
  70
    32
  0
VERTEX
  8
3
  5
2224
 10
213.346
 20
190.996
 30
0.000000
  70
    32
  0
VERTEX
  8
3
  5
2225
 10
213.317
 20
191.036
 30
0.000000
  70
    32
  0
VERTEX
  8
3
  5
2226
 10
213.288
 20
191.076
 30
0.000000
  70
    32
  0
VERTEX
  8
3
  5
2227
 10
213.258
 20
191.114
 30
0.000000
  70
    32
  0
VERTEX
  8
3
  5
2228
 10
213.227
 20
191.151
 30
0.000000
  70
    32
  0
VERTEX
  8
3
  5
2229
 10
213.196
 20
191.187
 30
0.000000
  70
    32
  0
VERTEX
  8
3
  5
222A
 10
213.165
 20
191.222
 30
0.000000
  70
    32
  0
VERTEX
  8
3
  5
222B
 10
213.133
 20
191.255
 30
0.000000
  70
    32
  0
VERTEX
  8
3
  5
222C
 10
213.100
 20
191.288
 30
0.000000
  70
    32
  0
VERTEX
  8
3
  5
222D
 10
213.067
 20
191.318
 30
0.000000
  70
    32
  0
VERTEX
  8
3
  5
222E
 10
213.034
 20
191.348
 30
0.000000
  70
    32
  0
VERTEX
  8
3
  5
222F
 10
213.000
 20
191.376
 30
0.000000
  70
    32
  0
VERTEX
  8
3
  5
2230
 10
212.965
 20
191.403
 30
0.000000
  70
    32
  0
VERTEX
  8
3
  5
2231
 10
212.931
 20
191.429
 30
0.000000
  70
    32
  0
VERTEX
  8
3
  5
2232
 10
212.895
 20
191.453
 30
0.000000
  70
    32
  0
VERTEX
  8
3
  5
2233
 10
212.860
 20
191.476
 30
0.000000
  70
    32
  0
VERTEX
  8
3
  5
2234
 10
212.824
 20
191.497
 30
0.000000
  70
    32
  0
VERTEX
  8
3
  5
2235
 10
212.788
 20
191.517
 30
0.000000
  70
    32
  0
VERTEX
  8
3
  5
2236
 10
212.751
 20
191.536
 30
0.000000
  70
    32
  0
VERTEX
  8
3
  5
2237
 10
212.715
 20
191.553
 30
0.000000
  70
    32
  0
VERTEX
  8
3
  5
2238
 10
212.678
 20
191.568
 30
0.000000
  70
    32
  0
VERTEX
  8
3
  5
2239
 10
212.640
 20
191.582
 30
0.000000
  70
    32
  0
VERTEX
  8
3
  5
223A
 10
212.603
 20
191.595
 30
0.000000
  70
    32
  0
VERTEX
  8
3
  5
223B
 10
212.565
 20
191.606
 30
0.000000
  70
    32
  0
VERTEX
  8
3
  5
223C
 10
212.528
 20
191.616
 30
0.000000
  70
    32
  0
VERTEX
  8
3
  5
223D
 10
212.490
 20
191.624
 30
0.000000
  70
    32
  0
VERTEX
  8
3
  5
223E
 10
212.452
 20
191.631
 30
0.000000
  70
    32
  0
VERTEX
  8
3
  5
223F
 10
212.414
 20
191.636
 30
0.000000
  70
    32
  0
VERTEX
  8
3
  5
2240
 10
212.375
 20
191.640
 30
0.000000
  70
    32
  0
VERTEX
  8
3
  5
2241
 10
212.337
 20
191.642
 30
0.000000
  70
    32
  0
VERTEX
  8
3
  5
2242
 10
212.299
 20
191.643
 30
0.000000
  70
    32
  0
SEQEND
  8
3
  5
2243
  0
POLYLINE
  5
1BB3
  8
3
 10
212.2988784097009
 20
191.64323645759069
 30
0.0
 66
     1
 70
     8
  0
VERTEX
  8
3
  5
2244
 10
212.299
 20
191.643
 30
0.000000
  70
    32
  0
VERTEX
  8
3
  5
2245
 10
212.275
 20
191.642
 30
0.000000
  70
    32
  0
VERTEX
  8
3
  5
2246
 10
212.250
 20
191.640
 30
0.000000
  70
    32
  0
VERTEX
  8
3
  5
2247
 10
212.226
 20
191.636
 30
0.000000
  70
    32
  0
VERTEX
  8
3
  5
2248
 10
212.202
 20
191.631
 30
0.000000
  70
    32
  0
VERTEX
  8
3
  5
2249
 10
212.177
 20
191.624
 30
0.000000
  70
    32
  0
VERTEX
  8
3
  5
224A
 10
212.153
 20
191.616
 30
0.000000
  70
    32
  0
VERTEX
  8
3
  5
224B
 10
212.129
 20
191.606
 30
0.000000
  70
    32
  0
VERTEX
  8
3
  5
224C
 10
212.105
 20
191.595
 30
0.000000
  70
    32
  0
VERTEX
  8
3
  5
224D
 10
212.081
 20
191.582
 30
0.000000
  70
    32
  0
VERTEX
  8
3
  5
224E
 10
212.058
 20
191.568
 30
0.000000
  70
    32
  0
VERTEX
  8
3
  5
224F
 10
212.034
 20
191.553
 30
0.000000
  70
    32
  0
VERTEX
  8
3
  5
2250
 10
212.011
 20
191.536
 30
0.000000
  70
    32
  0
VERTEX
  8
3
  5
2251
 10
211.988
 20
191.517
 30
0.000000
  70
    32
  0
VERTEX
  8
3
  5
2252
 10
211.965
 20
191.497
 30
0.000000
  70
    32
  0
VERTEX
  8
3
  5
2253
 10
211.942
 20
191.476
 30
0.000000
  70
    32
  0
VERTEX
  8
3
  5
2254
 10
211.919
 20
191.453
 30
0.000000
  70
    32
  0
VERTEX
  8
3
  5
2255
 10
211.897
 20
191.429
 30
0.000000
  70
    32
  0
VERTEX
  8
3
  5
2256
 10
211.875
 20
191.403
 30
0.000000
  70
    32
  0
VERTEX
  8
3
  5
2257
 10
211.853
 20
191.376
 30
0.000000
  70
    32
  0
VERTEX
  8
3
  5
2258
 10
211.831
 20
191.348
 30
0.000000
  70
    32
  0
VERTEX
  8
3
  5
2259
 10
211.810
 20
191.318
 30
0.000000
  70
    32
  0
VERTEX
  8
3
  5
225A
 10
211.789
 20
191.288
 30
0.000000
  70
    32
  0
VERTEX
  8
3
  5
225B
 10
211.768
 20
191.255
 30
0.000000
  70
    32
  0
VERTEX
  8
3
  5
225C
 10
211.747
 20
191.222
 30
0.000000
  70
    32
  0
VERTEX
  8
3
  5
225D
 10
211.727
 20
191.187
 30
0.000000
  70
    32
  0
VERTEX
  8
3
  5
225E
 10
211.708
 20
191.151
 30
0.000000
  70
    32
  0
VERTEX
  8
3
  5
225F
 10
211.688
 20
191.114
 30
0.000000
  70
    32
  0
VERTEX
  8
3
  5
2260
 10
211.669
 20
191.076
 30
0.000000
  70
    32
  0
VERTEX
  8
3
  5
2261
 10
211.651
 20
191.036
 30
0.000000
  70
    32
  0
VERTEX
  8
3
  5
2262
 10
211.632
 20
190.996
 30
0.000000
  70
    32
  0
VERTEX
  8
3
  5
2263
 10
211.615
 20
190.954
 30
0.000000
  70
    32
  0
VERTEX
  8
3
  5
2264
 10
211.597
 20
190.911
 30
0.000000
  70
    32
  0
VERTEX
  8
3
  5
2265
 10
211.580
 20
190.867
 30
0.000000
  70
    32
  0
VERTEX
  8
3
  5
2266
 10
211.563
 20
190.822
 30
0.000000
  70
    32
  0
VERTEX
  8
3
  5
2267
 10
211.547
 20
190.776
 30
0.000000
  70
    32
  0
VERTEX
  8
3
  5
2268
 10
211.532
 20
190.729
 30
0.000000
  70
    32
  0
VERTEX
  8
3
  5
2269
 10
211.516
 20
190.681
 30
0.000000
  70
    32
  0
VERTEX
  8
3
  5
226A
 10
211.502
 20
190.632
 30
0.000000
  70
    32
  0
VERTEX
  8
3
  5
226B
 10
211.487
 20
190.583
 30
0.000000
  70
    32
  0
VERTEX
  8
3
  5
226C
 10
211.474
 20
190.532
 30
0.000000
  70
    32
  0
VERTEX
  8
3
  5
226D
 10
211.460
 20
190.481
 30
0.000000
  70
    32
  0
VERTEX
  8
3
  5
226E
 10
211.448
 20
190.428
 30
0.000000
  70
    32
  0
VERTEX
  8
3
  5
226F
 10
211.435
 20
190.375
 30
0.000000
  70
    32
  0
VERTEX
  8
3
  5
2270
 10
211.424
 20
190.322
 30
0.000000
  70
    32
  0
VERTEX
  8
3
  5
2271
 10
211.412
 20
190.267
 30
0.000000
  70
    32
  0
VERTEX
  8
3
  5
2272
 10
211.402
 20
190.212
 30
0.000000
  70
    32
  0
VERTEX
  8
3
  5
2273
 10
211.392
 20
190.156
 30
0.000000
  70
    32
  0
VERTEX
  8
3
  5
2274
 10
211.382
 20
190.100
 30
0.000000
  70
    32
  0
VERTEX
  8
3
  5
2275
 10
211.373
 20
190.043
 30
0.000000
  70
    32
  0
VERTEX
  8
3
  5
2276
 10
211.364
 20
189.985
 30
0.000000
  70
    32
  0
VERTEX
  8
3
  5
2277
 10
211.356
 20
189.927
 30
0.000000
  70
    32
  0
VERTEX
  8
3
  5
2278
 10
211.349
 20
189.869
 30
0.000000
  70
    32
  0
VERTEX
  8
3
  5
2279
 10
211.342
 20
189.810
 30
0.000000
  70
    32
  0
VERTEX
  8
3
  5
227A
 10
211.336
 20
189.751
 30
0.000000
  70
    32
  0
VERTEX
  8
3
  5
227B
 10
211.331
 20
189.691
 30
0.000000
  70
    32
  0
VERTEX
  8
3
  5
227C
 10
211.325
 20
189.631
 30
0.000000
  70
    32
  0
VERTEX
  8
3
  5
227D
 10
211.321
 20
189.571
 30
0.000000
  70
    32
  0
VERTEX
  8
3
  5
227E
 10
211.317
 20
189.510
 30
0.000000
  70
    32
  0
VERTEX
  8
3
  5
227F
 10
211.314
 20
189.449
 30
0.000000
  70
    32
  0
VERTEX
  8
3
  5
2280
 10
211.311
 20
189.388
 30
0.000000
  70
    32
  0
VERTEX
  8
3
  5
2281
 10
211.309
 20
189.327
 30
0.000000
  70
    32
  0
VERTEX
  8
3
  5
2282
 10
211.308
 20
189.266
 30
0.000000
  70
    32
  0
VERTEX
  8
3
  5
2283
 10
211.307
 20
189.205
 30
0.000000
  70
    32
  0
VERTEX
  8
3
  5
2284
 10
211.306
 20
189.143
 30
0.000000
  70
    32
  0
VERTEX
  8
3
  5
2285
 10
211.307
 20
189.082
 30
0.000000
  70
    32
  0
VERTEX
  8
3
  5
2286
 10
211.308
 20
189.021
 30
0.000000
  70
    32
  0
VERTEX
  8
3
  5
2287
 10
211.309
 20
188.959
 30
0.000000
  70
    32
  0
VERTEX
  8
3
  5
2288
 10
211.311
 20
188.898
 30
0.000000
  70
    32
  0
VERTEX
  8
3
  5
2289
 10
211.314
 20
188.837
 30
0.000000
  70
    32
  0
VERTEX
  8
3
  5
228A
 10
211.317
 20
188.776
 30
0.000000
  70
    32
  0
VERTEX
  8
3
  5
228B
 10
211.321
 20
188.716
 30
0.000000
  70
    32
  0
VERTEX
  8
3
  5
228C
 10
211.325
 20
188.656
 30
0.000000
  70
    32
  0
VERTEX
  8
3
  5
228D
 10
211.331
 20
188.595
 30
0.000000
  70
    32
  0
VERTEX
  8
3
  5
228E
 10
211.336
 20
188.536
 30
0.000000
  70
    32
  0
VERTEX
  8
3
  5
228F
 10
211.342
 20
188.476
 30
0.000000
  70
    32
  0
VERTEX
  8
3
  5
2290
 10
211.349
 20
188.418
 30
0.000000
  70
    32
  0
VERTEX
  8
3
  5
2291
 10
211.356
 20
188.359
 30
0.000000
  70
    32
  0
VERTEX
  8
3
  5
2292
 10
211.364
 20
188.301
 30
0.000000
  70
    32
  0
VERTEX
  8
3
  5
2293
 10
211.373
 20
188.243
 30
0.000000
  70
    32
  0
VERTEX
  8
3
  5
2294
 10
211.382
 20
188.187
 30
0.000000
  70
    32
  0
VERTEX
  8
3
  5
2295
 10
211.392
 20
188.130
 30
0.000000
  70
    32
  0
VERTEX
  8
3
  5
2296
 10
211.402
 20
188.074
 30
0.000000
  70
    32
  0
VERTEX
  8
3
  5
2297
 10
211.412
 20
188.019
 30
0.000000
  70
    32
  0
VERTEX
  8
3
  5
2298
 10
211.424
 20
187.965
 30
0.000000
  70
    32
  0
VERTEX
  8
3
  5
2299
 10
211.435
 20
187.911
 30
0.000000
  70
    32
  0
VERTEX
  8
3
  5
229A
 10
211.448
 20
187.858
 30
0.000000
  70
    32
  0
VERTEX
  8
3
  5
229B
 10
211.460
 20
187.806
 30
0.000000
  70
    32
  0
VERTEX
  8
3
  5
229C
 10
211.474
 20
187.754
 30
0.000000
  70
    32
  0
VERTEX
  8
3
  5
229D
 10
211.487
 20
187.704
 30
0.000000
  70
    32
  0
VERTEX
  8
3
  5
229E
 10
211.502
 20
187.654
 30
0.000000
  70
    32
  0
VERTEX
  8
3
  5
229F
 10
211.516
 20
187.605
 30
0.000000
  70
    32
  0
VERTEX
  8
3
  5
22A0
 10
211.532
 20
187.557
 30
0.000000
  70
    32
  0
VERTEX
  8
3
  5
22A1
 10
211.547
 20
187.510
 30
0.000000
  70
    32
  0
VERTEX
  8
3
  5
22A2
 10
211.563
 20
187.464
 30
0.000000
  70
    32
  0
VERTEX
  8
3
  5
22A3
 10
211.580
 20
187.419
 30
0.000000
  70
    32
  0
VERTEX
  8
3
  5
22A4
 10
211.597
 20
187.375
 30
0.000000
  70
    32
  0
VERTEX
  8
3
  5
22A5
 10
211.615
 20
187.333
 30
0.000000
  70
    32
  0
VERTEX
  8
3
  5
22A6
 10
211.632
 20
187.291
 30
0.000000
  70
    32
  0
VERTEX
  8
3
  5
22A7
 10
211.651
 20
187.250
 30
0.000000
  70
    32
  0
VERTEX
  8
3
  5
22A8
 10
211.669
 20
187.211
 30
0.000000
  70
    32
  0
VERTEX
  8
3
  5
22A9
 10
211.688
 20
187.172
 30
0.000000
  70
    32
  0
VERTEX
  8
3
  5
22AA
 10
211.708
 20
187.135
 30
0.000000
  70
    32
  0
VERTEX
  8
3
  5
22AB
 10
211.727
 20
187.099
 30
0.000000
  70
    32
  0
VERTEX
  8
3
  5
22AC
 10
211.747
 20
187.065
 30
0.000000
  70
    32
  0
VERTEX
  8
3
  5
22AD
 10
211.768
 20
187.031
 30
0.000000
  70
    32
  0
VERTEX
  8
3
  5
22AE
 10
211.789
 20
186.999
 30
0.000000
  70
    32
  0
VERTEX
  8
3
  5
22AF
 10
211.810
 20
186.968
 30
0.000000
  70
    32
  0
VERTEX
  8
3
  5
22B0
 10
211.831
 20
186.938
 30
0.000000
  70
    32
  0
VERTEX
  8
3
  5
22B1
 10
211.853
 20
186.910
 30
0.000000
  70
    32
  0
VERTEX
  8
3
  5
22B2
 10
211.875
 20
186.883
 30
0.000000
  70
    32
  0
VERTEX
  8
3
  5
22B3
 10
211.897
 20
186.858
 30
0.000000
  70
    32
  0
VERTEX
  8
3
  5
22B4
 10
211.919
 20
186.834
 30
0.000000
  70
    32
  0
VERTEX
  8
3
  5
22B5
 10
211.942
 20
186.811
 30
0.000000
  70
    32
  0
VERTEX
  8
3
  5
22B6
 10
211.965
 20
186.789
 30
0.000000
  70
    32
  0
VERTEX
  8
3
  5
22B7
 10
211.988
 20
186.769
 30
0.000000
  70
    32
  0
VERTEX
  8
3
  5
22B8
 10
212.011
 20
186.751
 30
0.000000
  70
    32
  0
VERTEX
  8
3
  5
22B9
 10
212.034
 20
186.734
 30
0.000000
  70
    32
  0
VERTEX
  8
3
  5
22BA
 10
212.058
 20
186.718
 30
0.000000
  70
    32
  0
VERTEX
  8
3
  5
22BB
 10
212.081
 20
186.704
 30
0.000000
  70
    32
  0
VERTEX
  8
3
  5
22BC
 10
212.105
 20
186.691
 30
0.000000
  70
    32
  0
VERTEX
  8
3
  5
22BD
 10
212.129
 20
186.680
 30
0.000000
  70
    32
  0
VERTEX
  8
3
  5
22BE
 10
212.153
 20
186.670
 30
0.000000
  70
    32
  0
VERTEX
  8
3
  5
22BF
 10
212.177
 20
186.662
 30
0.000000
  70
    32
  0
VERTEX
  8
3
  5
22C0
 10
212.202
 20
186.655
 30
0.000000
  70
    32
  0
VERTEX
  8
3
  5
22C1
 10
212.226
 20
186.650
 30
0.000000
  70
    32
  0
VERTEX
  8
3
  5
22C2
 10
212.250
 20
186.646
 30
0.000000
  70
    32
  0
VERTEX
  8
3
  5
22C3
 10
212.275
 20
186.644
 30
0.000000
  70
    32
  0
VERTEX
  8
3
  5
22C4
 10
212.299
 20
186.643
 30
0.000000
  70
    32
  0
SEQEND
  8
3
  5
22C5
  0
POLYLINE
  5
1BB4
  8
0
 10
211.48148185509714
 20
187.7252338511278
 30
0.0
 66
     1
 70
     8
  0
VERTEX
  8
0
  5
22C6
 10
211.481
 20
187.725
 30
0.000000
  70
    32
  0
VERTEX
  8
0
  5
22C7
 10
211.508
 20
187.670
 30
0.000000
  70
    32
  0
VERTEX
  8
0
  5
22C8
 10
211.536
 20
187.617
 30
0.000000
  70
    32
  0
VERTEX
  8
0
  5
22C9
 10
211.565
 20
187.566
 30
0.000000
  70
    32
  0
VERTEX
  8
0
  5
22CA
 10
211.595
 20
187.518
 30
0.000000
  70
    32
  0
VERTEX
  8
0
  5
22CB
 10
211.626
 20
187.471
 30
0.000000
  70
    32
  0
VERTEX
  8
0
  5
22CC
 10
211.657
 20
187.427
 30
0.000000
  70
    32
  0
VERTEX
  8
0
  5
22CD
 10
211.690
 20
187.385
 30
0.000000
  70
    32
  0
VERTEX
  8
0
  5
22CE
 10
211.723
 20
187.346
 30
0.000000
  70
    32
  0
VERTEX
  8
0
  5
22CF
 10
211.757
 20
187.309
 30
0.000000
  70
    32
  0
VERTEX
  8
0
  5
22D0
 10
211.791
 20
187.275
 30
0.000000
  70
    32
  0
VERTEX
  8
0
  5
22D1
 10
211.826
 20
187.243
 30
0.000000
  70
    32
  0
VERTEX
  8
0
  5
22D2
 10
211.862
 20
187.214
 30
0.000000
  70
    32
  0
VERTEX
  8
0
  5
22D3
 10
211.898
 20
187.188
 30
0.000000
  70
    32
  0
VERTEX
  8
0
  5
22D4
 10
211.935
 20
187.164
 30
0.000000
  70
    32
  0
VERTEX
  8
0
  5
22D5
 10
211.972
 20
187.143
 30
0.000000
  70
    32
  0
VERTEX
  8
0
  5
22D6
 10
212.010
 20
187.125
 30
0.000000
  70
    32
  0
VERTEX
  8
0
  5
22D7
 10
212.047
 20
187.110
 30
0.000000
  70
    32
  0
VERTEX
  8
0
  5
22D8
 10
212.085
 20
187.098
 30
0.000000
  70
    32
  0
VERTEX
  8
0
  5
22D9
 10
212.124
 20
187.088
 30
0.000000
  70
    32
  0
VERTEX
  8
0
  5
22DA
 10
212.162
 20
187.081
 30
0.000000
  70
    32
  0
VERTEX
  8
0
  5
22DB
 10
212.200
 20
187.077
 30
0.000000
  70
    32
  0
VERTEX
  8
0
  5
22DC
 10
212.239
 20
187.076
 30
0.000000
  70
    32
  0
VERTEX
  8
0
  5
22DD
 10
212.277
 20
187.078
 30
0.000000
  70
    32
  0
VERTEX
  8
0
  5
22DE
 10
212.316
 20
187.083
 30
0.000000
  70
    32
  0
VERTEX
  8
0
  5
22DF
 10
212.354
 20
187.090
 30
0.000000
  70
    32
  0
VERTEX
  8
0
  5
22E0
 10
212.392
 20
187.101
 30
0.000000
  70
    32
  0
VERTEX
  8
0
  5
22E1
 10
212.430
 20
187.114
 30
0.000000
  70
    32
  0
VERTEX
  8
0
  5
22E2
 10
212.468
 20
187.130
 30
0.000000
  70
    32
  0
VERTEX
  8
0
  5
22E3
 10
212.505
 20
187.149
 30
0.000000
  70
    32
  0
VERTEX
  8
0
  5
22E4
 10
212.542
 20
187.171
 30
0.000000
  70
    32
  0
VERTEX
  8
0
  5
22E5
 10
212.579
 20
187.195
 30
0.000000
  70
    32
  0
VERTEX
  8
0
  5
22E6
 10
212.615
 20
187.222
 30
0.000000
  70
    32
  0
VERTEX
  8
0
  5
22E7
 10
212.650
 20
187.252
 30
0.000000
  70
    32
  0
VERTEX
  8
0
  5
22E8
 10
212.685
 20
187.284
 30
0.000000
  70
    32
  0
VERTEX
  8
0
  5
22E9
 10
212.720
 20
187.319
 30
0.000000
  70
    32
  0
VERTEX
  8
0
  5
22EA
 10
212.753
 20
187.357
 30
0.000000
  70
    32
  0
VERTEX
  8
0
  5
22EB
 10
212.786
 20
187.397
 30
0.000000
  70
    32
  0
VERTEX
  8
0
  5
22EC
 10
212.818
 20
187.439
 30
0.000000
  70
    32
  0
VERTEX
  8
0
  5
22ED
 10
212.850
 20
187.484
 30
0.000000
  70
    32
  0
VERTEX
  8
0
  5
22EE
 10
212.880
 20
187.531
 30
0.000000
  70
    32
  0
VERTEX
  8
0
  5
22EF
 10
212.910
 20
187.580
 30
0.000000
  70
    32
  0
VERTEX
  8
0
  5
22F0
 10
212.938
 20
187.632
 30
0.000000
  70
    32
  0
VERTEX
  8
0
  5
22F1
 10
212.966
 20
187.685
 30
0.000000
  70
    32
  0
VERTEX
  8
0
  5
22F2
 10
212.993
 20
187.741
 30
0.000000
  70
    32
  0
VERTEX
  8
0
  5
22F3
 10
213.018
 20
187.799
 30
0.000000
  70
    32
  0
VERTEX
  8
0
  5
22F4
 10
213.043
 20
187.858
 30
0.000000
  70
    32
  0
VERTEX
  8
0
  5
22F5
 10
213.066
 20
187.919
 30
0.000000
  70
    32
  0
VERTEX
  8
0
  5
22F6
 10
213.089
 20
187.982
 30
0.000000
  70
    32
  0
VERTEX
  8
0
  5
22F7
 10
213.110
 20
188.047
 30
0.000000
  70
    32
  0
VERTEX
  8
0
  5
22F8
 10
213.129
 20
188.113
 30
0.000000
  70
    32
  0
VERTEX
  8
0
  5
22F9
 10
213.148
 20
188.180
 30
0.000000
  70
    32
  0
VERTEX
  8
0
  5
22FA
 10
213.165
 20
188.249
 30
0.000000
  70
    32
  0
VERTEX
  8
0
  5
22FB
 10
213.181
 20
188.319
 30
0.000000
  70
    32
  0
VERTEX
  8
0
  5
22FC
 10
213.196
 20
188.390
 30
0.000000
  70
    32
  0
VERTEX
  8
0
  5
22FD
 10
213.209
 20
188.463
 30
0.000000
  70
    32
  0
VERTEX
  8
0
  5
22FE
 10
213.221
 20
188.536
 30
0.000000
  70
    32
  0
VERTEX
  8
0
  5
22FF
 10
213.232
 20
188.610
 30
0.000000
  70
    32
  0
VERTEX
  8
0
  5
2300
 10
213.241
 20
188.685
 30
0.000000
  70
    32
  0
VERTEX
  8
0
  5
2301
 10
213.249
 20
188.760
 30
0.000000
  70
    32
  0
VERTEX
  8
0
  5
2302
 10
213.255
 20
188.836
 30
0.000000
  70
    32
  0
VERTEX
  8
0
  5
2303
 10
213.260
 20
188.913
 30
0.000000
  70
    32
  0
VERTEX
  8
0
  5
2304
 10
213.264
 20
188.989
 30
0.000000
  70
    32
  0
VERTEX
  8
0
  5
2305
 10
213.266
 20
189.066
 30
0.000000
  70
    32
  0
VERTEX
  8
0
  5
2306
 10
213.267
 20
189.143
 30
0.000000
  70
    32
  0
VERTEX
  8
0
  5
2307
 10
213.266
 20
189.220
 30
0.000000
  70
    32
  0
VERTEX
  8
0
  5
2308
 10
213.264
 20
189.297
 30
0.000000
  70
    32
  0
VERTEX
  8
0
  5
2309
 10
213.260
 20
189.374
 30
0.000000
  70
    32
  0
VERTEX
  8
0
  5
230A
 10
213.255
 20
189.450
 30
0.000000
  70
    32
  0
VERTEX
  8
0
  5
230B
 10
213.249
 20
189.526
 30
0.000000
  70
    32
  0
VERTEX
  8
0
  5
230C
 10
213.241
 20
189.602
 30
0.000000
  70
    32
  0
VERTEX
  8
0
  5
230D
 10
213.232
 20
189.676
 30
0.000000
  70
    32
  0
VERTEX
  8
0
  5
230E
 10
213.221
 20
189.751
 30
0.000000
  70
    32
  0
VERTEX
  8
0
  5
230F
 10
213.209
 20
189.824
 30
0.000000
  70
    32
  0
VERTEX
  8
0
  5
2310
 10
213.196
 20
189.896
 30
0.000000
  70
    32
  0
VERTEX
  8
0
  5
2311
 10
213.181
 20
189.967
 30
0.000000
  70
    32
  0
VERTEX
  8
0
  5
2312
 10
213.165
 20
190.037
 30
0.000000
  70
    32
  0
VERTEX
  8
0
  5
2313
 10
213.148
 20
190.106
 30
0.000000
  70
    32
  0
VERTEX
  8
0
  5
2314
 10
213.129
 20
190.174
 30
0.000000
  70
    32
  0
VERTEX
  8
0
  5
2315
 10
213.110
 20
190.240
 30
0.000000
  70
    32
  0
VERTEX
  8
0
  5
2316
 10
213.089
 20
190.304
 30
0.000000
  70
    32
  0
VERTEX
  8
0
  5
2317
 10
213.066
 20
190.367
 30
0.000000
  70
    32
  0
VERTEX
  8
0
  5
2318
 10
213.043
 20
190.428
 30
0.000000
  70
    32
  0
VERTEX
  8
0
  5
2319
 10
213.018
 20
190.488
 30
0.000000
  70
    32
  0
VERTEX
  8
0
  5
231A
 10
212.993
 20
190.545
 30
0.000000
  70
    32
  0
VERTEX
  8
0
  5
231B
 10
212.966
 20
190.601
 30
0.000000
  70
    32
  0
VERTEX
  8
0
  5
231C
 10
212.938
 20
190.655
 30
0.000000
  70
    32
  0
VERTEX
  8
0
  5
231D
 10
212.910
 20
190.706
 30
0.000000
  70
    32
  0
VERTEX
  8
0
  5
231E
 10
212.880
 20
190.755
 30
0.000000
  70
    32
  0
VERTEX
  8
0
  5
231F
 10
212.850
 20
190.802
 30
0.000000
  70
    32
  0
VERTEX
  8
0
  5
2320
 10
212.818
 20
190.847
 30
0.000000
  70
    32
  0
VERTEX
  8
0
  5
2321
 10
212.786
 20
190.890
 30
0.000000
  70
    32
  0
VERTEX
  8
0
  5
2322
 10
212.753
 20
190.930
 30
0.000000
  70
    32
  0
VERTEX
  8
0
  5
2323
 10
212.720
 20
190.967
 30
0.000000
  70
    32
  0
VERTEX
  8
0
  5
2324
 10
212.685
 20
191.002
 30
0.000000
  70
    32
  0
VERTEX
  8
0
  5
2325
 10
212.650
 20
191.035
 30
0.000000
  70
    32
  0
VERTEX
  8
0
  5
2326
 10
212.615
 20
191.064
 30
0.000000
  70
    32
  0
VERTEX
  8
0
  5
2327
 10
212.579
 20
191.091
 30
0.000000
  70
    32
  0
VERTEX
  8
0
  5
2328
 10
212.542
 20
191.116
 30
0.000000
  70
    32
  0
VERTEX
  8
0
  5
2329
 10
212.505
 20
191.137
 30
0.000000
  70
    32
  0
VERTEX
  8
0
  5
232A
 10
212.468
 20
191.156
 30
0.000000
  70
    32
  0
VERTEX
  8
0
  5
232B
 10
212.430
 20
191.172
 30
0.000000
  70
    32
  0
VERTEX
  8
0
  5
232C
 10
212.392
 20
191.186
 30
0.000000
  70
    32
  0
VERTEX
  8
0
  5
232D
 10
212.354
 20
191.196
 30
0.000000
  70
    32
  0
VERTEX
  8
0
  5
232E
 10
212.316
 20
191.204
 30
0.000000
  70
    32
  0
VERTEX
  8
0
  5
232F
 10
212.277
 20
191.208
 30
0.000000
  70
    32
  0
VERTEX
  8
0
  5
2330
 10
212.239
 20
191.210
 30
0.000000
  70
    32
  0
VERTEX
  8
0
  5
2331
 10
212.200
 20
191.209
 30
0.000000
  70
    32
  0
VERTEX
  8
0
  5
2332
 10
212.162
 20
191.205
 30
0.000000
  70
    32
  0
VERTEX
  8
0
  5
2333
 10
212.124
 20
191.199
 30
0.000000
  70
    32
  0
VERTEX
  8
0
  5
2334
 10
212.085
 20
191.189
 30
0.000000
  70
    32
  0
VERTEX
  8
0
  5
2335
 10
212.047
 20
191.176
 30
0.000000
  70
    32
  0
VERTEX
  8
0
  5
2336
 10
212.010
 20
191.161
 30
0.000000
  70
    32
  0
VERTEX
  8
0
  5
2337
 10
211.972
 20
191.143
 30
0.000000
  70
    32
  0
VERTEX
  8
0
  5
2338
 10
211.935
 20
191.122
 30
0.000000
  70
    32
  0
VERTEX
  8
0
  5
2339
 10
211.898
 20
191.099
 30
0.000000
  70
    32
  0
VERTEX
  8
0
  5
233A
 10
211.862
 20
191.072
 30
0.000000
  70
    32
  0
VERTEX
  8
0
  5
233B
 10
211.826
 20
191.043
 30
0.000000
  70
    32
  0
VERTEX
  8
0
  5
233C
 10
211.791
 20
191.012
 30
0.000000
  70
    32
  0
VERTEX
  8
0
  5
233D
 10
211.757
 20
190.977
 30
0.000000
  70
    32
  0
VERTEX
  8
0
  5
233E
 10
211.723
 20
190.941
 30
0.000000
  70
    32
  0
VERTEX
  8
0
  5
233F
 10
211.690
 20
190.901
 30
0.000000
  70
    32
  0
VERTEX
  8
0
  5
2340
 10
211.657
 20
190.859
 30
0.000000
  70
    32
  0
VERTEX
  8
0
  5
2341
 10
211.626
 20
190.815
 30
0.000000
  70
    32
  0
VERTEX
  8
0
  5
2342
 10
211.595
 20
190.769
 30
0.000000
  70
    32
  0
VERTEX
  8
0
  5
2343
 10
211.565
 20
190.720
 30
0.000000
  70
    32
  0
VERTEX
  8
0
  5
2344
 10
211.536
 20
190.669
 30
0.000000
  70
    32
  0
VERTEX
  8
0
  5
2345
 10
211.508
 20
190.616
 30
0.000000
  70
    32
  0
VERTEX
  8
0
  5
2346
 10
211.481
 20
190.561
 30
0.000000
  70
    32
  0
SEQEND
  8
0
  5
2347
  0
CIRCLE
  5
1F43
  8
0
 10
197.8362456264615
 20
276.64323645759242
 30
0.0
 40
20.0
  0
POLYLINE
  5
1F4C
  8
0
 10
288.58624562646162
 20
184.89233099816241
 30
0.0
 66
     1
 70
     8
  0
VERTEX
  8
0
  5
2348
 10
288.586
 20
184.892
 30
0.000000
  70
    32
  0
VERTEX
  8
0
  5
2349
 10
288.502
 20
184.894
 30
0.000000
  70
    32
  0
VERTEX
  8
0
  5
234A
 10
288.418
 20
184.897
 30
0.000000
  70
    32
  0
VERTEX
  8
0
  5
234B
 10
288.334
 20
184.904
 30
0.000000
  70
    32
  0
VERTEX
  8
0
  5
234C
 10
288.250
 20
184.913
 30
0.000000
  70
    32
  0
VERTEX
  8
0
  5
234D
 10
288.166
 20
184.924
 30
0.000000
  70
    32
  0
VERTEX
  8
0
  5
234E
 10
288.082
 20
184.938
 30
0.000000
  70
    32
  0
VERTEX
  8
0
  5
234F
 10
287.999
 20
184.955
 30
0.000000
  70
    32
  0
VERTEX
  8
0
  5
2350
 10
287.916
 20
184.974
 30
0.000000
  70
    32
  0
VERTEX
  8
0
  5
2351
 10
287.834
 20
184.996
 30
0.000000
  70
    32
  0
VERTEX
  8
0
  5
2352
 10
287.752
 20
185.020
 30
0.000000
  70
    32
  0
VERTEX
  8
0
  5
2353
 10
287.671
 20
185.046
 30
0.000000
  70
    32
  0
VERTEX
  8
0
  5
2354
 10
287.590
 20
185.075
 30
0.000000
  70
    32
  0
VERTEX
  8
0
  5
2355
 10
287.509
 20
185.107
 30
0.000000
  70
    32
  0
VERTEX
  8
0
  5
2356
 10
287.430
 20
185.141
 30
0.000000
  70
    32
  0
VERTEX
  8
0
  5
2357
 10
287.351
 20
185.177
 30
0.000000
  70
    32
  0
VERTEX
  8
0
  5
2358
 10
287.272
 20
185.216
 30
0.000000
  70
    32
  0
VERTEX
  8
0
  5
2359
 10
287.195
 20
185.257
 30
0.000000
  70
    32
  0
VERTEX
  8
0
  5
235A
 10
287.118
 20
185.300
 30
0.000000
  70
    32
  0
VERTEX
  8
0
  5
235B
 10
287.043
 20
185.346
 30
0.000000
  70
    32
  0
VERTEX
  8
0
  5
235C
 10
286.968
 20
185.394
 30
0.000000
  70
    32
  0
VERTEX
  8
0
  5
235D
 10
286.894
 20
185.444
 30
0.000000
  70
    32
  0
VERTEX
  8
0
  5
235E
 10
286.821
 20
185.497
 30
0.000000
  70
    32
  0
VERTEX
  8
0
  5
235F
 10
286.749
 20
185.552
 30
0.000000
  70
    32
  0
VERTEX
  8
0
  5
2360
 10
286.679
 20
185.609
 30
0.000000
  70
    32
  0
VERTEX
  8
0
  5
2361
 10
286.609
 20
185.668
 30
0.000000
  70
    32
  0
VERTEX
  8
0
  5
2362
 10
286.541
 20
185.729
 30
0.000000
  70
    32
  0
VERTEX
  8
0
  5
2363
 10
286.474
 20
185.792
 30
0.000000
  70
    32
  0
VERTEX
  8
0
  5
2364
 10
286.408
 20
185.857
 30
0.000000
  70
    32
  0
VERTEX
  8
0
  5
2365
 10
286.344
 20
185.924
 30
0.000000
  70
    32
  0
VERTEX
  8
0
  5
2366
 10
286.281
 20
185.993
 30
0.000000
  70
    32
  0
VERTEX
  8
0
  5
2367
 10
286.219
 20
186.064
 30
0.000000
  70
    32
  0
VERTEX
  8
0
  5
2368
 10
286.159
 20
186.137
 30
0.000000
  70
    32
  0
VERTEX
  8
0
  5
2369
 10
286.100
 20
186.212
 30
0.000000
  70
    32
  0
VERTEX
  8
0
  5
236A
 10
286.042
 20
186.288
 30
0.000000
  70
    32
  0
VERTEX
  8
0
  5
236B
 10
285.987
 20
186.366
 30
0.000000
  70
    32
  0
VERTEX
  8
0
  5
236C
 10
285.932
 20
186.446
 30
0.000000
  70
    32
  0
VERTEX
  8
0
  5
236D
 10
285.880
 20
186.528
 30
0.000000
  70
    32
  0
VERTEX
  8
0
  5
236E
 10
285.829
 20
186.611
 30
0.000000
  70
    32
  0
VERTEX
  8
0
  5
236F
 10
285.779
 20
186.695
 30
0.000000
  70
    32
  0
VERTEX
  8
0
  5
2370
 10
285.732
 20
186.781
 30
0.000000
  70
    32
  0
VERTEX
  8
0
  5
2371
 10
285.686
 20
186.869
 30
0.000000
  70
    32
  0
VERTEX
  8
0
  5
2372
 10
285.641
 20
186.957
 30
0.000000
  70
    32
  0
VERTEX
  8
0
  5
2373
 10
285.599
 20
187.048
 30
0.000000
  70
    32
  0
VERTEX
  8
0
  5
2374
 10
285.558
 20
187.139
 30
0.000000
  70
    32
  0
VERTEX
  8
0
  5
2375
 10
285.520
 20
187.231
 30
0.000000
  70
    32
  0
VERTEX
  8
0
  5
2376
 10
285.483
 20
187.325
 30
0.000000
  70
    32
  0
VERTEX
  8
0
  5
2377
 10
285.448
 20
187.420
 30
0.000000
  70
    32
  0
VERTEX
  8
0
  5
2378
 10
285.414
 20
187.516
 30
0.000000
  70
    32
  0
VERTEX
  8
0
  5
2379
 10
285.383
 20
187.613
 30
0.000000
  70
    32
  0
VERTEX
  8
0
  5
237A
 10
285.354
 20
187.711
 30
0.000000
  70
    32
  0
VERTEX
  8
0
  5
237B
 10
285.326
 20
187.809
 30
0.000000
  70
    32
  0
VERTEX
  8
0
  5
237C
 10
285.301
 20
187.909
 30
0.000000
  70
    32
  0
VERTEX
  8
0
  5
237D
 10
285.277
 20
188.009
 30
0.000000
  70
    32
  0
VERTEX
  8
0
  5
237E
 10
285.256
 20
188.110
 30
0.000000
  70
    32
  0
VERTEX
  8
0
  5
237F
 10
285.236
 20
188.211
 30
0.000000
  70
    32
  0
VERTEX
  8
0
  5
2380
 10
285.219
 20
188.313
 30
0.000000
  70
    32
  0
VERTEX
  8
0
  5
2381
 10
285.204
 20
188.416
 30
0.000000
  70
    32
  0
VERTEX
  8
0
  5
2382
 10
285.190
 20
188.519
 30
0.000000
  70
    32
  0
VERTEX
  8
0
  5
2383
 10
285.179
 20
188.622
 30
0.000000
  70
    32
  0
VERTEX
  8
0
  5
2384
 10
285.170
 20
188.726
 30
0.000000
  70
    32
  0
VERTEX
  8
0
  5
2385
 10
285.162
 20
188.830
 30
0.000000
  70
    32
  0
VERTEX
  8
0
  5
2386
 10
285.157
 20
188.934
 30
0.000000
  70
    32
  0
VERTEX
  8
0
  5
2387
 10
285.154
 20
189.038
 30
0.000000
  70
    32
  0
VERTEX
  8
0
  5
2388
 10
285.153
 20
189.142
 30
0.000000
  70
    32
  0
VERTEX
  8
0
  5
2389
 10
285.154
 20
189.247
 30
0.000000
  70
    32
  0
VERTEX
  8
0
  5
238A
 10
285.157
 20
189.351
 30
0.000000
  70
    32
  0
VERTEX
  8
0
  5
238B
 10
285.162
 20
189.455
 30
0.000000
  70
    32
  0
VERTEX
  8
0
  5
238C
 10
285.170
 20
189.559
 30
0.000000
  70
    32
  0
VERTEX
  8
0
  5
238D
 10
285.179
 20
189.663
 30
0.000000
  70
    32
  0
VERTEX
  8
0
  5
238E
 10
285.190
 20
189.766
 30
0.000000
  70
    32
  0
VERTEX
  8
0
  5
238F
 10
285.204
 20
189.869
 30
0.000000
  70
    32
  0
VERTEX
  8
0
  5
2390
 10
285.219
 20
189.971
 30
0.000000
  70
    32
  0
VERTEX
  8
0
  5
2391
 10
285.236
 20
190.074
 30
0.000000
  70
    32
  0
VERTEX
  8
0
  5
2392
 10
285.256
 20
190.175
 30
0.000000
  70
    32
  0
VERTEX
  8
0
  5
2393
 10
285.277
 20
190.276
 30
0.000000
  70
    32
  0
VERTEX
  8
0
  5
2394
 10
285.301
 20
190.376
 30
0.000000
  70
    32
  0
VERTEX
  8
0
  5
2395
 10
285.326
 20
190.475
 30
0.000000
  70
    32
  0
VERTEX
  8
0
  5
2396
 10
285.354
 20
190.574
 30
0.000000
  70
    32
  0
VERTEX
  8
0
  5
2397
 10
285.383
 20
190.672
 30
0.000000
  70
    32
  0
VERTEX
  8
0
  5
2398
 10
285.414
 20
190.769
 30
0.000000
  70
    32
  0
VERTEX
  8
0
  5
2399
 10
285.448
 20
190.865
 30
0.000000
  70
    32
  0
VERTEX
  8
0
  5
239A
 10
285.483
 20
190.959
 30
0.000000
  70
    32
  0
VERTEX
  8
0
  5
239B
 10
285.520
 20
191.053
 30
0.000000
  70
    32
  0
VERTEX
  8
0
  5
239C
 10
285.558
 20
191.146
 30
0.000000
  70
    32
  0
VERTEX
  8
0
  5
239D
 10
285.599
 20
191.237
 30
0.000000
  70
    32
  0
VERTEX
  8
0
  5
239E
 10
285.641
 20
191.327
 30
0.000000
  70
    32
  0
VERTEX
  8
0
  5
239F
 10
285.686
 20
191.416
 30
0.000000
  70
    32
  0
VERTEX
  8
0
  5
23A0
 10
285.732
 20
191.504
 30
0.000000
  70
    32
  0
VERTEX
  8
0
  5
23A1
 10
285.779
 20
191.590
 30
0.000000
  70
    32
  0
VERTEX
  8
0
  5
23A2
 10
285.829
 20
191.674
 30
0.000000
  70
    32
  0
VERTEX
  8
0
  5
23A3
 10
285.880
 20
191.757
 30
0.000000
  70
    32
  0
VERTEX
  8
0
  5
23A4
 10
285.932
 20
191.839
 30
0.000000
  70
    32
  0
VERTEX
  8
0
  5
23A5
 10
285.987
 20
191.918
 30
0.000000
  70
    32
  0
VERTEX
  8
0
  5
23A6
 10
286.042
 20
191.996
 30
0.000000
  70
    32
  0
VERTEX
  8
0
  5
23A7
 10
286.100
 20
192.073
 30
0.000000
  70
    32
  0
VERTEX
  8
0
  5
23A8
 10
286.159
 20
192.148
 30
0.000000
  70
    32
  0
VERTEX
  8
0
  5
23A9
 10
286.219
 20
192.220
 30
0.000000
  70
    32
  0
VERTEX
  8
0
  5
23AA
 10
286.281
 20
192.291
 30
0.000000
  70
    32
  0
VERTEX
  8
0
  5
23AB
 10
286.344
 20
192.360
 30
0.000000
  70
    32
  0
VERTEX
  8
0
  5
23AC
 10
286.408
 20
192.428
 30
0.000000
  70
    32
  0
VERTEX
  8
0
  5
23AD
 10
286.474
 20
192.493
 30
0.000000
  70
    32
  0
VERTEX
  8
0
  5
23AE
 10
286.541
 20
192.556
 30
0.000000
  70
    32
  0
VERTEX
  8
0
  5
23AF
 10
286.609
 20
192.617
 30
0.000000
  70
    32
  0
VERTEX
  8
0
  5
23B0
 10
286.679
 20
192.676
 30
0.000000
  70
    32
  0
VERTEX
  8
0
  5
23B1
 10
286.749
 20
192.733
 30
0.000000
  70
    32
  0
VERTEX
  8
0
  5
23B2
 10
286.821
 20
192.788
 30
0.000000
  70
    32
  0
VERTEX
  8
0
  5
23B3
 10
286.894
 20
192.840
 30
0.000000
  70
    32
  0
VERTEX
  8
0
  5
23B4
 10
286.968
 20
192.890
 30
0.000000
  70
    32
  0
VERTEX
  8
0
  5
23B5
 10
287.043
 20
192.939
 30
0.000000
  70
    32
  0
VERTEX
  8
0
  5
23B6
 10
287.118
 20
192.984
 30
0.000000
  70
    32
  0
VERTEX
  8
0
  5
23B7
 10
287.195
 20
193.028
 30
0.000000
  70
    32
  0
VERTEX
  8
0
  5
23B8
 10
287.272
 20
193.069
 30
0.000000
  70
    32
  0
VERTEX
  8
0
  5
23B9
 10
287.351
 20
193.108
 30
0.000000
  70
    32
  0
VERTEX
  8
0
  5
23BA
 10
287.430
 20
193.144
 30
0.000000
  70
    32
  0
VERTEX
  8
0
  5
23BB
 10
287.509
 20
193.178
 30
0.000000
  70
    32
  0
VERTEX
  8
0
  5
23BC
 10
287.590
 20
193.209
 30
0.000000
  70
    32
  0
VERTEX
  8
0
  5
23BD
 10
287.671
 20
193.238
 30
0.000000
  70
    32
  0
VERTEX
  8
0
  5
23BE
 10
287.752
 20
193.265
 30
0.000000
  70
    32
  0
VERTEX
  8
0
  5
23BF
 10
287.834
 20
193.289
 30
0.000000
  70
    32
  0
VERTEX
  8
0
  5
23C0
 10
287.916
 20
193.311
 30
0.000000
  70
    32
  0
VERTEX
  8
0
  5
23C1
 10
287.999
 20
193.330
 30
0.000000
  70
    32
  0
VERTEX
  8
0
  5
23C2
 10
288.082
 20
193.346
 30
0.000000
  70
    32
  0
VERTEX
  8
0
  5
23C3
 10
288.166
 20
193.360
 30
0.000000
  70
    32
  0
VERTEX
  8
0
  5
23C4
 10
288.250
 20
193.372
 30
0.000000
  70
    32
  0
VERTEX
  8
0
  5
23C5
 10
288.334
 20
193.381
 30
0.000000
  70
    32
  0
VERTEX
  8
0
  5
23C6
 10
288.418
 20
193.387
 30
0.000000
  70
    32
  0
VERTEX
  8
0
  5
23C7
 10
288.502
 20
193.391
 30
0.000000
  70
    32
  0
VERTEX
  8
0
  5
23C8
 10
288.586
 20
193.392
 30
0.000000
  70
    32
  0
SEQEND
  8
0
  5
23C9
  0
POLYLINE
  5
1F4D
  8
0
 10
288.58624562646162
 20
193.39233099816241
 30
0.0
 66
     1
 70
     8
  0
VERTEX
  8
0
  5
23CA
 10
288.586
 20
193.392
 30
0.000000
  70
    32
  0
VERTEX
  8
0
  5
23CB
 10
288.683
 20
193.391
 30
0.000000
  70
    32
  0
VERTEX
  8
0
  5
23CC
 10
288.779
 20
193.387
 30
0.000000
  70
    32
  0
VERTEX
  8
0
  5
23CD
 10
288.875
 20
193.381
 30
0.000000
  70
    32
  0
VERTEX
  8
0
  5
23CE
 10
288.971
 20
193.372
 30
0.000000
  70
    32
  0
VERTEX
  8
0
  5
23CF
 10
289.067
 20
193.360
 30
0.000000
  70
    32
  0
VERTEX
  8
0
  5
23D0
 10
289.162
 20
193.346
 30
0.000000
  70
    32
  0
VERTEX
  8
0
  5
23D1
 10
289.258
 20
193.330
 30
0.000000
  70
    32
  0
VERTEX
  8
0
  5
23D2
 10
289.352
 20
193.311
 30
0.000000
  70
    32
  0
VERTEX
  8
0
  5
23D3
 10
289.447
 20
193.289
 30
0.000000
  70
    32
  0
VERTEX
  8
0
  5
23D4
 10
289.540
 20
193.265
 30
0.000000
  70
    32
  0
VERTEX
  8
0
  5
23D5
 10
289.634
 20
193.238
 30
0.000000
  70
    32
  0
VERTEX
  8
0
  5
23D6
 10
289.726
 20
193.209
 30
0.000000
  70
    32
  0
VERTEX
  8
0
  5
23D7
 10
289.818
 20
193.178
 30
0.000000
  70
    32
  0
VERTEX
  8
0
  5
23D8
 10
289.909
 20
193.144
 30
0.000000
  70
    32
  0
VERTEX
  8
0
  5
23D9
 10
289.999
 20
193.108
 30
0.000000
  70
    32
  0
VERTEX
  8
0
  5
23DA
 10
290.089
 20
193.069
 30
0.000000
  70
    32
  0
VERTEX
  8
0
  5
23DB
 10
290.178
 20
193.028
 30
0.000000
  70
    32
  0
VERTEX
  8
0
  5
23DC
 10
290.265
 20
192.984
 30
0.000000
  70
    32
  0
VERTEX
  8
0
  5
23DD
 10
290.352
 20
192.939
 30
0.000000
  70
    32
  0
VERTEX
  8
0
  5
23DE
 10
290.437
 20
192.890
 30
0.000000
  70
    32
  0
VERTEX
  8
0
  5
23DF
 10
290.522
 20
192.840
 30
0.000000
  70
    32
  0
VERTEX
  8
0
  5
23E0
 10
290.605
 20
192.788
 30
0.000000
  70
    32
  0
VERTEX
  8
0
  5
23E1
 10
290.687
 20
192.733
 30
0.000000
  70
    32
  0
VERTEX
  8
0
  5
23E2
 10
290.768
 20
192.676
 30
0.000000
  70
    32
  0
VERTEX
  8
0
  5
23E3
 10
290.847
 20
192.617
 30
0.000000
  70
    32
  0
VERTEX
  8
0
  5
23E4
 10
290.925
 20
192.556
 30
0.000000
  70
    32
  0
VERTEX
  8
0
  5
23E5
 10
291.002
 20
192.493
 30
0.000000
  70
    32
  0
VERTEX
  8
0
  5
23E6
 10
291.077
 20
192.428
 30
0.000000
  70
    32
  0
VERTEX
  8
0
  5
23E7
 10
291.151
 20
192.360
 30
0.000000
  70
    32
  0
VERTEX
  8
0
  5
23E8
 10
291.223
 20
192.291
 30
0.000000
  70
    32
  0
VERTEX
  8
0
  5
23E9
 10
291.294
 20
192.220
 30
0.000000
  70
    32
  0
VERTEX
  8
0
  5
23EA
 10
291.363
 20
192.148
 30
0.000000
  70
    32
  0
VERTEX
  8
0
  5
23EB
 10
291.430
 20
192.073
 30
0.000000
  70
    32
  0
VERTEX
  8
0
  5
23EC
 10
291.496
 20
191.996
 30
0.000000
  70
    32
  0
VERTEX
  8
0
  5
23ED
 10
291.560
 20
191.918
 30
0.000000
  70
    32
  0
VERTEX
  8
0
  5
23EE
 10
291.622
 20
191.839
 30
0.000000
  70
    32
  0
VERTEX
  8
0
  5
23EF
 10
291.682
 20
191.757
 30
0.000000
  70
    32
  0
VERTEX
  8
0
  5
23F0
 10
291.740
 20
191.674
 30
0.000000
  70
    32
  0
VERTEX
  8
0
  5
23F1
 10
291.797
 20
191.590
 30
0.000000
  70
    32
  0
VERTEX
  8
0
  5
23F2
 10
291.851
 20
191.504
 30
0.000000
  70
    32
  0
VERTEX
  8
0
  5
23F3
 10
291.904
 20
191.416
 30
0.000000
  70
    32
  0
VERTEX
  8
0
  5
23F4
 10
291.954
 20
191.327
 30
0.000000
  70
    32
  0
VERTEX
  8
0
  5
23F5
 10
292.003
 20
191.237
 30
0.000000
  70
    32
  0
VERTEX
  8
0
  5
23F6
 10
292.049
 20
191.146
 30
0.000000
  70
    32
  0
VERTEX
  8
0
  5
23F7
 10
292.094
 20
191.053
 30
0.000000
  70
    32
  0
VERTEX
  8
0
  5
23F8
 10
292.136
 20
190.959
 30
0.000000
  70
    32
  0
VERTEX
  8
0
  5
23F9
 10
292.176
 20
190.865
 30
0.000000
  70
    32
  0
VERTEX
  8
0
  5
23FA
 10
292.214
 20
190.769
 30
0.000000
  70
    32
  0
VERTEX
  8
0
  5
23FB
 10
292.250
 20
190.672
 30
0.000000
  70
    32
  0
VERTEX
  8
0
  5
23FC
 10
292.283
 20
190.574
 30
0.000000
  70
    32
  0
VERTEX
  8
0
  5
23FD
 10
292.315
 20
190.475
 30
0.000000
  70
    32
  0
VERTEX
  8
0
  5
23FE
 10
292.344
 20
190.376
 30
0.000000
  70
    32
  0
VERTEX
  8
0
  5
23FF
 10
292.371
 20
190.276
 30
0.000000
  70
    32
  0
VERTEX
  8
0
  5
2400
 10
292.395
 20
190.175
 30
0.000000
  70
    32
  0
VERTEX
  8
0
  5
2401
 10
292.418
 20
190.074
 30
0.000000
  70
    32
  0
VERTEX
  8
0
  5
2402
 10
292.438
 20
189.971
 30
0.000000
  70
    32
  0
VERTEX
  8
0
  5
2403
 10
292.455
 20
189.869
 30
0.000000
  70
    32
  0
VERTEX
  8
0
  5
2404
 10
292.470
 20
189.766
 30
0.000000
  70
    32
  0
VERTEX
  8
0
  5
2405
 10
292.483
 20
189.663
 30
0.000000
  70
    32
  0
VERTEX
  8
0
  5
2406
 10
292.494
 20
189.559
 30
0.000000
  70
    32
  0
VERTEX
  8
0
  5
2407
 10
292.502
 20
189.455
 30
0.000000
  70
    32
  0
VERTEX
  8
0
  5
2408
 10
292.508
 20
189.351
 30
0.000000
  70
    32
  0
VERTEX
  8
0
  5
2409
 10
292.512
 20
189.247
 30
0.000000
  70
    32
  0
VERTEX
  8
0
  5
240A
 10
292.513
 20
189.142
 30
0.000000
  70
    32
  0
VERTEX
  8
0
  5
240B
 10
292.512
 20
189.038
 30
0.000000
  70
    32
  0
VERTEX
  8
0
  5
240C
 10
292.508
 20
188.934
 30
0.000000
  70
    32
  0
VERTEX
  8
0
  5
240D
 10
292.502
 20
188.830
 30
0.000000
  70
    32
  0
VERTEX
  8
0
  5
240E
 10
292.494
 20
188.726
 30
0.000000
  70
    32
  0
VERTEX
  8
0
  5
240F
 10
292.483
 20
188.622
 30
0.000000
  70
    32
  0
VERTEX
  8
0
  5
2410
 10
292.470
 20
188.519
 30
0.000000
  70
    32
  0
VERTEX
  8
0
  5
2411
 10
292.455
 20
188.416
 30
0.000000
  70
    32
  0
VERTEX
  8
0
  5
2412
 10
292.438
 20
188.313
 30
0.000000
  70
    32
  0
VERTEX
  8
0
  5
2413
 10
292.418
 20
188.211
 30
0.000000
  70
    32
  0
VERTEX
  8
0
  5
2414
 10
292.395
 20
188.110
 30
0.000000
  70
    32
  0
VERTEX
  8
0
  5
2415
 10
292.371
 20
188.009
 30
0.000000
  70
    32
  0
VERTEX
  8
0
  5
2416
 10
292.344
 20
187.909
 30
0.000000
  70
    32
  0
VERTEX
  8
0
  5
2417
 10
292.315
 20
187.809
 30
0.000000
  70
    32
  0
VERTEX
  8
0
  5
2418
 10
292.283
 20
187.711
 30
0.000000
  70
    32
  0
VERTEX
  8
0
  5
2419
 10
292.250
 20
187.613
 30
0.000000
  70
    32
  0
VERTEX
  8
0
  5
241A
 10
292.214
 20
187.516
 30
0.000000
  70
    32
  0
VERTEX
  8
0
  5
241B
 10
292.176
 20
187.420
 30
0.000000
  70
    32
  0
VERTEX
  8
0
  5
241C
 10
292.136
 20
187.325
 30
0.000000
  70
    32
  0
VERTEX
  8
0
  5
241D
 10
292.094
 20
187.231
 30
0.000000
  70
    32
  0
VERTEX
  8
0
  5
241E
 10
292.049
 20
187.139
 30
0.000000
  70
    32
  0
VERTEX
  8
0
  5
241F
 10
292.003
 20
187.048
 30
0.000000
  70
    32
  0
VERTEX
  8
0
  5
2420
 10
291.954
 20
186.957
 30
0.000000
  70
    32
  0
VERTEX
  8
0
  5
2421
 10
291.904
 20
186.869
 30
0.000000
  70
    32
  0
VERTEX
  8
0
  5
2422
 10
291.851
 20
186.781
 30
0.000000
  70
    32
  0
VERTEX
  8
0
  5
2423
 10
291.797
 20
186.695
 30
0.000000
  70
    32
  0
VERTEX
  8
0
  5
2424
 10
291.740
 20
186.611
 30
0.000000
  70
    32
  0
VERTEX
  8
0
  5
2425
 10
291.682
 20
186.528
 30
0.000000
  70
    32
  0
VERTEX
  8
0
  5
2426
 10
291.622
 20
186.446
 30
0.000000
  70
    32
  0
VERTEX
  8
0
  5
2427
 10
291.560
 20
186.366
 30
0.000000
  70
    32
  0
VERTEX
  8
0
  5
2428
 10
291.496
 20
186.288
 30
0.000000
  70
    32
  0
VERTEX
  8
0
  5
2429
 10
291.430
 20
186.212
 30
0.000000
  70
    32
  0
VERTEX
  8
0
  5
242A
 10
291.363
 20
186.137
 30
0.000000
  70
    32
  0
VERTEX
  8
0
  5
242B
 10
291.294
 20
186.064
 30
0.000000
  70
    32
  0
VERTEX
  8
0
  5
242C
 10
291.223
 20
185.993
 30
0.000000
  70
    32
  0
VERTEX
  8
0
  5
242D
 10
291.151
 20
185.924
 30
0.000000
  70
    32
  0
VERTEX
  8
0
  5
242E
 10
291.077
 20
185.857
 30
0.000000
  70
    32
  0
VERTEX
  8
0
  5
242F
 10
291.002
 20
185.792
 30
0.000000
  70
    32
  0
VERTEX
  8
0
  5
2430
 10
290.925
 20
185.729
 30
0.000000
  70
    32
  0
VERTEX
  8
0
  5
2431
 10
290.847
 20
185.668
 30
0.000000
  70
    32
  0
VERTEX
  8
0
  5
2432
 10
290.768
 20
185.609
 30
0.000000
  70
    32
  0
VERTEX
  8
0
  5
2433
 10
290.687
 20
185.552
 30
0.000000
  70
    32
  0
VERTEX
  8
0
  5
2434
 10
290.605
 20
185.497
 30
0.000000
  70
    32
  0
VERTEX
  8
0
  5
2435
 10
290.522
 20
185.444
 30
0.000000
  70
    32
  0
VERTEX
  8
0
  5
2436
 10
290.437
 20
185.394
 30
0.000000
  70
    32
  0
VERTEX
  8
0
  5
2437
 10
290.352
 20
185.346
 30
0.000000
  70
    32
  0
VERTEX
  8
0
  5
2438
 10
290.265
 20
185.300
 30
0.000000
  70
    32
  0
VERTEX
  8
0
  5
2439
 10
290.178
 20
185.257
 30
0.000000
  70
    32
  0
VERTEX
  8
0
  5
243A
 10
290.089
 20
185.216
 30
0.000000
  70
    32
  0
VERTEX
  8
0
  5
243B
 10
289.999
 20
185.177
 30
0.000000
  70
    32
  0
VERTEX
  8
0
  5
243C
 10
289.909
 20
185.141
 30
0.000000
  70
    32
  0
VERTEX
  8
0
  5
243D
 10
289.818
 20
185.107
 30
0.000000
  70
    32
  0
VERTEX
  8
0
  5
243E
 10
289.726
 20
185.075
 30
0.000000
  70
    32
  0
VERTEX
  8
0
  5
243F
 10
289.634
 20
185.046
 30
0.000000
  70
    32
  0
VERTEX
  8
0
  5
2440
 10
289.540
 20
185.020
 30
0.000000
  70
    32
  0
VERTEX
  8
0
  5
2441
 10
289.447
 20
184.996
 30
0.000000
  70
    32
  0
VERTEX
  8
0
  5
2442
 10
289.352
 20
184.974
 30
0.000000
  70
    32
  0
VERTEX
  8
0
  5
2443
 10
289.258
 20
184.955
 30
0.000000
  70
    32
  0
VERTEX
  8
0
  5
2444
 10
289.162
 20
184.938
 30
0.000000
  70
    32
  0
VERTEX
  8
0
  5
2445
 10
289.067
 20
184.924
 30
0.000000
  70
    32
  0
VERTEX
  8
0
  5
2446
 10
288.971
 20
184.913
 30
0.000000
  70
    32
  0
VERTEX
  8
0
  5
2447
 10
288.875
 20
184.904
 30
0.000000
  70
    32
  0
VERTEX
  8
0
  5
2448
 10
288.779
 20
184.897
 30
0.000000
  70
    32
  0
VERTEX
  8
0
  5
2449
 10
288.683
 20
184.894
 30
0.000000
  70
    32
  0
VERTEX
  8
0
  5
244A
 10
288.586
 20
184.892
 30
0.000000
  70
    32
  0
SEQEND
  8
0
  5
244B
  0
POLYLINE
  5
1F4E
  8
3
 10
289.08624556712476
 20
186.64233099816244
 30
0.0
 66
     1
 70
     8
  0
VERTEX
  8
3
  5
244C
 10
289.086
 20
186.642
 30
0.000000
  70
    32
  0
VERTEX
  8
3
  5
244D
 10
289.040
 20
186.643
 30
0.000000
  70
    32
  0
VERTEX
  8
3
  5
244E
 10
288.995
 20
186.645
 30
0.000000
  70
    32
  0
VERTEX
  8
3
  5
244F
 10
288.949
 20
186.649
 30
0.000000
  70
    32
  0
VERTEX
  8
3
  5
2450
 10
288.903
 20
186.654
 30
0.000000
  70
    32
  0
VERTEX
  8
3
  5
2451
 10
288.858
 20
186.661
 30
0.000000
  70
    32
  0
VERTEX
  8
3
  5
2452
 10
288.812
 20
186.669
 30
0.000000
  70
    32
  0
VERTEX
  8
3
  5
2453
 10
288.767
 20
186.679
 30
0.000000
  70
    32
  0
VERTEX
  8
3
  5
2454
 10
288.722
 20
186.690
 30
0.000000
  70
    32
  0
VERTEX
  8
3
  5
2455
 10
288.677
 20
186.703
 30
0.000000
  70
    32
  0
VERTEX
  8
3
  5
2456
 10
288.632
 20
186.717
 30
0.000000
  70
    32
  0
VERTEX
  8
3
  5
2457
 10
288.588
 20
186.733
 30
0.000000
  70
    32
  0
VERTEX
  8
3
  5
2458
 10
288.544
 20
186.750
 30
0.000000
  70
    32
  0
VERTEX
  8
3
  5
2459
 10
288.500
 20
186.769
 30
0.000000
  70
    32
  0
VERTEX
  8
3
  5
245A
 10
288.457
 20
186.788
 30
0.000000
  70
    32
  0
VERTEX
  8
3
  5
245B
 10
288.414
 20
186.810
 30
0.000000
  70
    32
  0
VERTEX
  8
3
  5
245C
 10
288.371
 20
186.833
 30
0.000000
  70
    32
  0
VERTEX
  8
3
  5
245D
 10
288.329
 20
186.857
 30
0.000000
  70
    32
  0
VERTEX
  8
3
  5
245E
 10
288.287
 20
186.882
 30
0.000000
  70
    32
  0
VERTEX
  8
3
  5
245F
 10
288.246
 20
186.909
 30
0.000000
  70
    32
  0
VERTEX
  8
3
  5
2460
 10
288.206
 20
186.938
 30
0.000000
  70
    32
  0
VERTEX
  8
3
  5
2461
 10
288.165
 20
186.967
 30
0.000000
  70
    32
  0
VERTEX
  8
3
  5
2462
 10
288.126
 20
186.998
 30
0.000000
  70
    32
  0
VERTEX
  8
3
  5
2463
 10
288.087
 20
187.030
 30
0.000000
  70
    32
  0
VERTEX
  8
3
  5
2464
 10
288.048
 20
187.064
 30
0.000000
  70
    32
  0
VERTEX
  8
3
  5
2465
 10
288.011
 20
187.098
 30
0.000000
  70
    32
  0
VERTEX
  8
3
  5
2466
 10
287.973
 20
187.134
 30
0.000000
  70
    32
  0
VERTEX
  8
3
  5
2467
 10
287.937
 20
187.171
 30
0.000000
  70
    32
  0
VERTEX
  8
3
  5
2468
 10
287.901
 20
187.210
 30
0.000000
  70
    32
  0
VERTEX
  8
3
  5
2469
 10
287.866
 20
187.249
 30
0.000000
  70
    32
  0
VERTEX
  8
3
  5
246A
 10
287.832
 20
187.290
 30
0.000000
  70
    32
  0
VERTEX
  8
3
  5
246B
 10
287.798
 20
187.332
 30
0.000000
  70
    32
  0
VERTEX
  8
3
  5
246C
 10
287.765
 20
187.375
 30
0.000000
  70
    32
  0
VERTEX
  8
3
  5
246D
 10
287.733
 20
187.418
 30
0.000000
  70
    32
  0
VERTEX
  8
3
  5
246E
 10
287.702
 20
187.463
 30
0.000000
  70
    32
  0
VERTEX
  8
3
  5
246F
 10
287.672
 20
187.509
 30
0.000000
  70
    32
  0
VERTEX
  8
3
  5
2470
 10
287.642
 20
187.556
 30
0.000000
  70
    32
  0
VERTEX
  8
3
  5
2471
 10
287.613
 20
187.604
 30
0.000000
  70
    32
  0
VERTEX
  8
3
  5
2472
 10
287.586
 20
187.653
 30
0.000000
  70
    32
  0
VERTEX
  8
3
  5
2473
 10
287.559
 20
187.703
 30
0.000000
  70
    32
  0
VERTEX
  8
3
  5
2474
 10
287.533
 20
187.753
 30
0.000000
  70
    32
  0
VERTEX
  8
3
  5
2475
 10
287.508
 20
187.805
 30
0.000000
  70
    32
  0
VERTEX
  8
3
  5
2476
 10
287.484
 20
187.857
 30
0.000000
  70
    32
  0
VERTEX
  8
3
  5
2477
 10
287.461
 20
187.910
 30
0.000000
  70
    32
  0
VERTEX
  8
3
  5
2478
 10
287.439
 20
187.964
 30
0.000000
  70
    32
  0
VERTEX
  8
3
  5
2479
 10
287.418
 20
188.018
 30
0.000000
  70
    32
  0
VERTEX
  8
3
  5
247A
 10
287.397
 20
188.073
 30
0.000000
  70
    32
  0
VERTEX
  8
3
  5
247B
 10
287.378
 20
188.129
 30
0.000000
  70
    32
  0
VERTEX
  8
3
  5
247C
 10
287.360
 20
188.186
 30
0.000000
  70
    32
  0
VERTEX
  8
3
  5
247D
 10
287.343
 20
188.243
 30
0.000000
  70
    32
  0
VERTEX
  8
3
  5
247E
 10
287.327
 20
188.300
 30
0.000000
  70
    32
  0
VERTEX
  8
3
  5
247F
 10
287.312
 20
188.358
 30
0.000000
  70
    32
  0
VERTEX
  8
3
  5
2480
 10
287.298
 20
188.417
 30
0.000000
  70
    32
  0
VERTEX
  8
3
  5
2481
 10
287.286
 20
188.476
 30
0.000000
  70
    32
  0
VERTEX
  8
3
  5
2482
 10
287.274
 20
188.535
 30
0.000000
  70
    32
  0
VERTEX
  8
3
  5
2483
 10
287.263
 20
188.595
 30
0.000000
  70
    32
  0
VERTEX
  8
3
  5
2484
 10
287.254
 20
188.655
 30
0.000000
  70
    32
  0
VERTEX
  8
3
  5
2485
 10
287.246
 20
188.715
 30
0.000000
  70
    32
  0
VERTEX
  8
3
  5
2486
 10
287.238
 20
188.776
 30
0.000000
  70
    32
  0
VERTEX
  8
3
  5
2487
 10
287.232
 20
188.836
 30
0.000000
  70
    32
  0
VERTEX
  8
3
  5
2488
 10
287.227
 20
188.897
 30
0.000000
  70
    32
  0
VERTEX
  8
3
  5
2489
 10
287.223
 20
188.958
 30
0.000000
  70
    32
  0
VERTEX
  8
3
  5
248A
 10
287.220
 20
189.020
 30
0.000000
  70
    32
  0
VERTEX
  8
3
  5
248B
 10
287.219
 20
189.081
 30
0.000000
  70
    32
  0
VERTEX
  8
3
  5
248C
 10
287.218
 20
189.142
 30
0.000000
  70
    32
  0
VERTEX
  8
3
  5
248D
 10
287.219
 20
189.204
 30
0.000000
  70
    32
  0
VERTEX
  8
3
  5
248E
 10
287.220
 20
189.265
 30
0.000000
  70
    32
  0
VERTEX
  8
3
  5
248F
 10
287.223
 20
189.326
 30
0.000000
  70
    32
  0
VERTEX
  8
3
  5
2490
 10
287.227
 20
189.387
 30
0.000000
  70
    32
  0
VERTEX
  8
3
  5
2491
 10
287.232
 20
189.448
 30
0.000000
  70
    32
  0
VERTEX
  8
3
  5
2492
 10
287.238
 20
189.509
 30
0.000000
  70
    32
  0
VERTEX
  8
3
  5
2493
 10
287.246
 20
189.570
 30
0.000000
  70
    32
  0
VERTEX
  8
3
  5
2494
 10
287.254
 20
189.630
 30
0.000000
  70
    32
  0
VERTEX
  8
3
  5
2495
 10
287.263
 20
189.690
 30
0.000000
  70
    32
  0
VERTEX
  8
3
  5
2496
 10
287.274
 20
189.750
 30
0.000000
  70
    32
  0
VERTEX
  8
3
  5
2497
 10
287.286
 20
189.809
 30
0.000000
  70
    32
  0
VERTEX
  8
3
  5
2498
 10
287.298
 20
189.868
 30
0.000000
  70
    32
  0
VERTEX
  8
3
  5
2499
 10
287.312
 20
189.927
 30
0.000000
  70
    32
  0
VERTEX
  8
3
  5
249A
 10
287.327
 20
189.985
 30
0.000000
  70
    32
  0
VERTEX
  8
3
  5
249B
 10
287.343
 20
190.042
 30
0.000000
  70
    32
  0
VERTEX
  8
3
  5
249C
 10
287.360
 20
190.099
 30
0.000000
  70
    32
  0
VERTEX
  8
3
  5
249D
 10
287.378
 20
190.155
 30
0.000000
  70
    32
  0
VERTEX
  8
3
  5
249E
 10
287.397
 20
190.211
 30
0.000000
  70
    32
  0
VERTEX
  8
3
  5
249F
 10
287.418
 20
190.266
 30
0.000000
  70
    32
  0
VERTEX
  8
3
  5
24A0
 10
287.439
 20
190.321
 30
0.000000
  70
    32
  0
VERTEX
  8
3
  5
24A1
 10
287.461
 20
190.375
 30
0.000000
  70
    32
  0
VERTEX
  8
3
  5
24A2
 10
287.484
 20
190.428
 30
0.000000
  70
    32
  0
VERTEX
  8
3
  5
24A3
 10
287.508
 20
190.480
 30
0.000000
  70
    32
  0
VERTEX
  8
3
  5
24A4
 10
287.533
 20
190.531
 30
0.000000
  70
    32
  0
VERTEX
  8
3
  5
24A5
 10
287.559
 20
190.582
 30
0.000000
  70
    32
  0
VERTEX
  8
3
  5
24A6
 10
287.586
 20
190.632
 30
0.000000
  70
    32
  0
VERTEX
  8
3
  5
24A7
 10
287.613
 20
190.680
 30
0.000000
  70
    32
  0
VERTEX
  8
3
  5
24A8
 10
287.642
 20
190.728
 30
0.000000
  70
    32
  0
VERTEX
  8
3
  5
24A9
 10
287.672
 20
190.775
 30
0.000000
  70
    32
  0
VERTEX
  8
3
  5
24AA
 10
287.702
 20
190.821
 30
0.000000
  70
    32
  0
VERTEX
  8
3
  5
24AB
 10
287.733
 20
190.866
 30
0.000000
  70
    32
  0
VERTEX
  8
3
  5
24AC
 10
287.765
 20
190.910
 30
0.000000
  70
    32
  0
VERTEX
  8
3
  5
24AD
 10
287.798
 20
190.953
 30
0.000000
  70
    32
  0
VERTEX
  8
3
  5
24AE
 10
287.832
 20
190.995
 30
0.000000
  70
    32
  0
VERTEX
  8
3
  5
24AF
 10
287.866
 20
191.035
 30
0.000000
  70
    32
  0
VERTEX
  8
3
  5
24B0
 10
287.901
 20
191.075
 30
0.000000
  70
    32
  0
VERTEX
  8
3
  5
24B1
 10
287.937
 20
191.113
 30
0.000000
  70
    32
  0
VERTEX
  8
3
  5
24B2
 10
287.973
 20
191.150
 30
0.000000
  70
    32
  0
VERTEX
  8
3
  5
24B3
 10
288.011
 20
191.186
 30
0.000000
  70
    32
  0
VERTEX
  8
3
  5
24B4
 10
288.048
 20
191.221
 30
0.000000
  70
    32
  0
VERTEX
  8
3
  5
24B5
 10
288.087
 20
191.254
 30
0.000000
  70
    32
  0
VERTEX
  8
3
  5
24B6
 10
288.126
 20
191.287
 30
0.000000
  70
    32
  0
VERTEX
  8
3
  5
24B7
 10
288.165
 20
191.318
 30
0.000000
  70
    32
  0
VERTEX
  8
3
  5
24B8
 10
288.206
 20
191.347
 30
0.000000
  70
    32
  0
VERTEX
  8
3
  5
24B9
 10
288.246
 20
191.375
 30
0.000000
  70
    32
  0
VERTEX
  8
3
  5
24BA
 10
288.287
 20
191.402
 30
0.000000
  70
    32
  0
VERTEX
  8
3
  5
24BB
 10
288.329
 20
191.428
 30
0.000000
  70
    32
  0
VERTEX
  8
3
  5
24BC
 10
288.371
 20
191.452
 30
0.000000
  70
    32
  0
VERTEX
  8
3
  5
24BD
 10
288.414
 20
191.475
 30
0.000000
  70
    32
  0
VERTEX
  8
3
  5
24BE
 10
288.457
 20
191.496
 30
0.000000
  70
    32
  0
VERTEX
  8
3
  5
24BF
 10
288.500
 20
191.516
 30
0.000000
  70
    32
  0
VERTEX
  8
3
  5
24C0
 10
288.544
 20
191.535
 30
0.000000
  70
    32
  0
VERTEX
  8
3
  5
24C1
 10
288.588
 20
191.552
 30
0.000000
  70
    32
  0
VERTEX
  8
3
  5
24C2
 10
288.632
 20
191.567
 30
0.000000
  70
    32
  0
VERTEX
  8
3
  5
24C3
 10
288.677
 20
191.582
 30
0.000000
  70
    32
  0
VERTEX
  8
3
  5
24C4
 10
288.722
 20
191.594
 30
0.000000
  70
    32
  0
VERTEX
  8
3
  5
24C5
 10
288.767
 20
191.606
 30
0.000000
  70
    32
  0
VERTEX
  8
3
  5
24C6
 10
288.812
 20
191.615
 30
0.000000
  70
    32
  0
VERTEX
  8
3
  5
24C7
 10
288.858
 20
191.624
 30
0.000000
  70
    32
  0
VERTEX
  8
3
  5
24C8
 10
288.903
 20
191.630
 30
0.000000
  70
    32
  0
VERTEX
  8
3
  5
24C9
 10
288.949
 20
191.636
 30
0.000000
  70
    32
  0
VERTEX
  8
3
  5
24CA
 10
288.995
 20
191.639
 30
0.000000
  70
    32
  0
VERTEX
  8
3
  5
24CB
 10
289.040
 20
191.642
 30
0.000000
  70
    32
  0
VERTEX
  8
3
  5
24CC
 10
289.086
 20
191.642
 30
0.000000
  70
    32
  0
SEQEND
  8
3
  5
24CD
  0
POLYLINE
  5
1F4F
  8
3
 10
289.08624556712488
 20
191.64233099816238
 30
0.0
 66
     1
 70
     8
  0
VERTEX
  8
3
  5
24CE
 10
289.086
 20
191.642
 30
0.000000
  70
    32
  0
VERTEX
  8
3
  5
24CF
 10
289.147
 20
191.642
 30
0.000000
  70
    32
  0
VERTEX
  8
3
  5
24D0
 10
289.207
 20
191.639
 30
0.000000
  70
    32
  0
VERTEX
  8
3
  5
24D1
 10
289.267
 20
191.636
 30
0.000000
  70
    32
  0
VERTEX
  8
3
  5
24D2
 10
289.328
 20
191.630
 30
0.000000
  70
    32
  0
VERTEX
  8
3
  5
24D3
 10
289.388
 20
191.624
 30
0.000000
  70
    32
  0
VERTEX
  8
3
  5
24D4
 10
289.447
 20
191.615
 30
0.000000
  70
    32
  0
VERTEX
  8
3
  5
24D5
 10
289.507
 20
191.606
 30
0.000000
  70
    32
  0
VERTEX
  8
3
  5
24D6
 10
289.567
 20
191.594
 30
0.000000
  70
    32
  0
VERTEX
  8
3
  5
24D7
 10
289.626
 20
191.582
 30
0.000000
  70
    32
  0
VERTEX
  8
3
  5
24D8
 10
289.684
 20
191.567
 30
0.000000
  70
    32
  0
VERTEX
  8
3
  5
24D9
 10
289.743
 20
191.552
 30
0.000000
  70
    32
  0
VERTEX
  8
3
  5
24DA
 10
289.801
 20
191.535
 30
0.000000
  70
    32
  0
VERTEX
  8
3
  5
24DB
 10
289.859
 20
191.516
 30
0.000000
  70
    32
  0
VERTEX
  8
3
  5
24DC
 10
289.916
 20
191.496
 30
0.000000
  70
    32
  0
VERTEX
  8
3
  5
24DD
 10
289.972
 20
191.475
 30
0.000000
  70
    32
  0
VERTEX
  8
3
  5
24DE
 10
290.028
 20
191.452
 30
0.000000
  70
    32
  0
VERTEX
  8
3
  5
24DF
 10
290.084
 20
191.428
 30
0.000000
  70
    32
  0
VERTEX
  8
3
  5
24E0
 10
290.139
 20
191.402
 30
0.000000
  70
    32
  0
VERTEX
  8
3
  5
24E1
 10
290.193
 20
191.375
 30
0.000000
  70
    32
  0
VERTEX
  8
3
  5
24E2
 10
290.247
 20
191.347
 30
0.000000
  70
    32
  0
VERTEX
  8
3
  5
24E3
 10
290.300
 20
191.318
 30
0.000000
  70
    32
  0
VERTEX
  8
3
  5
24E4
 10
290.352
 20
191.287
 30
0.000000
  70
    32
  0
VERTEX
  8
3
  5
24E5
 10
290.403
 20
191.254
 30
0.000000
  70
    32
  0
VERTEX
  8
3
  5
24E6
 10
290.454
 20
191.221
 30
0.000000
  70
    32
  0
VERTEX
  8
3
  5
24E7
 10
290.504
 20
191.186
 30
0.000000
  70
    32
  0
VERTEX
  8
3
  5
24E8
 10
290.553
 20
191.150
 30
0.000000
  70
    32
  0
VERTEX
  8
3
  5
24E9
 10
290.601
 20
191.113
 30
0.000000
  70
    32
  0
VERTEX
  8
3
  5
24EA
 10
290.648
 20
191.075
 30
0.000000
  70
    32
  0
VERTEX
  8
3
  5
24EB
 10
290.694
 20
191.035
 30
0.000000
  70
    32
  0
VERTEX
  8
3
  5
24EC
 10
290.740
 20
190.995
 30
0.000000
  70
    32
  0
VERTEX
  8
3
  5
24ED
 10
290.784
 20
190.953
 30
0.000000
  70
    32
  0
VERTEX
  8
3
  5
24EE
 10
290.827
 20
190.910
 30
0.000000
  70
    32
  0
VERTEX
  8
3
  5
24EF
 10
290.869
 20
190.866
 30
0.000000
  70
    32
  0
VERTEX
  8
3
  5
24F0
 10
290.910
 20
190.821
 30
0.000000
  70
    32
  0
VERTEX
  8
3
  5
24F1
 10
290.950
 20
190.775
 30
0.000000
  70
    32
  0
VERTEX
  8
3
  5
24F2
 10
290.989
 20
190.728
 30
0.000000
  70
    32
  0
VERTEX
  8
3
  5
24F3
 10
291.027
 20
190.680
 30
0.000000
  70
    32
  0
VERTEX
  8
3
  5
24F4
 10
291.064
 20
190.632
 30
0.000000
  70
    32
  0
VERTEX
  8
3
  5
24F5
 10
291.099
 20
190.582
 30
0.000000
  70
    32
  0
VERTEX
  8
3
  5
24F6
 10
291.133
 20
190.531
 30
0.000000
  70
    32
  0
VERTEX
  8
3
  5
24F7
 10
291.166
 20
190.480
 30
0.000000
  70
    32
  0
VERTEX
  8
3
  5
24F8
 10
291.198
 20
190.428
 30
0.000000
  70
    32
  0
VERTEX
  8
3
  5
24F9
 10
291.228
 20
190.375
 30
0.000000
  70
    32
  0
VERTEX
  8
3
  5
24FA
 10
291.257
 20
190.321
 30
0.000000
  70
    32
  0
VERTEX
  8
3
  5
24FB
 10
291.285
 20
190.266
 30
0.000000
  70
    32
  0
VERTEX
  8
3
  5
24FC
 10
291.312
 20
190.211
 30
0.000000
  70
    32
  0
VERTEX
  8
3
  5
24FD
 10
291.337
 20
190.155
 30
0.000000
  70
    32
  0
VERTEX
  8
3
  5
24FE
 10
291.361
 20
190.099
 30
0.000000
  70
    32
  0
VERTEX
  8
3
  5
24FF
 10
291.383
 20
190.042
 30
0.000000
  70
    32
  0
VERTEX
  8
3
  5
2500
 10
291.404
 20
189.985
 30
0.000000
  70
    32
  0
VERTEX
  8
3
  5
2501
 10
291.424
 20
189.927
 30
0.000000
  70
    32
  0
VERTEX
  8
3
  5
2502
 10
291.442
 20
189.868
 30
0.000000
  70
    32
  0
VERTEX
  8
3
  5
2503
 10
291.459
 20
189.809
 30
0.000000
  70
    32
  0
VERTEX
  8
3
  5
2504
 10
291.474
 20
189.750
 30
0.000000
  70
    32
  0
VERTEX
  8
3
  5
2505
 10
291.488
 20
189.690
 30
0.000000
  70
    32
  0
VERTEX
  8
3
  5
2506
 10
291.501
 20
189.630
 30
0.000000
  70
    32
  0
VERTEX
  8
3
  5
2507
 10
291.512
 20
189.570
 30
0.000000
  70
    32
  0
VERTEX
  8
3
  5
2508
 10
291.522
 20
189.509
 30
0.000000
  70
    32
  0
VERTEX
  8
3
  5
2509
 10
291.530
 20
189.448
 30
0.000000
  70
    32
  0
VERTEX
  8
3
  5
250A
 10
291.536
 20
189.387
 30
0.000000
  70
    32
  0
VERTEX
  8
3
  5
250B
 10
291.541
 20
189.326
 30
0.000000
  70
    32
  0
VERTEX
  8
3
  5
250C
 10
291.545
 20
189.265
 30
0.000000
  70
    32
  0
VERTEX
  8
3
  5
250D
 10
291.547
 20
189.204
 30
0.000000
  70
    32
  0
VERTEX
  8
3
  5
250E
 10
291.548
 20
189.142
 30
0.000000
  70
    32
  0
VERTEX
  8
3
  5
250F
 10
291.547
 20
189.081
 30
0.000000
  70
    32
  0
VERTEX
  8
3
  5
2510
 10
291.545
 20
189.020
 30
0.000000
  70
    32
  0
VERTEX
  8
3
  5
2511
 10
291.541
 20
188.958
 30
0.000000
  70
    32
  0
VERTEX
  8
3
  5
2512
 10
291.536
 20
188.897
 30
0.000000
  70
    32
  0
VERTEX
  8
3
  5
2513
 10
291.530
 20
188.836
 30
0.000000
  70
    32
  0
VERTEX
  8
3
  5
2514
 10
291.522
 20
188.776
 30
0.000000
  70
    32
  0
VERTEX
  8
3
  5
2515
 10
291.512
 20
188.715
 30
0.000000
  70
    32
  0
VERTEX
  8
3
  5
2516
 10
291.501
 20
188.655
 30
0.000000
  70
    32
  0
VERTEX
  8
3
  5
2517
 10
291.488
 20
188.595
 30
0.000000
  70
    32
  0
VERTEX
  8
3
  5
2518
 10
291.474
 20
188.535
 30
0.000000
  70
    32
  0
VERTEX
  8
3
  5
2519
 10
291.459
 20
188.476
 30
0.000000
  70
    32
  0
VERTEX
  8
3
  5
251A
 10
291.442
 20
188.417
 30
0.000000
  70
    32
  0
VERTEX
  8
3
  5
251B
 10
291.424
 20
188.358
 30
0.000000
  70
    32
  0
VERTEX
  8
3
  5
251C
 10
291.404
 20
188.300
 30
0.000000
  70
    32
  0
VERTEX
  8
3
  5
251D
 10
291.383
 20
188.243
 30
0.000000
  70
    32
  0
VERTEX
  8
3
  5
251E
 10
291.361
 20
188.186
 30
0.000000
  70
    32
  0
VERTEX
  8
3
  5
251F
 10
291.337
 20
188.129
 30
0.000000
  70
    32
  0
VERTEX
  8
3
  5
2520
 10
291.312
 20
188.073
 30
0.000000
  70
    32
  0
VERTEX
  8
3
  5
2521
 10
291.285
 20
188.018
 30
0.000000
  70
    32
  0
VERTEX
  8
3
  5
2522
 10
291.257
 20
187.964
 30
0.000000
  70
    32
  0
VERTEX
  8
3
  5
2523
 10
291.228
 20
187.910
 30
0.000000
  70
    32
  0
VERTEX
  8
3
  5
2524
 10
291.198
 20
187.857
 30
0.000000
  70
    32
  0
VERTEX
  8
3
  5
2525
 10
291.166
 20
187.805
 30
0.000000
  70
    32
  0
VERTEX
  8
3
  5
2526
 10
291.133
 20
187.753
 30
0.000000
  70
    32
  0
VERTEX
  8
3
  5
2527
 10
291.099
 20
187.703
 30
0.000000
  70
    32
  0
VERTEX
  8
3
  5
2528
 10
291.064
 20
187.653
 30
0.000000
  70
    32
  0
VERTEX
  8
3
  5
2529
 10
291.027
 20
187.604
 30
0.000000
  70
    32
  0
VERTEX
  8
3
  5
252A
 10
290.989
 20
187.556
 30
0.000000
  70
    32
  0
VERTEX
  8
3
  5
252B
 10
290.950
 20
187.509
 30
0.000000
  70
    32
  0
VERTEX
  8
3
  5
252C
 10
290.910
 20
187.463
 30
0.000000
  70
    32
  0
VERTEX
  8
3
  5
252D
 10
290.869
 20
187.418
 30
0.000000
  70
    32
  0
VERTEX
  8
3
  5
252E
 10
290.827
 20
187.375
 30
0.000000
  70
    32
  0
VERTEX
  8
3
  5
252F
 10
290.784
 20
187.332
 30
0.000000
  70
    32
  0
VERTEX
  8
3
  5
2530
 10
290.740
 20
187.290
 30
0.000000
  70
    32
  0
VERTEX
  8
3
  5
2531
 10
290.694
 20
187.249
 30
0.000000
  70
    32
  0
VERTEX
  8
3
  5
2532
 10
290.648
 20
187.210
 30
0.000000
  70
    32
  0
VERTEX
  8
3
  5
2533
 10
290.601
 20
187.171
 30
0.000000
  70
    32
  0
VERTEX
  8
3
  5
2534
 10
290.553
 20
187.134
 30
0.000000
  70
    32
  0
VERTEX
  8
3
  5
2535
 10
290.504
 20
187.098
 30
0.000000
  70
    32
  0
VERTEX
  8
3
  5
2536
 10
290.454
 20
187.064
 30
0.000000
  70
    32
  0
VERTEX
  8
3
  5
2537
 10
290.403
 20
187.030
 30
0.000000
  70
    32
  0
VERTEX
  8
3
  5
2538
 10
290.352
 20
186.998
 30
0.000000
  70
    32
  0
VERTEX
  8
3
  5
2539
 10
290.300
 20
186.967
 30
0.000000
  70
    32
  0
VERTEX
  8
3
  5
253A
 10
290.247
 20
186.938
 30
0.000000
  70
    32
  0
VERTEX
  8
3
  5
253B
 10
290.193
 20
186.909
 30
0.000000
  70
    32
  0
VERTEX
  8
3
  5
253C
 10
290.139
 20
186.882
 30
0.000000
  70
    32
  0
VERTEX
  8
3
  5
253D
 10
290.084
 20
186.857
 30
0.000000
  70
    32
  0
VERTEX
  8
3
  5
253E
 10
290.028
 20
186.833
 30
0.000000
  70
    32
  0
VERTEX
  8
3
  5
253F
 10
289.972
 20
186.810
 30
0.000000
  70
    32
  0
VERTEX
  8
3
  5
2540
 10
289.916
 20
186.788
 30
0.000000
  70
    32
  0
VERTEX
  8
3
  5
2541
 10
289.859
 20
186.769
 30
0.000000
  70
    32
  0
VERTEX
  8
3
  5
2542
 10
289.801
 20
186.750
 30
0.000000
  70
    32
  0
VERTEX
  8
3
  5
2543
 10
289.743
 20
186.733
 30
0.000000
  70
    32
  0
VERTEX
  8
3
  5
2544
 10
289.684
 20
186.717
 30
0.000000
  70
    32
  0
VERTEX
  8
3
  5
2545
 10
289.626
 20
186.703
 30
0.000000
  70
    32
  0
VERTEX
  8
3
  5
2546
 10
289.567
 20
186.690
 30
0.000000
  70
    32
  0
VERTEX
  8
3
  5
2547
 10
289.507
 20
186.679
 30
0.000000
  70
    32
  0
VERTEX
  8
3
  5
2548
 10
289.447
 20
186.669
 30
0.000000
  70
    32
  0
VERTEX
  8
3
  5
2549
 10
289.388
 20
186.661
 30
0.000000
  70
    32
  0
VERTEX
  8
3
  5
254A
 10
289.328
 20
186.654
 30
0.000000
  70
    32
  0
VERTEX
  8
3
  5
254B
 10
289.267
 20
186.649
 30
0.000000
  70
    32
  0
VERTEX
  8
3
  5
254C
 10
289.207
 20
186.645
 30
0.000000
  70
    32
  0
VERTEX
  8
3
  5
254D
 10
289.147
 20
186.643
 30
0.000000
  70
    32
  0
VERTEX
  8
3
  5
254E
 10
289.086
 20
186.642
 30
0.000000
  70
    32
  0
SEQEND
  8
3
  5
254F
  0
POLYLINE
  5
1F50
  8
0
 10
289.08624556712482
 20
187.07533099816243
 30
0.0
 66
     1
 70
     8
  0
VERTEX
  8
0
  5
2550
 10
289.086
 20
187.075
 30
0.000000
  70
    32
  0
VERTEX
  8
0
  5
2551
 10
289.055
 20
187.076
 30
0.000000
  70
    32
  0
VERTEX
  8
0
  5
2552
 10
289.024
 20
187.078
 30
0.000000
  70
    32
  0
VERTEX
  8
0
  5
2553
 10
288.992
 20
187.081
 30
0.000000
  70
    32
  0
VERTEX
  8
0
  5
2554
 10
288.961
 20
187.085
 30
0.000000
  70
    32
  0
VERTEX
  8
0
  5
2555
 10
288.930
 20
187.091
 30
0.000000
  70
    32
  0
VERTEX
  8
0
  5
2556
 10
288.899
 20
187.098
 30
0.000000
  70
    32
  0
VERTEX
  8
0
  5
2557
 10
288.868
 20
187.106
 30
0.000000
  70
    32
  0
VERTEX
  8
0
  5
2558
 10
288.837
 20
187.115
 30
0.000000
  70
    32
  0
VERTEX
  8
0
  5
2559
 10
288.807
 20
187.126
 30
0.000000
  70
    32
  0
VERTEX
  8
0
  5
255A
 10
288.776
 20
187.137
 30
0.000000
  70
    32
  0
VERTEX
  8
0
  5
255B
 10
288.746
 20
187.150
 30
0.000000
  70
    32
  0
VERTEX
  8
0
  5
255C
 10
288.716
 20
187.164
 30
0.000000
  70
    32
  0
VERTEX
  8
0
  5
255D
 10
288.686
 20
187.180
 30
0.000000
  70
    32
  0
VERTEX
  8
0
  5
255E
 10
288.656
 20
187.196
 30
0.000000
  70
    32
  0
VERTEX
  8
0
  5
255F
 10
288.627
 20
187.214
 30
0.000000
  70
    32
  0
VERTEX
  8
0
  5
2560
 10
288.598
 20
187.233
 30
0.000000
  70
    32
  0
VERTEX
  8
0
  5
2561
 10
288.569
 20
187.253
 30
0.000000
  70
    32
  0
VERTEX
  8
0
  5
2562
 10
288.540
 20
187.274
 30
0.000000
  70
    32
  0
VERTEX
  8
0
  5
2563
 10
288.512
 20
187.296
 30
0.000000
  70
    32
  0
VERTEX
  8
0
  5
2564
 10
288.484
 20
187.319
 30
0.000000
  70
    32
  0
VERTEX
  8
0
  5
2565
 10
288.457
 20
187.344
 30
0.000000
  70
    32
  0
VERTEX
  8
0
  5
2566
 10
288.430
 20
187.369
 30
0.000000
  70
    32
  0
VERTEX
  8
0
  5
2567
 10
288.403
 20
187.396
 30
0.000000
  70
    32
  0
VERTEX
  8
0
  5
2568
 10
288.377
 20
187.424
 30
0.000000
  70
    32
  0
VERTEX
  8
0
  5
2569
 10
288.351
 20
187.452
 30
0.000000
  70
    32
  0
VERTEX
  8
0
  5
256A
 10
288.326
 20
187.482
 30
0.000000
  70
    32
  0
VERTEX
  8
0
  5
256B
 10
288.301
 20
187.513
 30
0.000000
  70
    32
  0
VERTEX
  8
0
  5
256C
 10
288.276
 20
187.545
 30
0.000000
  70
    32
  0
VERTEX
  8
0
  5
256D
 10
288.252
 20
187.577
 30
0.000000
  70
    32
  0
VERTEX
  8
0
  5
256E
 10
288.229
 20
187.611
 30
0.000000
  70
    32
  0
VERTEX
  8
0
  5
256F
 10
288.206
 20
187.645
 30
0.000000
  70
    32
  0
VERTEX
  8
0
  5
2570
 10
288.183
 20
187.681
 30
0.000000
  70
    32
  0
VERTEX
  8
0
  5
2571
 10
288.162
 20
187.717
 30
0.000000
  70
    32
  0
VERTEX
  8
0
  5
2572
 10
288.140
 20
187.754
 30
0.000000
  70
    32
  0
VERTEX
  8
0
  5
2573
 10
288.119
 20
187.792
 30
0.000000
  70
    32
  0
VERTEX
  8
0
  5
2574
 10
288.099
 20
187.831
 30
0.000000
  70
    32
  0
VERTEX
  8
0
  5
2575
 10
288.080
 20
187.871
 30
0.000000
  70
    32
  0
VERTEX
  8
0
  5
2576
 10
288.061
 20
187.911
 30
0.000000
  70
    32
  0
VERTEX
  8
0
  5
2577
 10
288.042
 20
187.952
 30
0.000000
  70
    32
  0
VERTEX
  8
0
  5
2578
 10
288.025
 20
187.994
 30
0.000000
  70
    32
  0
VERTEX
  8
0
  5
2579
 10
288.008
 20
188.036
 30
0.000000
  70
    32
  0
VERTEX
  8
0
  5
257A
 10
287.991
 20
188.080
 30
0.000000
  70
    32
  0
VERTEX
  8
0
  5
257B
 10
287.975
 20
188.124
 30
0.000000
  70
    32
  0
VERTEX
  8
0
  5
257C
 10
287.960
 20
188.168
 30
0.000000
  70
    32
  0
VERTEX
  8
0
  5
257D
 10
287.946
 20
188.213
 30
0.000000
  70
    32
  0
VERTEX
  8
0
  5
257E
 10
287.932
 20
188.259
 30
0.000000
  70
    32
  0
VERTEX
  8
0
  5
257F
 10
287.919
 20
188.305
 30
0.000000
  70
    32
  0
VERTEX
  8
0
  5
2580
 10
287.907
 20
188.351
 30
0.000000
  70
    32
  0
VERTEX
  8
0
  5
2581
 10
287.895
 20
188.398
 30
0.000000
  70
    32
  0
VERTEX
  8
0
  5
2582
 10
287.884
 20
188.446
 30
0.000000
  70
    32
  0
VERTEX
  8
0
  5
2583
 10
287.874
 20
188.494
 30
0.000000
  70
    32
  0
VERTEX
  8
0
  5
2584
 10
287.864
 20
188.542
 30
0.000000
  70
    32
  0
VERTEX
  8
0
  5
2585
 10
287.856
 20
188.591
 30
0.000000
  70
    32
  0
VERTEX
  8
0
  5
2586
 10
287.848
 20
188.640
 30
0.000000
  70
    32
  0
VERTEX
  8
0
  5
2587
 10
287.841
 20
188.689
 30
0.000000
  70
    32
  0
VERTEX
  8
0
  5
2588
 10
287.834
 20
188.739
 30
0.000000
  70
    32
  0
VERTEX
  8
0
  5
2589
 10
287.828
 20
188.789
 30
0.000000
  70
    32
  0
VERTEX
  8
0
  5
258A
 10
287.823
 20
188.839
 30
0.000000
  70
    32
  0
VERTEX
  8
0
  5
258B
 10
287.819
 20
188.889
 30
0.000000
  70
    32
  0
VERTEX
  8
0
  5
258C
 10
287.816
 20
188.940
 30
0.000000
  70
    32
  0
VERTEX
  8
0
  5
258D
 10
287.813
 20
188.990
 30
0.000000
  70
    32
  0
VERTEX
  8
0
  5
258E
 10
287.811
 20
189.041
 30
0.000000
  70
    32
  0
VERTEX
  8
0
  5
258F
 10
287.810
 20
189.092
 30
0.000000
  70
    32
  0
VERTEX
  8
0
  5
2590
 10
287.810
 20
189.142
 30
0.000000
  70
    32
  0
VERTEX
  8
0
  5
2591
 10
287.810
 20
189.193
 30
0.000000
  70
    32
  0
VERTEX
  8
0
  5
2592
 10
287.811
 20
189.244
 30
0.000000
  70
    32
  0
VERTEX
  8
0
  5
2593
 10
287.813
 20
189.294
 30
0.000000
  70
    32
  0
VERTEX
  8
0
  5
2594
 10
287.816
 20
189.345
 30
0.000000
  70
    32
  0
VERTEX
  8
0
  5
2595
 10
287.819
 20
189.395
 30
0.000000
  70
    32
  0
VERTEX
  8
0
  5
2596
 10
287.823
 20
189.446
 30
0.000000
  70
    32
  0
VERTEX
  8
0
  5
2597
 10
287.828
 20
189.496
 30
0.000000
  70
    32
  0
VERTEX
  8
0
  5
2598
 10
287.834
 20
189.546
 30
0.000000
  70
    32
  0
VERTEX
  8
0
  5
2599
 10
287.841
 20
189.595
 30
0.000000
  70
    32
  0
VERTEX
  8
0
  5
259A
 10
287.848
 20
189.645
 30
0.000000
  70
    32
  0
VERTEX
  8
0
  5
259B
 10
287.856
 20
189.694
 30
0.000000
  70
    32
  0
VERTEX
  8
0
  5
259C
 10
287.864
 20
189.742
 30
0.000000
  70
    32
  0
VERTEX
  8
0
  5
259D
 10
287.874
 20
189.791
 30
0.000000
  70
    32
  0
VERTEX
  8
0
  5
259E
 10
287.884
 20
189.839
 30
0.000000
  70
    32
  0
VERTEX
  8
0
  5
259F
 10
287.895
 20
189.886
 30
0.000000
  70
    32
  0
VERTEX
  8
0
  5
25A0
 10
287.907
 20
189.933
 30
0.000000
  70
    32
  0
VERTEX
  8
0
  5
25A1
 10
287.919
 20
189.980
 30
0.000000
  70
    32
  0
VERTEX
  8
0
  5
25A2
 10
287.932
 20
190.026
 30
0.000000
  70
    32
  0
VERTEX
  8
0
  5
25A3
 10
287.946
 20
190.072
 30
0.000000
  70
    32
  0
VERTEX
  8
0
  5
25A4
 10
287.960
 20
190.117
 30
0.000000
  70
    32
  0
VERTEX
  8
0
  5
25A5
 10
287.975
 20
190.161
 30
0.000000
  70
    32
  0
VERTEX
  8
0
  5
25A6
 10
287.991
 20
190.205
 30
0.000000
  70
    32
  0
VERTEX
  8
0
  5
25A7
 10
288.008
 20
190.248
 30
0.000000
  70
    32
  0
VERTEX
  8
0
  5
25A8
 10
288.025
 20
190.291
 30
0.000000
  70
    32
  0
VERTEX
  8
0
  5
25A9
 10
288.042
 20
190.333
 30
0.000000
  70
    32
  0
VERTEX
  8
0
  5
25AA
 10
288.061
 20
190.374
 30
0.000000
  70
    32
  0
VERTEX
  8
0
  5
25AB
 10
288.080
 20
190.414
 30
0.000000
  70
    32
  0
VERTEX
  8
0
  5
25AC
 10
288.099
 20
190.454
 30
0.000000
  70
    32
  0
VERTEX
  8
0
  5
25AD
 10
288.119
 20
190.492
 30
0.000000
  70
    32
  0
VERTEX
  8
0
  5
25AE
 10
288.140
 20
190.530
 30
0.000000
  70
    32
  0
VERTEX
  8
0
  5
25AF
 10
288.162
 20
190.568
 30
0.000000
  70
    32
  0
VERTEX
  8
0
  5
25B0
 10
288.183
 20
190.604
 30
0.000000
  70
    32
  0
VERTEX
  8
0
  5
25B1
 10
288.206
 20
190.639
 30
0.000000
  70
    32
  0
VERTEX
  8
0
  5
25B2
 10
288.229
 20
190.674
 30
0.000000
  70
    32
  0
VERTEX
  8
0
  5
25B3
 10
288.252
 20
190.707
 30
0.000000
  70
    32
  0
VERTEX
  8
0
  5
25B4
 10
288.276
 20
190.740
 30
0.000000
  70
    32
  0
VERTEX
  8
0
  5
25B5
 10
288.301
 20
190.772
 30
0.000000
  70
    32
  0
VERTEX
  8
0
  5
25B6
 10
288.326
 20
190.803
 30
0.000000
  70
    32
  0
VERTEX
  8
0
  5
25B7
 10
288.351
 20
190.832
 30
0.000000
  70
    32
  0
VERTEX
  8
0
  5
25B8
 10
288.377
 20
190.861
 30
0.000000
  70
    32
  0
VERTEX
  8
0
  5
25B9
 10
288.403
 20
190.889
 30
0.000000
  70
    32
  0
VERTEX
  8
0
  5
25BA
 10
288.430
 20
190.915
 30
0.000000
  70
    32
  0
VERTEX
  8
0
  5
25BB
 10
288.457
 20
190.941
 30
0.000000
  70
    32
  0
VERTEX
  8
0
  5
25BC
 10
288.484
 20
190.965
 30
0.000000
  70
    32
  0
VERTEX
  8
0
  5
25BD
 10
288.512
 20
190.989
 30
0.000000
  70
    32
  0
VERTEX
  8
0
  5
25BE
 10
288.540
 20
191.011
 30
0.000000
  70
    32
  0
VERTEX
  8
0
  5
25BF
 10
288.569
 20
191.032
 30
0.000000
  70
    32
  0
VERTEX
  8
0
  5
25C0
 10
288.598
 20
191.052
 30
0.000000
  70
    32
  0
VERTEX
  8
0
  5
25C1
 10
288.627
 20
191.071
 30
0.000000
  70
    32
  0
VERTEX
  8
0
  5
25C2
 10
288.656
 20
191.089
 30
0.000000
  70
    32
  0
VERTEX
  8
0
  5
25C3
 10
288.686
 20
191.105
 30
0.000000
  70
    32
  0
VERTEX
  8
0
  5
25C4
 10
288.716
 20
191.120
 30
0.000000
  70
    32
  0
VERTEX
  8
0
  5
25C5
 10
288.746
 20
191.134
 30
0.000000
  70
    32
  0
VERTEX
  8
0
  5
25C6
 10
288.776
 20
191.147
 30
0.000000
  70
    32
  0
VERTEX
  8
0
  5
25C7
 10
288.807
 20
191.159
 30
0.000000
  70
    32
  0
VERTEX
  8
0
  5
25C8
 10
288.837
 20
191.170
 30
0.000000
  70
    32
  0
VERTEX
  8
0
  5
25C9
 10
288.868
 20
191.179
 30
0.000000
  70
    32
  0
VERTEX
  8
0
  5
25CA
 10
288.899
 20
191.187
 30
0.000000
  70
    32
  0
VERTEX
  8
0
  5
25CB
 10
288.930
 20
191.194
 30
0.000000
  70
    32
  0
VERTEX
  8
0
  5
25CC
 10
288.961
 20
191.199
 30
0.000000
  70
    32
  0
VERTEX
  8
0
  5
25CD
 10
288.992
 20
191.204
 30
0.000000
  70
    32
  0
VERTEX
  8
0
  5
25CE
 10
289.024
 20
191.207
 30
0.000000
  70
    32
  0
VERTEX
  8
0
  5
25CF
 10
289.055
 20
191.209
 30
0.000000
  70
    32
  0
VERTEX
  8
0
  5
25D0
 10
289.086
 20
191.209
 30
0.000000
  70
    32
  0
SEQEND
  8
0
  5
25D1
  0
POLYLINE
  5
1F51
  8
0
 10
289.08624556712488
 20
191.20933099816239
 30
0.0
 66
     1
 70
     8
  0
VERTEX
  8
0
  5
25D2
 10
289.086
 20
191.209
 30
0.000000
  70
    32
  0
VERTEX
  8
0
  5
25D3
 10
289.143
 20
191.209
 30
0.000000
  70
    32
  0
VERTEX
  8
0
  5
25D4
 10
289.199
 20
191.207
 30
0.000000
  70
    32
  0
VERTEX
  8
0
  5
25D5
 10
289.256
 20
191.204
 30
0.000000
  70
    32
  0
VERTEX
  8
0
  5
25D6
 10
289.312
 20
191.199
 30
0.000000
  70
    32
  0
VERTEX
  8
0
  5
25D7
 10
289.368
 20
191.194
 30
0.000000
  70
    32
  0
VERTEX
  8
0
  5
25D8
 10
289.424
 20
191.187
 30
0.000000
  70
    32
  0
VERTEX
  8
0
  5
25D9
 10
289.480
 20
191.179
 30
0.000000
  70
    32
  0
VERTEX
  8
0
  5
25DA
 10
289.536
 20
191.170
 30
0.000000
  70
    32
  0
VERTEX
  8
0
  5
25DB
 10
289.591
 20
191.159
 30
0.000000
  70
    32
  0
VERTEX
  8
0
  5
25DC
 10
289.646
 20
191.147
 30
0.000000
  70
    32
  0
VERTEX
  8
0
  5
25DD
 10
289.701
 20
191.134
 30
0.000000
  70
    32
  0
VERTEX
  8
0
  5
25DE
 10
289.755
 20
191.120
 30
0.000000
  70
    32
  0
VERTEX
  8
0
  5
25DF
 10
289.809
 20
191.105
 30
0.000000
  70
    32
  0
VERTEX
  8
0
  5
25E0
 10
289.862
 20
191.089
 30
0.000000
  70
    32
  0
VERTEX
  8
0
  5
25E1
 10
289.915
 20
191.071
 30
0.000000
  70
    32
  0
VERTEX
  8
0
  5
25E2
 10
289.968
 20
191.052
 30
0.000000
  70
    32
  0
VERTEX
  8
0
  5
25E3
 10
290.020
 20
191.032
 30
0.000000
  70
    32
  0
VERTEX
  8
0
  5
25E4
 10
290.071
 20
191.011
 30
0.000000
  70
    32
  0
VERTEX
  8
0
  5
25E5
 10
290.122
 20
190.989
 30
0.000000
  70
    32
  0
VERTEX
  8
0
  5
25E6
 10
290.172
 20
190.965
 30
0.000000
  70
    32
  0
VERTEX
  8
0
  5
25E7
 10
290.222
 20
190.941
 30
0.000000
  70
    32
  0
VERTEX
  8
0
  5
25E8
 10
290.270
 20
190.915
 30
0.000000
  70
    32
  0
VERTEX
  8
0
  5
25E9
 10
290.319
 20
190.889
 30
0.000000
  70
    32
  0
VERTEX
  8
0
  5
25EA
 10
290.366
 20
190.861
 30
0.000000
  70
    32
  0
VERTEX
  8
0
  5
25EB
 10
290.413
 20
190.832
 30
0.000000
  70
    32
  0
VERTEX
  8
0
  5
25EC
 10
290.458
 20
190.803
 30
0.000000
  70
    32
  0
VERTEX
  8
0
  5
25ED
 10
290.503
 20
190.772
 30
0.000000
  70
    32
  0
VERTEX
  8
0
  5
25EE
 10
290.548
 20
190.740
 30
0.000000
  70
    32
  0
VERTEX
  8
0
  5
25EF
 10
290.591
 20
190.707
 30
0.000000
  70
    32
  0
VERTEX
  8
0
  5
25F0
 10
290.633
 20
190.674
 30
0.000000
  70
    32
  0
VERTEX
  8
0
  5
25F1
 10
290.675
 20
190.639
 30
0.000000
  70
    32
  0
VERTEX
  8
0
  5
25F2
 10
290.715
 20
190.604
 30
0.000000
  70
    32
  0
VERTEX
  8
0
  5
25F3
 10
290.754
 20
190.568
 30
0.000000
  70
    32
  0
VERTEX
  8
0
  5
25F4
 10
290.793
 20
190.530
 30
0.000000
  70
    32
  0
VERTEX
  8
0
  5
25F5
 10
290.830
 20
190.492
 30
0.000000
  70
    32
  0
VERTEX
  8
0
  5
25F6
 10
290.867
 20
190.454
 30
0.000000
  70
    32
  0
VERTEX
  8
0
  5
25F7
 10
290.902
 20
190.414
 30
0.000000
  70
    32
  0
VERTEX
  8
0
  5
25F8
 10
290.936
 20
190.374
 30
0.000000
  70
    32
  0
VERTEX
  8
0
  5
25F9
 10
290.969
 20
190.333
 30
0.000000
  70
    32
  0
VERTEX
  8
0
  5
25FA
 10
291.001
 20
190.291
 30
0.000000
  70
    32
  0
VERTEX
  8
0
  5
25FB
 10
291.032
 20
190.248
 30
0.000000
  70
    32
  0
VERTEX
  8
0
  5
25FC
 10
291.062
 20
190.205
 30
0.000000
  70
    32
  0
VERTEX
  8
0
  5
25FD
 10
291.090
 20
190.161
 30
0.000000
  70
    32
  0
VERTEX
  8
0
  5
25FE
 10
291.118
 20
190.117
 30
0.000000
  70
    32
  0
VERTEX
  8
0
  5
25FF
 10
291.144
 20
190.072
 30
0.000000
  70
    32
  0
VERTEX
  8
0
  5
2600
 10
291.169
 20
190.026
 30
0.000000
  70
    32
  0
VERTEX
  8
0
  5
2601
 10
291.192
 20
189.980
 30
0.000000
  70
    32
  0
VERTEX
  8
0
  5
2602
 10
291.214
 20
189.933
 30
0.000000
  70
    32
  0
VERTEX
  8
0
  5
2603
 10
291.235
 20
189.886
 30
0.000000
  70
    32
  0
VERTEX
  8
0
  5
2604
 10
291.255
 20
189.839
 30
0.000000
  70
    32
  0
VERTEX
  8
0
  5
2605
 10
291.273
 20
189.791
 30
0.000000
  70
    32
  0
VERTEX
  8
0
  5
2606
 10
291.290
 20
189.742
 30
0.000000
  70
    32
  0
VERTEX
  8
0
  5
2607
 10
291.306
 20
189.694
 30
0.000000
  70
    32
  0
VERTEX
  8
0
  5
2608
 10
291.321
 20
189.645
 30
0.000000
  70
    32
  0
VERTEX
  8
0
  5
2609
 10
291.334
 20
189.595
 30
0.000000
  70
    32
  0
VERTEX
  8
0
  5
260A
 10
291.345
 20
189.546
 30
0.000000
  70
    32
  0
VERTEX
  8
0
  5
260B
 10
291.356
 20
189.496
 30
0.000000
  70
    32
  0
VERTEX
  8
0
  5
260C
 10
291.365
 20
189.446
 30
0.000000
  70
    32
  0
VERTEX
  8
0
  5
260D
 10
291.372
 20
189.395
 30
0.000000
  70
    32
  0
VERTEX
  8
0
  5
260E
 10
291.379
 20
189.345
 30
0.000000
  70
    32
  0
VERTEX
  8
0
  5
260F
 10
291.383
 20
189.294
 30
0.000000
  70
    32
  0
VERTEX
  8
0
  5
2610
 10
291.387
 20
189.244
 30
0.000000
  70
    32
  0
VERTEX
  8
0
  5
2611
 10
291.389
 20
189.193
 30
0.000000
  70
    32
  0
VERTEX
  8
0
  5
2612
 10
291.390
 20
189.142
 30
0.000000
  70
    32
  0
VERTEX
  8
0
  5
2613
 10
291.389
 20
189.092
 30
0.000000
  70
    32
  0
VERTEX
  8
0
  5
2614
 10
291.387
 20
189.041
 30
0.000000
  70
    32
  0
VERTEX
  8
0
  5
2615
 10
291.383
 20
188.990
 30
0.000000
  70
    32
  0
VERTEX
  8
0
  5
2616
 10
291.379
 20
188.940
 30
0.000000
  70
    32
  0
VERTEX
  8
0
  5
2617
 10
291.372
 20
188.889
 30
0.000000
  70
    32
  0
VERTEX
  8
0
  5
2618
 10
291.365
 20
188.839
 30
0.000000
  70
    32
  0
VERTEX
  8
0
  5
2619
 10
291.356
 20
188.789
 30
0.000000
  70
    32
  0
VERTEX
  8
0
  5
261A
 10
291.345
 20
188.739
 30
0.000000
  70
    32
  0
VERTEX
  8
0
  5
261B
 10
291.334
 20
188.689
 30
0.000000
  70
    32
  0
VERTEX
  8
0
  5
261C
 10
291.321
 20
188.640
 30
0.000000
  70
    32
  0
VERTEX
  8
0
  5
261D
 10
291.306
 20
188.591
 30
0.000000
  70
    32
  0
VERTEX
  8
0
  5
261E
 10
291.290
 20
188.542
 30
0.000000
  70
    32
  0
VERTEX
  8
0
  5
261F
 10
291.273
 20
188.494
 30
0.000000
  70
    32
  0
VERTEX
  8
0
  5
2620
 10
291.255
 20
188.446
 30
0.000000
  70
    32
  0
VERTEX
  8
0
  5
2621
 10
291.235
 20
188.398
 30
0.000000
  70
    32
  0
VERTEX
  8
0
  5
2622
 10
291.214
 20
188.351
 30
0.000000
  70
    32
  0
VERTEX
  8
0
  5
2623
 10
291.192
 20
188.305
 30
0.000000
  70
    32
  0
VERTEX
  8
0
  5
2624
 10
291.169
 20
188.259
 30
0.000000
  70
    32
  0
VERTEX
  8
0
  5
2625
 10
291.144
 20
188.213
 30
0.000000
  70
    32
  0
VERTEX
  8
0
  5
2626
 10
291.118
 20
188.168
 30
0.000000
  70
    32
  0
VERTEX
  8
0
  5
2627
 10
291.090
 20
188.124
 30
0.000000
  70
    32
  0
VERTEX
  8
0
  5
2628
 10
291.062
 20
188.080
 30
0.000000
  70
    32
  0
VERTEX
  8
0
  5
2629
 10
291.032
 20
188.036
 30
0.000000
  70
    32
  0
VERTEX
  8
0
  5
262A
 10
291.001
 20
187.994
 30
0.000000
  70
    32
  0
VERTEX
  8
0
  5
262B
 10
290.969
 20
187.952
 30
0.000000
  70
    32
  0
VERTEX
  8
0
  5
262C
 10
290.936
 20
187.911
 30
0.000000
  70
    32
  0
VERTEX
  8
0
  5
262D
 10
290.902
 20
187.871
 30
0.000000
  70
    32
  0
VERTEX
  8
0
  5
262E
 10
290.867
 20
187.831
 30
0.000000
  70
    32
  0
VERTEX
  8
0
  5
262F
 10
290.830
 20
187.792
 30
0.000000
  70
    32
  0
VERTEX
  8
0
  5
2630
 10
290.793
 20
187.754
 30
0.000000
  70
    32
  0
VERTEX
  8
0
  5
2631
 10
290.754
 20
187.717
 30
0.000000
  70
    32
  0
VERTEX
  8
0
  5
2632
 10
290.715
 20
187.681
 30
0.000000
  70
    32
  0
VERTEX
  8
0
  5
2633
 10
290.675
 20
187.645
 30
0.000000
  70
    32
  0
VERTEX
  8
0
  5
2634
 10
290.633
 20
187.611
 30
0.000000
  70
    32
  0
VERTEX
  8
0
  5
2635
 10
290.591
 20
187.577
 30
0.000000
  70
    32
  0
VERTEX
  8
0
  5
2636
 10
290.548
 20
187.545
 30
0.000000
  70
    32
  0
VERTEX
  8
0
  5
2637
 10
290.503
 20
187.513
 30
0.000000
  70
    32
  0
VERTEX
  8
0
  5
2638
 10
290.458
 20
187.482
 30
0.000000
  70
    32
  0
VERTEX
  8
0
  5
2639
 10
290.413
 20
187.452
 30
0.000000
  70
    32
  0
VERTEX
  8
0
  5
263A
 10
290.366
 20
187.424
 30
0.000000
  70
    32
  0
VERTEX
  8
0
  5
263B
 10
290.319
 20
187.396
 30
0.000000
  70
    32
  0
VERTEX
  8
0
  5
263C
 10
290.270
 20
187.369
 30
0.000000
  70
    32
  0
VERTEX
  8
0
  5
263D
 10
290.222
 20
187.344
 30
0.000000
  70
    32
  0
VERTEX
  8
0
  5
263E
 10
290.172
 20
187.319
 30
0.000000
  70
    32
  0
VERTEX
  8
0
  5
263F
 10
290.122
 20
187.296
 30
0.000000
  70
    32
  0
VERTEX
  8
0
  5
2640
 10
290.071
 20
187.274
 30
0.000000
  70
    32
  0
VERTEX
  8
0
  5
2641
 10
290.020
 20
187.253
 30
0.000000
  70
    32
  0
VERTEX
  8
0
  5
2642
 10
289.968
 20
187.233
 30
0.000000
  70
    32
  0
VERTEX
  8
0
  5
2643
 10
289.915
 20
187.214
 30
0.000000
  70
    32
  0
VERTEX
  8
0
  5
2644
 10
289.862
 20
187.196
 30
0.000000
  70
    32
  0
VERTEX
  8
0
  5
2645
 10
289.809
 20
187.180
 30
0.000000
  70
    32
  0
VERTEX
  8
0
  5
2646
 10
289.755
 20
187.164
 30
0.000000
  70
    32
  0
VERTEX
  8
0
  5
2647
 10
289.701
 20
187.150
 30
0.000000
  70
    32
  0
VERTEX
  8
0
  5
2648
 10
289.646
 20
187.137
 30
0.000000
  70
    32
  0
VERTEX
  8
0
  5
2649
 10
289.591
 20
187.126
 30
0.000000
  70
    32
  0
VERTEX
  8
0
  5
264A
 10
289.536
 20
187.115
 30
0.000000
  70
    32
  0
VERTEX
  8
0
  5
264B
 10
289.480
 20
187.106
 30
0.000000
  70
    32
  0
VERTEX
  8
0
  5
264C
 10
289.424
 20
187.098
 30
0.000000
  70
    32
  0
VERTEX
  8
0
  5
264D
 10
289.368
 20
187.091
 30
0.000000
  70
    32
  0
VERTEX
  8
0
  5
264E
 10
289.312
 20
187.085
 30
0.000000
  70
    32
  0
VERTEX
  8
0
  5
264F
 10
289.256
 20
187.081
 30
0.000000
  70
    32
  0
VERTEX
  8
0
  5
2650
 10
289.199
 20
187.078
 30
0.000000
  70
    32
  0
VERTEX
  8
0
  5
2651
 10
289.143
 20
187.076
 30
0.000000
  70
    32
  0
VERTEX
  8
0
  5
2652
 10
289.086
 20
187.075
 30
0.000000
  70
    32
  0
SEQEND
  8
0
  5
2653
  0
POLYLINE
  5
1F52
  8
0
 10
306.58624568579864
 20
191.20933099816239
 30
0.0
 66
     1
 70
     8
  0
VERTEX
  8
0
  5
2654
 10
306.586
 20
191.209
 30
0.000000
  70
    32
  0
VERTEX
  8
0
  5
2655
 10
306.530
 20
191.209
 30
0.000000
  70
    32
  0
VERTEX
  8
0
  5
2656
 10
306.473
 20
191.207
 30
0.000000
  70
    32
  0
VERTEX
  8
0
  5
2657
 10
306.417
 20
191.204
 30
0.000000
  70
    32
  0
VERTEX
  8
0
  5
2658
 10
306.360
 20
191.199
 30
0.000000
  70
    32
  0
VERTEX
  8
0
  5
2659
 10
306.304
 20
191.194
 30
0.000000
  70
    32
  0
VERTEX
  8
0
  5
265A
 10
306.248
 20
191.187
 30
0.000000
  70
    32
  0
VERTEX
  8
0
  5
265B
 10
306.192
 20
191.179
 30
0.000000
  70
    32
  0
VERTEX
  8
0
  5
265C
 10
306.137
 20
191.170
 30
0.000000
  70
    32
  0
VERTEX
  8
0
  5
265D
 10
306.082
 20
191.159
 30
0.000000
  70
    32
  0
VERTEX
  8
0
  5
265E
 10
306.027
 20
191.147
 30
0.000000
  70
    32
  0
VERTEX
  8
0
  5
265F
 10
305.972
 20
191.134
 30
0.000000
  70
    32
  0
VERTEX
  8
0
  5
2660
 10
305.918
 20
191.120
 30
0.000000
  70
    32
  0
VERTEX
  8
0
  5
2661
 10
305.864
 20
191.105
 30
0.000000
  70
    32
  0
VERTEX
  8
0
  5
2662
 10
305.810
 20
191.089
 30
0.000000
  70
    32
  0
VERTEX
  8
0
  5
2663
 10
305.757
 20
191.071
 30
0.000000
  70
    32
  0
VERTEX
  8
0
  5
2664
 10
305.705
 20
191.052
 30
0.000000
  70
    32
  0
VERTEX
  8
0
  5
2665
 10
305.653
 20
191.032
 30
0.000000
  70
    32
  0
VERTEX
  8
0
  5
2666
 10
305.601
 20
191.011
 30
0.000000
  70
    32
  0
VERTEX
  8
0
  5
2667
 10
305.551
 20
190.989
 30
0.000000
  70
    32
  0
VERTEX
  8
0
  5
2668
 10
305.500
 20
190.965
 30
0.000000
  70
    32
  0
VERTEX
  8
0
  5
2669
 10
305.451
 20
190.941
 30
0.000000
  70
    32
  0
VERTEX
  8
0
  5
266A
 10
305.402
 20
190.915
 30
0.000000
  70
    32
  0
VERTEX
  8
0
  5
266B
 10
305.354
 20
190.889
 30
0.000000
  70
    32
  0
VERTEX
  8
0
  5
266C
 10
305.307
 20
190.861
 30
0.000000
  70
    32
  0
VERTEX
  8
0
  5
266D
 10
305.260
 20
190.832
 30
0.000000
  70
    32
  0
VERTEX
  8
0
  5
266E
 10
305.214
 20
190.803
 30
0.000000
  70
    32
  0
VERTEX
  8
0
  5
266F
 10
305.169
 20
190.772
 30
0.000000
  70
    32
  0
VERTEX
  8
0
  5
2670
 10
305.125
 20
190.740
 30
0.000000
  70
    32
  0
VERTEX
  8
0
  5
2671
 10
305.082
 20
190.707
 30
0.000000
  70
    32
  0
VERTEX
  8
0
  5
2672
 10
305.039
 20
190.674
 30
0.000000
  70
    32
  0
VERTEX
  8
0
  5
2673
 10
304.998
 20
190.639
 30
0.000000
  70
    32
  0
VERTEX
  8
0
  5
2674
 10
304.957
 20
190.604
 30
0.000000
  70
    32
  0
VERTEX
  8
0
  5
2675
 10
304.918
 20
190.568
 30
0.000000
  70
    32
  0
VERTEX
  8
0
  5
2676
 10
304.880
 20
190.530
 30
0.000000
  70
    32
  0
VERTEX
  8
0
  5
2677
 10
304.842
 20
190.492
 30
0.000000
  70
    32
  0
VERTEX
  8
0
  5
2678
 10
304.806
 20
190.454
 30
0.000000
  70
    32
  0
VERTEX
  8
0
  5
2679
 10
304.770
 20
190.414
 30
0.000000
  70
    32
  0
VERTEX
  8
0
  5
267A
 10
304.736
 20
190.374
 30
0.000000
  70
    32
  0
VERTEX
  8
0
  5
267B
 10
304.703
 20
190.333
 30
0.000000
  70
    32
  0
VERTEX
  8
0
  5
267C
 10
304.671
 20
190.291
 30
0.000000
  70
    32
  0
VERTEX
  8
0
  5
267D
 10
304.640
 20
190.248
 30
0.000000
  70
    32
  0
VERTEX
  8
0
  5
267E
 10
304.611
 20
190.205
 30
0.000000
  70
    32
  0
VERTEX
  8
0
  5
267F
 10
304.582
 20
190.161
 30
0.000000
  70
    32
  0
VERTEX
  8
0
  5
2680
 10
304.555
 20
190.117
 30
0.000000
  70
    32
  0
VERTEX
  8
0
  5
2681
 10
304.529
 20
190.072
 30
0.000000
  70
    32
  0
VERTEX
  8
0
  5
2682
 10
304.504
 20
190.026
 30
0.000000
  70
    32
  0
VERTEX
  8
0
  5
2683
 10
304.480
 20
189.980
 30
0.000000
  70
    32
  0
VERTEX
  8
0
  5
2684
 10
304.458
 20
189.933
 30
0.000000
  70
    32
  0
VERTEX
  8
0
  5
2685
 10
304.437
 20
189.886
 30
0.000000
  70
    32
  0
VERTEX
  8
0
  5
2686
 10
304.417
 20
189.839
 30
0.000000
  70
    32
  0
VERTEX
  8
0
  5
2687
 10
304.399
 20
189.791
 30
0.000000
  70
    32
  0
VERTEX
  8
0
  5
2688
 10
304.382
 20
189.742
 30
0.000000
  70
    32
  0
VERTEX
  8
0
  5
2689
 10
304.366
 20
189.694
 30
0.000000
  70
    32
  0
VERTEX
  8
0
  5
268A
 10
304.352
 20
189.645
 30
0.000000
  70
    32
  0
VERTEX
  8
0
  5
268B
 10
304.339
 20
189.595
 30
0.000000
  70
    32
  0
VERTEX
  8
0
  5
268C
 10
304.327
 20
189.546
 30
0.000000
  70
    32
  0
VERTEX
  8
0
  5
268D
 10
304.317
 20
189.496
 30
0.000000
  70
    32
  0
VERTEX
  8
0
  5
268E
 10
304.308
 20
189.446
 30
0.000000
  70
    32
  0
VERTEX
  8
0
  5
268F
 10
304.300
 20
189.395
 30
0.000000
  70
    32
  0
VERTEX
  8
0
  5
2690
 10
304.294
 20
189.345
 30
0.000000
  70
    32
  0
VERTEX
  8
0
  5
2691
 10
304.289
 20
189.294
 30
0.000000
  70
    32
  0
VERTEX
  8
0
  5
2692
 10
304.286
 20
189.244
 30
0.000000
  70
    32
  0
VERTEX
  8
0
  5
2693
 10
304.284
 20
189.193
 30
0.000000
  70
    32
  0
VERTEX
  8
0
  5
2694
 10
304.283
 20
189.142
 30
0.000000
  70
    32
  0
VERTEX
  8
0
  5
2695
 10
304.284
 20
189.092
 30
0.000000
  70
    32
  0
VERTEX
  8
0
  5
2696
 10
304.286
 20
189.041
 30
0.000000
  70
    32
  0
VERTEX
  8
0
  5
2697
 10
304.289
 20
188.990
 30
0.000000
  70
    32
  0
VERTEX
  8
0
  5
2698
 10
304.294
 20
188.940
 30
0.000000
  70
    32
  0
VERTEX
  8
0
  5
2699
 10
304.300
 20
188.889
 30
0.000000
  70
    32
  0
VERTEX
  8
0
  5
269A
 10
304.308
 20
188.839
 30
0.000000
  70
    32
  0
VERTEX
  8
0
  5
269B
 10
304.317
 20
188.789
 30
0.000000
  70
    32
  0
VERTEX
  8
0
  5
269C
 10
304.327
 20
188.739
 30
0.000000
  70
    32
  0
VERTEX
  8
0
  5
269D
 10
304.339
 20
188.689
 30
0.000000
  70
    32
  0
VERTEX
  8
0
  5
269E
 10
304.352
 20
188.640
 30
0.000000
  70
    32
  0
VERTEX
  8
0
  5
269F
 10
304.366
 20
188.591
 30
0.000000
  70
    32
  0
VERTEX
  8
0
  5
26A0
 10
304.382
 20
188.542
 30
0.000000
  70
    32
  0
VERTEX
  8
0
  5
26A1
 10
304.399
 20
188.494
 30
0.000000
  70
    32
  0
VERTEX
  8
0
  5
26A2
 10
304.417
 20
188.446
 30
0.000000
  70
    32
  0
VERTEX
  8
0
  5
26A3
 10
304.437
 20
188.398
 30
0.000000
  70
    32
  0
VERTEX
  8
0
  5
26A4
 10
304.458
 20
188.351
 30
0.000000
  70
    32
  0
VERTEX
  8
0
  5
26A5
 10
304.480
 20
188.305
 30
0.000000
  70
    32
  0
VERTEX
  8
0
  5
26A6
 10
304.504
 20
188.259
 30
0.000000
  70
    32
  0
VERTEX
  8
0
  5
26A7
 10
304.529
 20
188.213
 30
0.000000
  70
    32
  0
VERTEX
  8
0
  5
26A8
 10
304.555
 20
188.168
 30
0.000000
  70
    32
  0
VERTEX
  8
0
  5
26A9
 10
304.582
 20
188.124
 30
0.000000
  70
    32
  0
VERTEX
  8
0
  5
26AA
 10
304.611
 20
188.080
 30
0.000000
  70
    32
  0
VERTEX
  8
0
  5
26AB
 10
304.640
 20
188.036
 30
0.000000
  70
    32
  0
VERTEX
  8
0
  5
26AC
 10
304.671
 20
187.994
 30
0.000000
  70
    32
  0
VERTEX
  8
0
  5
26AD
 10
304.703
 20
187.952
 30
0.000000
  70
    32
  0
VERTEX
  8
0
  5
26AE
 10
304.736
 20
187.911
 30
0.000000
  70
    32
  0
VERTEX
  8
0
  5
26AF
 10
304.770
 20
187.871
 30
0.000000
  70
    32
  0
VERTEX
  8
0
  5
26B0
 10
304.806
 20
187.831
 30
0.000000
  70
    32
  0
VERTEX
  8
0
  5
26B1
 10
304.842
 20
187.792
 30
0.000000
  70
    32
  0
VERTEX
  8
0
  5
26B2
 10
304.880
 20
187.754
 30
0.000000
  70
    32
  0
VERTEX
  8
0
  5
26B3
 10
304.918
 20
187.717
 30
0.000000
  70
    32
  0
VERTEX
  8
0
  5
26B4
 10
304.957
 20
187.681
 30
0.000000
  70
    32
  0
VERTEX
  8
0
  5
26B5
 10
304.998
 20
187.645
 30
0.000000
  70
    32
  0
VERTEX
  8
0
  5
26B6
 10
305.039
 20
187.611
 30
0.000000
  70
    32
  0
VERTEX
  8
0
  5
26B7
 10
305.082
 20
187.577
 30
0.000000
  70
    32
  0
VERTEX
  8
0
  5
26B8
 10
305.125
 20
187.545
 30
0.000000
  70
    32
  0
VERTEX
  8
0
  5
26B9
 10
305.169
 20
187.513
 30
0.000000
  70
    32
  0
VERTEX
  8
0
  5
26BA
 10
305.214
 20
187.482
 30
0.000000
  70
    32
  0
VERTEX
  8
0
  5
26BB
 10
305.260
 20
187.452
 30
0.000000
  70
    32
  0
VERTEX
  8
0
  5
26BC
 10
305.307
 20
187.424
 30
0.000000
  70
    32
  0
VERTEX
  8
0
  5
26BD
 10
305.354
 20
187.396
 30
0.000000
  70
    32
  0
VERTEX
  8
0
  5
26BE
 10
305.402
 20
187.369
 30
0.000000
  70
    32
  0
VERTEX
  8
0
  5
26BF
 10
305.451
 20
187.344
 30
0.000000
  70
    32
  0
VERTEX
  8
0
  5
26C0
 10
305.500
 20
187.319
 30
0.000000
  70
    32
  0
VERTEX
  8
0
  5
26C1
 10
305.551
 20
187.296
 30
0.000000
  70
    32
  0
VERTEX
  8
0
  5
26C2
 10
305.601
 20
187.274
 30
0.000000
  70
    32
  0
VERTEX
  8
0
  5
26C3
 10
305.653
 20
187.253
 30
0.000000
  70
    32
  0
VERTEX
  8
0
  5
26C4
 10
305.705
 20
187.233
 30
0.000000
  70
    32
  0
VERTEX
  8
0
  5
26C5
 10
305.757
 20
187.214
 30
0.000000
  70
    32
  0
VERTEX
  8
0
  5
26C6
 10
305.810
 20
187.196
 30
0.000000
  70
    32
  0
VERTEX
  8
0
  5
26C7
 10
305.864
 20
187.180
 30
0.000000
  70
    32
  0
VERTEX
  8
0
  5
26C8
 10
305.918
 20
187.164
 30
0.000000
  70
    32
  0
VERTEX
  8
0
  5
26C9
 10
305.972
 20
187.150
 30
0.000000
  70
    32
  0
VERTEX
  8
0
  5
26CA
 10
306.027
 20
187.137
 30
0.000000
  70
    32
  0
VERTEX
  8
0
  5
26CB
 10
306.082
 20
187.126
 30
0.000000
  70
    32
  0
VERTEX
  8
0
  5
26CC
 10
306.137
 20
187.115
 30
0.000000
  70
    32
  0
VERTEX
  8
0
  5
26CD
 10
306.192
 20
187.106
 30
0.000000
  70
    32
  0
VERTEX
  8
0
  5
26CE
 10
306.248
 20
187.098
 30
0.000000
  70
    32
  0
VERTEX
  8
0
  5
26CF
 10
306.304
 20
187.091
 30
0.000000
  70
    32
  0
VERTEX
  8
0
  5
26D0
 10
306.360
 20
187.085
 30
0.000000
  70
    32
  0
VERTEX
  8
0
  5
26D1
 10
306.417
 20
187.081
 30
0.000000
  70
    32
  0
VERTEX
  8
0
  5
26D2
 10
306.473
 20
187.078
 30
0.000000
  70
    32
  0
VERTEX
  8
0
  5
26D3
 10
306.530
 20
187.076
 30
0.000000
  70
    32
  0
VERTEX
  8
0
  5
26D4
 10
306.586
 20
187.075
 30
0.000000
  70
    32
  0
SEQEND
  8
0
  5
26D5
  0
POLYLINE
  5
1F53
  8
0
 10
306.5862456857987
 20
187.07533099816243
 30
0.0
 66
     1
 70
     8
  0
VERTEX
  8
0
  5
26D6
 10
306.586
 20
187.075
 30
0.000000
  70
    32
  0
VERTEX
  8
0
  5
26D7
 10
306.618
 20
187.076
 30
0.000000
  70
    32
  0
VERTEX
  8
0
  5
26D8
 10
306.649
 20
187.078
 30
0.000000
  70
    32
  0
VERTEX
  8
0
  5
26D9
 10
306.680
 20
187.081
 30
0.000000
  70
    32
  0
VERTEX
  8
0
  5
26DA
 10
306.711
 20
187.085
 30
0.000000
  70
    32
  0
VERTEX
  8
0
  5
26DB
 10
306.743
 20
187.091
 30
0.000000
  70
    32
  0
VERTEX
  8
0
  5
26DC
 10
306.774
 20
187.098
 30
0.000000
  70
    32
  0
VERTEX
  8
0
  5
26DD
 10
306.805
 20
187.106
 30
0.000000
  70
    32
  0
VERTEX
  8
0
  5
26DE
 10
306.835
 20
187.115
 30
0.000000
  70
    32
  0
VERTEX
  8
0
  5
26DF
 10
306.866
 20
187.126
 30
0.000000
  70
    32
  0
VERTEX
  8
0
  5
26E0
 10
306.896
 20
187.137
 30
0.000000
  70
    32
  0
VERTEX
  8
0
  5
26E1
 10
306.927
 20
187.150
 30
0.000000
  70
    32
  0
VERTEX
  8
0
  5
26E2
 10
306.957
 20
187.164
 30
0.000000
  70
    32
  0
VERTEX
  8
0
  5
26E3
 10
306.987
 20
187.180
 30
0.000000
  70
    32
  0
VERTEX
  8
0
  5
26E4
 10
307.016
 20
187.196
 30
0.000000
  70
    32
  0
VERTEX
  8
0
  5
26E5
 10
307.046
 20
187.214
 30
0.000000
  70
    32
  0
VERTEX
  8
0
  5
26E6
 10
307.075
 20
187.233
 30
0.000000
  70
    32
  0
VERTEX
  8
0
  5
26E7
 10
307.104
 20
187.253
 30
0.000000
  70
    32
  0
VERTEX
  8
0
  5
26E8
 10
307.132
 20
187.274
 30
0.000000
  70
    32
  0
VERTEX
  8
0
  5
26E9
 10
307.160
 20
187.296
 30
0.000000
  70
    32
  0
VERTEX
  8
0
  5
26EA
 10
307.188
 20
187.319
 30
0.000000
  70
    32
  0
VERTEX
  8
0
  5
26EB
 10
307.216
 20
187.344
 30
0.000000
  70
    32
  0
VERTEX
  8
0
  5
26EC
 10
307.243
 20
187.369
 30
0.000000
  70
    32
  0
VERTEX
  8
0
  5
26ED
 10
307.269
 20
187.396
 30
0.000000
  70
    32
  0
VERTEX
  8
0
  5
26EE
 10
307.296
 20
187.424
 30
0.000000
  70
    32
  0
VERTEX
  8
0
  5
26EF
 10
307.321
 20
187.452
 30
0.000000
  70
    32
  0
VERTEX
  8
0
  5
26F0
 10
307.347
 20
187.482
 30
0.000000
  70
    32
  0
VERTEX
  8
0
  5
26F1
 10
307.372
 20
187.513
 30
0.000000
  70
    32
  0
VERTEX
  8
0
  5
26F2
 10
307.396
 20
187.545
 30
0.000000
  70
    32
  0
VERTEX
  8
0
  5
26F3
 10
307.420
 20
187.577
 30
0.000000
  70
    32
  0
VERTEX
  8
0
  5
26F4
 10
307.444
 20
187.611
 30
0.000000
  70
    32
  0
VERTEX
  8
0
  5
26F5
 10
307.467
 20
187.645
 30
0.000000
  70
    32
  0
VERTEX
  8
0
  5
26F6
 10
307.489
 20
187.681
 30
0.000000
  70
    32
  0
VERTEX
  8
0
  5
26F7
 10
307.511
 20
187.717
 30
0.000000
  70
    32
  0
VERTEX
  8
0
  5
26F8
 10
307.532
 20
187.754
 30
0.000000
  70
    32
  0
VERTEX
  8
0
  5
26F9
 10
307.553
 20
187.792
 30
0.000000
  70
    32
  0
VERTEX
  8
0
  5
26FA
 10
307.573
 20
187.831
 30
0.000000
  70
    32
  0
VERTEX
  8
0
  5
26FB
 10
307.593
 20
187.871
 30
0.000000
  70
    32
  0
VERTEX
  8
0
  5
26FC
 10
307.612
 20
187.911
 30
0.000000
  70
    32
  0
VERTEX
  8
0
  5
26FD
 10
307.630
 20
187.952
 30
0.000000
  70
    32
  0
VERTEX
  8
0
  5
26FE
 10
307.648
 20
187.994
 30
0.000000
  70
    32
  0
VERTEX
  8
0
  5
26FF
 10
307.665
 20
188.036
 30
0.000000
  70
    32
  0
VERTEX
  8
0
  5
2700
 10
307.681
 20
188.080
 30
0.000000
  70
    32
  0
VERTEX
  8
0
  5
2701
 10
307.697
 20
188.124
 30
0.000000
  70
    32
  0
VERTEX
  8
0
  5
2702
 10
307.712
 20
188.168
 30
0.000000
  70
    32
  0
VERTEX
  8
0
  5
2703
 10
307.727
 20
188.213
 30
0.000000
  70
    32
  0
VERTEX
  8
0
  5
2704
 10
307.740
 20
188.259
 30
0.000000
  70
    32
  0
VERTEX
  8
0
  5
2705
 10
307.753
 20
188.305
 30
0.000000
  70
    32
  0
VERTEX
  8
0
  5
2706
 10
307.766
 20
188.351
 30
0.000000
  70
    32
  0
VERTEX
  8
0
  5
2707
 10
307.777
 20
188.398
 30
0.000000
  70
    32
  0
VERTEX
  8
0
  5
2708
 10
307.788
 20
188.446
 30
0.000000
  70
    32
  0
VERTEX
  8
0
  5
2709
 10
307.799
 20
188.494
 30
0.000000
  70
    32
  0
VERTEX
  8
0
  5
270A
 10
307.808
 20
188.542
 30
0.000000
  70
    32
  0
VERTEX
  8
0
  5
270B
 10
307.817
 20
188.591
 30
0.000000
  70
    32
  0
VERTEX
  8
0
  5
270C
 10
307.825
 20
188.640
 30
0.000000
  70
    32
  0
VERTEX
  8
0
  5
270D
 10
307.832
 20
188.689
 30
0.000000
  70
    32
  0
VERTEX
  8
0
  5
270E
 10
307.838
 20
188.739
 30
0.000000
  70
    32
  0
VERTEX
  8
0
  5
270F
 10
307.844
 20
188.789
 30
0.000000
  70
    32
  0
VERTEX
  8
0
  5
2710
 10
307.849
 20
188.839
 30
0.000000
  70
    32
  0
VERTEX
  8
0
  5
2711
 10
307.853
 20
188.889
 30
0.000000
  70
    32
  0
VERTEX
  8
0
  5
2712
 10
307.857
 20
188.940
 30
0.000000
  70
    32
  0
VERTEX
  8
0
  5
2713
 10
307.860
 20
188.990
 30
0.000000
  70
    32
  0
VERTEX
  8
0
  5
2714
 10
307.861
 20
189.041
 30
0.000000
  70
    32
  0
VERTEX
  8
0
  5
2715
 10
307.863
 20
189.092
 30
0.000000
  70
    32
  0
VERTEX
  8
0
  5
2716
 10
307.863
 20
189.142
 30
0.000000
  70
    32
  0
VERTEX
  8
0
  5
2717
 10
307.863
 20
189.193
 30
0.000000
  70
    32
  0
VERTEX
  8
0
  5
2718
 10
307.861
 20
189.244
 30
0.000000
  70
    32
  0
VERTEX
  8
0
  5
2719
 10
307.860
 20
189.294
 30
0.000000
  70
    32
  0
VERTEX
  8
0
  5
271A
 10
307.857
 20
189.345
 30
0.000000
  70
    32
  0
VERTEX
  8
0
  5
271B
 10
307.853
 20
189.395
 30
0.000000
  70
    32
  0
VERTEX
  8
0
  5
271C
 10
307.849
 20
189.446
 30
0.000000
  70
    32
  0
VERTEX
  8
0
  5
271D
 10
307.844
 20
189.496
 30
0.000000
  70
    32
  0
VERTEX
  8
0
  5
271E
 10
307.838
 20
189.546
 30
0.000000
  70
    32
  0
VERTEX
  8
0
  5
271F
 10
307.832
 20
189.595
 30
0.000000
  70
    32
  0
VERTEX
  8
0
  5
2720
 10
307.825
 20
189.645
 30
0.000000
  70
    32
  0
VERTEX
  8
0
  5
2721
 10
307.817
 20
189.694
 30
0.000000
  70
    32
  0
VERTEX
  8
0
  5
2722
 10
307.808
 20
189.742
 30
0.000000
  70
    32
  0
VERTEX
  8
0
  5
2723
 10
307.799
 20
189.791
 30
0.000000
  70
    32
  0
VERTEX
  8
0
  5
2724
 10
307.788
 20
189.839
 30
0.000000
  70
    32
  0
VERTEX
  8
0
  5
2725
 10
307.777
 20
189.886
 30
0.000000
  70
    32
  0
VERTEX
  8
0
  5
2726
 10
307.766
 20
189.933
 30
0.000000
  70
    32
  0
VERTEX
  8
0
  5
2727
 10
307.753
 20
189.980
 30
0.000000
  70
    32
  0
VERTEX
  8
0
  5
2728
 10
307.740
 20
190.026
 30
0.000000
  70
    32
  0
VERTEX
  8
0
  5
2729
 10
307.727
 20
190.072
 30
0.000000
  70
    32
  0
VERTEX
  8
0
  5
272A
 10
307.712
 20
190.117
 30
0.000000
  70
    32
  0
VERTEX
  8
0
  5
272B
 10
307.697
 20
190.161
 30
0.000000
  70
    32
  0
VERTEX
  8
0
  5
272C
 10
307.681
 20
190.205
 30
0.000000
  70
    32
  0
VERTEX
  8
0
  5
272D
 10
307.665
 20
190.248
 30
0.000000
  70
    32
  0
VERTEX
  8
0
  5
272E
 10
307.648
 20
190.291
 30
0.000000
  70
    32
  0
VERTEX
  8
0
  5
272F
 10
307.630
 20
190.333
 30
0.000000
  70
    32
  0
VERTEX
  8
0
  5
2730
 10
307.612
 20
190.374
 30
0.000000
  70
    32
  0
VERTEX
  8
0
  5
2731
 10
307.593
 20
190.414
 30
0.000000
  70
    32
  0
VERTEX
  8
0
  5
2732
 10
307.573
 20
190.454
 30
0.000000
  70
    32
  0
VERTEX
  8
0
  5
2733
 10
307.553
 20
190.492
 30
0.000000
  70
    32
  0
VERTEX
  8
0
  5
2734
 10
307.532
 20
190.530
 30
0.000000
  70
    32
  0
VERTEX
  8
0
  5
2735
 10
307.511
 20
190.568
 30
0.000000
  70
    32
  0
VERTEX
  8
0
  5
2736
 10
307.489
 20
190.604
 30
0.000000
  70
    32
  0
VERTEX
  8
0
  5
2737
 10
307.467
 20
190.639
 30
0.000000
  70
    32
  0
VERTEX
  8
0
  5
2738
 10
307.444
 20
190.674
 30
0.000000
  70
    32
  0
VERTEX
  8
0
  5
2739
 10
307.420
 20
190.707
 30
0.000000
  70
    32
  0
VERTEX
  8
0
  5
273A
 10
307.396
 20
190.740
 30
0.000000
  70
    32
  0
VERTEX
  8
0
  5
273B
 10
307.372
 20
190.772
 30
0.000000
  70
    32
  0
VERTEX
  8
0
  5
273C
 10
307.347
 20
190.803
 30
0.000000
  70
    32
  0
VERTEX
  8
0
  5
273D
 10
307.321
 20
190.832
 30
0.000000
  70
    32
  0
VERTEX
  8
0
  5
273E
 10
307.296
 20
190.861
 30
0.000000
  70
    32
  0
VERTEX
  8
0
  5
273F
 10
307.269
 20
190.889
 30
0.000000
  70
    32
  0
VERTEX
  8
0
  5
2740
 10
307.243
 20
190.915
 30
0.000000
  70
    32
  0
VERTEX
  8
0
  5
2741
 10
307.216
 20
190.941
 30
0.000000
  70
    32
  0
VERTEX
  8
0
  5
2742
 10
307.188
 20
190.965
 30
0.000000
  70
    32
  0
VERTEX
  8
0
  5
2743
 10
307.160
 20
190.989
 30
0.000000
  70
    32
  0
VERTEX
  8
0
  5
2744
 10
307.132
 20
191.011
 30
0.000000
  70
    32
  0
VERTEX
  8
0
  5
2745
 10
307.104
 20
191.032
 30
0.000000
  70
    32
  0
VERTEX
  8
0
  5
2746
 10
307.075
 20
191.052
 30
0.000000
  70
    32
  0
VERTEX
  8
0
  5
2747
 10
307.046
 20
191.071
 30
0.000000
  70
    32
  0
VERTEX
  8
0
  5
2748
 10
307.016
 20
191.089
 30
0.000000
  70
    32
  0
VERTEX
  8
0
  5
2749
 10
306.987
 20
191.105
 30
0.000000
  70
    32
  0
VERTEX
  8
0
  5
274A
 10
306.957
 20
191.120
 30
0.000000
  70
    32
  0
VERTEX
  8
0
  5
274B
 10
306.927
 20
191.134
 30
0.000000
  70
    32
  0
VERTEX
  8
0
  5
274C
 10
306.896
 20
191.147
 30
0.000000
  70
    32
  0
VERTEX
  8
0
  5
274D
 10
306.866
 20
191.159
 30
0.000000
  70
    32
  0
VERTEX
  8
0
  5
274E
 10
306.835
 20
191.170
 30
0.000000
  70
    32
  0
VERTEX
  8
0
  5
274F
 10
306.805
 20
191.179
 30
0.000000
  70
    32
  0
VERTEX
  8
0
  5
2750
 10
306.774
 20
191.187
 30
0.000000
  70
    32
  0
VERTEX
  8
0
  5
2751
 10
306.743
 20
191.194
 30
0.000000
  70
    32
  0
VERTEX
  8
0
  5
2752
 10
306.711
 20
191.199
 30
0.000000
  70
    32
  0
VERTEX
  8
0
  5
2753
 10
306.680
 20
191.204
 30
0.000000
  70
    32
  0
VERTEX
  8
0
  5
2754
 10
306.649
 20
191.207
 30
0.000000
  70
    32
  0
VERTEX
  8
0
  5
2755
 10
306.618
 20
191.209
 30
0.000000
  70
    32
  0
VERTEX
  8
0
  5
2756
 10
306.586
 20
191.209
 30
0.000000
  70
    32
  0
SEQEND
  8
0
  5
2757
  0
POLYLINE
  5
1F54
  8
3
 10
306.58624568579864
 20
191.64233099816238
 30
0.0
 66
     1
 70
     8
  0
VERTEX
  8
3
  5
2758
 10
306.586
 20
191.642
 30
0.000000
  70
    32
  0
VERTEX
  8
3
  5
2759
 10
306.526
 20
191.642
 30
0.000000
  70
    32
  0
VERTEX
  8
3
  5
275A
 10
306.465
 20
191.639
 30
0.000000
  70
    32
  0
VERTEX
  8
3
  5
275B
 10
306.405
 20
191.636
 30
0.000000
  70
    32
  0
VERTEX
  8
3
  5
275C
 10
306.345
 20
191.630
 30
0.000000
  70
    32
  0
VERTEX
  8
3
  5
275D
 10
306.285
 20
191.624
 30
0.000000
  70
    32
  0
VERTEX
  8
3
  5
275E
 10
306.225
 20
191.615
 30
0.000000
  70
    32
  0
VERTEX
  8
3
  5
275F
 10
306.165
 20
191.606
 30
0.000000
  70
    32
  0
VERTEX
  8
3
  5
2760
 10
306.106
 20
191.594
 30
0.000000
  70
    32
  0
VERTEX
  8
3
  5
2761
 10
306.047
 20
191.582
 30
0.000000
  70
    32
  0
VERTEX
  8
3
  5
2762
 10
305.988
 20
191.567
 30
0.000000
  70
    32
  0
VERTEX
  8
3
  5
2763
 10
305.930
 20
191.552
 30
0.000000
  70
    32
  0
VERTEX
  8
3
  5
2764
 10
305.872
 20
191.535
 30
0.000000
  70
    32
  0
VERTEX
  8
3
  5
2765
 10
305.814
 20
191.516
 30
0.000000
  70
    32
  0
VERTEX
  8
3
  5
2766
 10
305.757
 20
191.496
 30
0.000000
  70
    32
  0
VERTEX
  8
3
  5
2767
 10
305.700
 20
191.475
 30
0.000000
  70
    32
  0
VERTEX
  8
3
  5
2768
 10
305.644
 20
191.452
 30
0.000000
  70
    32
  0
VERTEX
  8
3
  5
2769
 10
305.589
 20
191.428
 30
0.000000
  70
    32
  0
VERTEX
  8
3
  5
276A
 10
305.534
 20
191.402
 30
0.000000
  70
    32
  0
VERTEX
  8
3
  5
276B
 10
305.479
 20
191.375
 30
0.000000
  70
    32
  0
VERTEX
  8
3
  5
276C
 10
305.426
 20
191.347
 30
0.000000
  70
    32
  0
VERTEX
  8
3
  5
276D
 10
305.373
 20
191.318
 30
0.000000
  70
    32
  0
VERTEX
  8
3
  5
276E
 10
305.321
 20
191.287
 30
0.000000
  70
    32
  0
VERTEX
  8
3
  5
276F
 10
305.269
 20
191.254
 30
0.000000
  70
    32
  0
VERTEX
  8
3
  5
2770
 10
305.218
 20
191.221
 30
0.000000
  70
    32
  0
VERTEX
  8
3
  5
2771
 10
305.169
 20
191.186
 30
0.000000
  70
    32
  0
VERTEX
  8
3
  5
2772
 10
305.120
 20
191.150
 30
0.000000
  70
    32
  0
VERTEX
  8
3
  5
2773
 10
305.072
 20
191.113
 30
0.000000
  70
    32
  0
VERTEX
  8
3
  5
2774
 10
305.024
 20
191.075
 30
0.000000
  70
    32
  0
VERTEX
  8
3
  5
2775
 10
304.978
 20
191.035
 30
0.000000
  70
    32
  0
VERTEX
  8
3
  5
2776
 10
304.933
 20
190.995
 30
0.000000
  70
    32
  0
VERTEX
  8
3
  5
2777
 10
304.889
 20
190.953
 30
0.000000
  70
    32
  0
VERTEX
  8
3
  5
2778
 10
304.845
 20
190.910
 30
0.000000
  70
    32
  0
VERTEX
  8
3
  5
2779
 10
304.803
 20
190.866
 30
0.000000
  70
    32
  0
VERTEX
  8
3
  5
277A
 10
304.762
 20
190.821
 30
0.000000
  70
    32
  0
VERTEX
  8
3
  5
277B
 10
304.722
 20
190.775
 30
0.000000
  70
    32
  0
VERTEX
  8
3
  5
277C
 10
304.683
 20
190.728
 30
0.000000
  70
    32
  0
VERTEX
  8
3
  5
277D
 10
304.645
 20
190.680
 30
0.000000
  70
    32
  0
VERTEX
  8
3
  5
277E
 10
304.609
 20
190.632
 30
0.000000
  70
    32
  0
VERTEX
  8
3
  5
277F
 10
304.573
 20
190.582
 30
0.000000
  70
    32
  0
VERTEX
  8
3
  5
2780
 10
304.539
 20
190.531
 30
0.000000
  70
    32
  0
VERTEX
  8
3
  5
2781
 10
304.506
 20
190.480
 30
0.000000
  70
    32
  0
VERTEX
  8
3
  5
2782
 10
304.475
 20
190.428
 30
0.000000
  70
    32
  0
VERTEX
  8
3
  5
2783
 10
304.444
 20
190.375
 30
0.000000
  70
    32
  0
VERTEX
  8
3
  5
2784
 10
304.415
 20
190.321
 30
0.000000
  70
    32
  0
VERTEX
  8
3
  5
2785
 10
304.387
 20
190.266
 30
0.000000
  70
    32
  0
VERTEX
  8
3
  5
2786
 10
304.361
 20
190.211
 30
0.000000
  70
    32
  0
VERTEX
  8
3
  5
2787
 10
304.336
 20
190.155
 30
0.000000
  70
    32
  0
VERTEX
  8
3
  5
2788
 10
304.312
 20
190.099
 30
0.000000
  70
    32
  0
VERTEX
  8
3
  5
2789
 10
304.289
 20
190.042
 30
0.000000
  70
    32
  0
VERTEX
  8
3
  5
278A
 10
304.268
 20
189.985
 30
0.000000
  70
    32
  0
VERTEX
  8
3
  5
278B
 10
304.249
 20
189.927
 30
0.000000
  70
    32
  0
VERTEX
  8
3
  5
278C
 10
304.230
 20
189.868
 30
0.000000
  70
    32
  0
VERTEX
  8
3
  5
278D
 10
304.214
 20
189.809
 30
0.000000
  70
    32
  0
VERTEX
  8
3
  5
278E
 10
304.198
 20
189.750
 30
0.000000
  70
    32
  0
VERTEX
  8
3
  5
278F
 10
304.184
 20
189.690
 30
0.000000
  70
    32
  0
VERTEX
  8
3
  5
2790
 10
304.172
 20
189.630
 30
0.000000
  70
    32
  0
VERTEX
  8
3
  5
2791
 10
304.161
 20
189.570
 30
0.000000
  70
    32
  0
VERTEX
  8
3
  5
2792
 10
304.151
 20
189.509
 30
0.000000
  70
    32
  0
VERTEX
  8
3
  5
2793
 10
304.143
 20
189.448
 30
0.000000
  70
    32
  0
VERTEX
  8
3
  5
2794
 10
304.136
 20
189.387
 30
0.000000
  70
    32
  0
VERTEX
  8
3
  5
2795
 10
304.131
 20
189.326
 30
0.000000
  70
    32
  0
VERTEX
  8
3
  5
2796
 10
304.127
 20
189.265
 30
0.000000
  70
    32
  0
VERTEX
  8
3
  5
2797
 10
304.125
 20
189.204
 30
0.000000
  70
    32
  0
VERTEX
  8
3
  5
2798
 10
304.124
 20
189.142
 30
0.000000
  70
    32
  0
VERTEX
  8
3
  5
2799
 10
304.125
 20
189.081
 30
0.000000
  70
    32
  0
VERTEX
  8
3
  5
279A
 10
304.127
 20
189.020
 30
0.000000
  70
    32
  0
VERTEX
  8
3
  5
279B
 10
304.131
 20
188.958
 30
0.000000
  70
    32
  0
VERTEX
  8
3
  5
279C
 10
304.136
 20
188.897
 30
0.000000
  70
    32
  0
VERTEX
  8
3
  5
279D
 10
304.143
 20
188.836
 30
0.000000
  70
    32
  0
VERTEX
  8
3
  5
279E
 10
304.151
 20
188.776
 30
0.000000
  70
    32
  0
VERTEX
  8
3
  5
279F
 10
304.161
 20
188.715
 30
0.000000
  70
    32
  0
VERTEX
  8
3
  5
27A0
 10
304.172
 20
188.655
 30
0.000000
  70
    32
  0
VERTEX
  8
3
  5
27A1
 10
304.184
 20
188.595
 30
0.000000
  70
    32
  0
VERTEX
  8
3
  5
27A2
 10
304.198
 20
188.535
 30
0.000000
  70
    32
  0
VERTEX
  8
3
  5
27A3
 10
304.214
 20
188.476
 30
0.000000
  70
    32
  0
VERTEX
  8
3
  5
27A4
 10
304.230
 20
188.417
 30
0.000000
  70
    32
  0
VERTEX
  8
3
  5
27A5
 10
304.249
 20
188.358
 30
0.000000
  70
    32
  0
VERTEX
  8
3
  5
27A6
 10
304.268
 20
188.300
 30
0.000000
  70
    32
  0
VERTEX
  8
3
  5
27A7
 10
304.289
 20
188.243
 30
0.000000
  70
    32
  0
VERTEX
  8
3
  5
27A8
 10
304.312
 20
188.186
 30
0.000000
  70
    32
  0
VERTEX
  8
3
  5
27A9
 10
304.336
 20
188.129
 30
0.000000
  70
    32
  0
VERTEX
  8
3
  5
27AA
 10
304.361
 20
188.073
 30
0.000000
  70
    32
  0
VERTEX
  8
3
  5
27AB
 10
304.387
 20
188.018
 30
0.000000
  70
    32
  0
VERTEX
  8
3
  5
27AC
 10
304.415
 20
187.964
 30
0.000000
  70
    32
  0
VERTEX
  8
3
  5
27AD
 10
304.444
 20
187.910
 30
0.000000
  70
    32
  0
VERTEX
  8
3
  5
27AE
 10
304.475
 20
187.857
 30
0.000000
  70
    32
  0
VERTEX
  8
3
  5
27AF
 10
304.506
 20
187.805
 30
0.000000
  70
    32
  0
VERTEX
  8
3
  5
27B0
 10
304.539
 20
187.753
 30
0.000000
  70
    32
  0
VERTEX
  8
3
  5
27B1
 10
304.573
 20
187.703
 30
0.000000
  70
    32
  0
VERTEX
  8
3
  5
27B2
 10
304.609
 20
187.653
 30
0.000000
  70
    32
  0
VERTEX
  8
3
  5
27B3
 10
304.645
 20
187.604
 30
0.000000
  70
    32
  0
VERTEX
  8
3
  5
27B4
 10
304.683
 20
187.556
 30
0.000000
  70
    32
  0
VERTEX
  8
3
  5
27B5
 10
304.722
 20
187.509
 30
0.000000
  70
    32
  0
VERTEX
  8
3
  5
27B6
 10
304.762
 20
187.463
 30
0.000000
  70
    32
  0
VERTEX
  8
3
  5
27B7
 10
304.803
 20
187.418
 30
0.000000
  70
    32
  0
VERTEX
  8
3
  5
27B8
 10
304.845
 20
187.375
 30
0.000000
  70
    32
  0
VERTEX
  8
3
  5
27B9
 10
304.889
 20
187.332
 30
0.000000
  70
    32
  0
VERTEX
  8
3
  5
27BA
 10
304.933
 20
187.290
 30
0.000000
  70
    32
  0
VERTEX
  8
3
  5
27BB
 10
304.978
 20
187.249
 30
0.000000
  70
    32
  0
VERTEX
  8
3
  5
27BC
 10
305.024
 20
187.210
 30
0.000000
  70
    32
  0
VERTEX
  8
3
  5
27BD
 10
305.072
 20
187.171
 30
0.000000
  70
    32
  0
VERTEX
  8
3
  5
27BE
 10
305.120
 20
187.134
 30
0.000000
  70
    32
  0
VERTEX
  8
3
  5
27BF
 10
305.169
 20
187.098
 30
0.000000
  70
    32
  0
VERTEX
  8
3
  5
27C0
 10
305.218
 20
187.064
 30
0.000000
  70
    32
  0
VERTEX
  8
3
  5
27C1
 10
305.269
 20
187.030
 30
0.000000
  70
    32
  0
VERTEX
  8
3
  5
27C2
 10
305.321
 20
186.998
 30
0.000000
  70
    32
  0
VERTEX
  8
3
  5
27C3
 10
305.373
 20
186.967
 30
0.000000
  70
    32
  0
VERTEX
  8
3
  5
27C4
 10
305.426
 20
186.938
 30
0.000000
  70
    32
  0
VERTEX
  8
3
  5
27C5
 10
305.479
 20
186.909
 30
0.000000
  70
    32
  0
VERTEX
  8
3
  5
27C6
 10
305.534
 20
186.882
 30
0.000000
  70
    32
  0
VERTEX
  8
3
  5
27C7
 10
305.589
 20
186.857
 30
0.000000
  70
    32
  0
VERTEX
  8
3
  5
27C8
 10
305.644
 20
186.833
 30
0.000000
  70
    32
  0
VERTEX
  8
3
  5
27C9
 10
305.700
 20
186.810
 30
0.000000
  70
    32
  0
VERTEX
  8
3
  5
27CA
 10
305.757
 20
186.788
 30
0.000000
  70
    32
  0
VERTEX
  8
3
  5
27CB
 10
305.814
 20
186.769
 30
0.000000
  70
    32
  0
VERTEX
  8
3
  5
27CC
 10
305.872
 20
186.750
 30
0.000000
  70
    32
  0
VERTEX
  8
3
  5
27CD
 10
305.930
 20
186.733
 30
0.000000
  70
    32
  0
VERTEX
  8
3
  5
27CE
 10
305.988
 20
186.717
 30
0.000000
  70
    32
  0
VERTEX
  8
3
  5
27CF
 10
306.047
 20
186.703
 30
0.000000
  70
    32
  0
VERTEX
  8
3
  5
27D0
 10
306.106
 20
186.690
 30
0.000000
  70
    32
  0
VERTEX
  8
3
  5
27D1
 10
306.165
 20
186.679
 30
0.000000
  70
    32
  0
VERTEX
  8
3
  5
27D2
 10
306.225
 20
186.669
 30
0.000000
  70
    32
  0
VERTEX
  8
3
  5
27D3
 10
306.285
 20
186.661
 30
0.000000
  70
    32
  0
VERTEX
  8
3
  5
27D4
 10
306.345
 20
186.654
 30
0.000000
  70
    32
  0
VERTEX
  8
3
  5
27D5
 10
306.405
 20
186.649
 30
0.000000
  70
    32
  0
VERTEX
  8
3
  5
27D6
 10
306.465
 20
186.645
 30
0.000000
  70
    32
  0
VERTEX
  8
3
  5
27D7
 10
306.526
 20
186.643
 30
0.000000
  70
    32
  0
VERTEX
  8
3
  5
27D8
 10
306.586
 20
186.642
 30
0.000000
  70
    32
  0
SEQEND
  8
3
  5
27D9
  0
POLYLINE
  5
1F55
  8
3
 10
306.58624568579876
 20
186.64233099816244
 30
0.0
 66
     1
 70
     8
  0
VERTEX
  8
3
  5
27DA
 10
306.586
 20
186.642
 30
0.000000
  70
    32
  0
VERTEX
  8
3
  5
27DB
 10
306.632
 20
186.643
 30
0.000000
  70
    32
  0
VERTEX
  8
3
  5
27DC
 10
306.678
 20
186.645
 30
0.000000
  70
    32
  0
VERTEX
  8
3
  5
27DD
 10
306.724
 20
186.649
 30
0.000000
  70
    32
  0
VERTEX
  8
3
  5
27DE
 10
306.769
 20
186.654
 30
0.000000
  70
    32
  0
VERTEX
  8
3
  5
27DF
 10
306.815
 20
186.661
 30
0.000000
  70
    32
  0
VERTEX
  8
3
  5
27E0
 10
306.860
 20
186.669
 30
0.000000
  70
    32
  0
VERTEX
  8
3
  5
27E1
 10
306.906
 20
186.679
 30
0.000000
  70
    32
  0
VERTEX
  8
3
  5
27E2
 10
306.951
 20
186.690
 30
0.000000
  70
    32
  0
VERTEX
  8
3
  5
27E3
 10
306.996
 20
186.703
 30
0.000000
  70
    32
  0
VERTEX
  8
3
  5
27E4
 10
307.040
 20
186.717
 30
0.000000
  70
    32
  0
VERTEX
  8
3
  5
27E5
 10
307.085
 20
186.733
 30
0.000000
  70
    32
  0
VERTEX
  8
3
  5
27E6
 10
307.129
 20
186.750
 30
0.000000
  70
    32
  0
VERTEX
  8
3
  5
27E7
 10
307.172
 20
186.769
 30
0.000000
  70
    32
  0
VERTEX
  8
3
  5
27E8
 10
307.216
 20
186.788
 30
0.000000
  70
    32
  0
VERTEX
  8
3
  5
27E9
 10
307.259
 20
186.810
 30
0.000000
  70
    32
  0
VERTEX
  8
3
  5
27EA
 10
307.301
 20
186.833
 30
0.000000
  70
    32
  0
VERTEX
  8
3
  5
27EB
 10
307.343
 20
186.857
 30
0.000000
  70
    32
  0
VERTEX
  8
3
  5
27EC
 10
307.385
 20
186.882
 30
0.000000
  70
    32
  0
VERTEX
  8
3
  5
27ED
 10
307.426
 20
186.909
 30
0.000000
  70
    32
  0
VERTEX
  8
3
  5
27EE
 10
307.467
 20
186.938
 30
0.000000
  70
    32
  0
VERTEX
  8
3
  5
27EF
 10
307.507
 20
186.967
 30
0.000000
  70
    32
  0
VERTEX
  8
3
  5
27F0
 10
307.547
 20
186.998
 30
0.000000
  70
    32
  0
VERTEX
  8
3
  5
27F1
 10
307.586
 20
187.030
 30
0.000000
  70
    32
  0
VERTEX
  8
3
  5
27F2
 10
307.624
 20
187.064
 30
0.000000
  70
    32
  0
VERTEX
  8
3
  5
27F3
 10
307.662
 20
187.098
 30
0.000000
  70
    32
  0
VERTEX
  8
3
  5
27F4
 10
307.699
 20
187.134
 30
0.000000
  70
    32
  0
VERTEX
  8
3
  5
27F5
 10
307.736
 20
187.171
 30
0.000000
  70
    32
  0
VERTEX
  8
3
  5
27F6
 10
307.771
 20
187.210
 30
0.000000
  70
    32
  0
VERTEX
  8
3
  5
27F7
 10
307.807
 20
187.249
 30
0.000000
  70
    32
  0
VERTEX
  8
3
  5
27F8
 10
307.841
 20
187.290
 30
0.000000
  70
    32
  0
VERTEX
  8
3
  5
27F9
 10
307.874
 20
187.332
 30
0.000000
  70
    32
  0
VERTEX
  8
3
  5
27FA
 10
307.907
 20
187.375
 30
0.000000
  70
    32
  0
VERTEX
  8
3
  5
27FB
 10
307.939
 20
187.418
 30
0.000000
  70
    32
  0
VERTEX
  8
3
  5
27FC
 10
307.971
 20
187.463
 30
0.000000
  70
    32
  0
VERTEX
  8
3
  5
27FD
 10
308.001
 20
187.509
 30
0.000000
  70
    32
  0
VERTEX
  8
3
  5
27FE
 10
308.030
 20
187.556
 30
0.000000
  70
    32
  0
VERTEX
  8
3
  5
27FF
 10
308.059
 20
187.604
 30
0.000000
  70
    32
  0
VERTEX
  8
3
  5
2800
 10
308.087
 20
187.653
 30
0.000000
  70
    32
  0
VERTEX
  8
3
  5
2801
 10
308.114
 20
187.703
 30
0.000000
  70
    32
  0
VERTEX
  8
3
  5
2802
 10
308.140
 20
187.753
 30
0.000000
  70
    32
  0
VERTEX
  8
3
  5
2803
 10
308.165
 20
187.805
 30
0.000000
  70
    32
  0
VERTEX
  8
3
  5
2804
 10
308.189
 20
187.857
 30
0.000000
  70
    32
  0
VERTEX
  8
3
  5
2805
 10
308.212
 20
187.910
 30
0.000000
  70
    32
  0
VERTEX
  8
3
  5
2806
 10
308.234
 20
187.964
 30
0.000000
  70
    32
  0
VERTEX
  8
3
  5
2807
 10
308.255
 20
188.018
 30
0.000000
  70
    32
  0
VERTEX
  8
3
  5
2808
 10
308.275
 20
188.073
 30
0.000000
  70
    32
  0
VERTEX
  8
3
  5
2809
 10
308.294
 20
188.129
 30
0.000000
  70
    32
  0
VERTEX
  8
3
  5
280A
 10
308.312
 20
188.186
 30
0.000000
  70
    32
  0
VERTEX
  8
3
  5
280B
 10
308.329
 20
188.243
 30
0.000000
  70
    32
  0
VERTEX
  8
3
  5
280C
 10
308.345
 20
188.300
 30
0.000000
  70
    32
  0
VERTEX
  8
3
  5
280D
 10
308.360
 20
188.358
 30
0.000000
  70
    32
  0
VERTEX
  8
3
  5
280E
 10
308.374
 20
188.417
 30
0.000000
  70
    32
  0
VERTEX
  8
3
  5
280F
 10
308.387
 20
188.476
 30
0.000000
  70
    32
  0
VERTEX
  8
3
  5
2810
 10
308.398
 20
188.535
 30
0.000000
  70
    32
  0
VERTEX
  8
3
  5
2811
 10
308.409
 20
188.595
 30
0.000000
  70
    32
  0
VERTEX
  8
3
  5
2812
 10
308.419
 20
188.655
 30
0.000000
  70
    32
  0
VERTEX
  8
3
  5
2813
 10
308.427
 20
188.715
 30
0.000000
  70
    32
  0
VERTEX
  8
3
  5
2814
 10
308.434
 20
188.776
 30
0.000000
  70
    32
  0
VERTEX
  8
3
  5
2815
 10
308.440
 20
188.836
 30
0.000000
  70
    32
  0
VERTEX
  8
3
  5
2816
 10
308.445
 20
188.897
 30
0.000000
  70
    32
  0
VERTEX
  8
3
  5
2817
 10
308.449
 20
188.958
 30
0.000000
  70
    32
  0
VERTEX
  8
3
  5
2818
 10
308.452
 20
189.020
 30
0.000000
  70
    32
  0
VERTEX
  8
3
  5
2819
 10
308.454
 20
189.081
 30
0.000000
  70
    32
  0
VERTEX
  8
3
  5
281A
 10
308.454
 20
189.142
 30
0.000000
  70
    32
  0
VERTEX
  8
3
  5
281B
 10
308.454
 20
189.204
 30
0.000000
  70
    32
  0
VERTEX
  8
3
  5
281C
 10
308.452
 20
189.265
 30
0.000000
  70
    32
  0
VERTEX
  8
3
  5
281D
 10
308.449
 20
189.326
 30
0.000000
  70
    32
  0
VERTEX
  8
3
  5
281E
 10
308.445
 20
189.387
 30
0.000000
  70
    32
  0
VERTEX
  8
3
  5
281F
 10
308.440
 20
189.448
 30
0.000000
  70
    32
  0
VERTEX
  8
3
  5
2820
 10
308.434
 20
189.509
 30
0.000000
  70
    32
  0
VERTEX
  8
3
  5
2821
 10
308.427
 20
189.570
 30
0.000000
  70
    32
  0
VERTEX
  8
3
  5
2822
 10
308.419
 20
189.630
 30
0.000000
  70
    32
  0
VERTEX
  8
3
  5
2823
 10
308.409
 20
189.690
 30
0.000000
  70
    32
  0
VERTEX
  8
3
  5
2824
 10
308.398
 20
189.750
 30
0.000000
  70
    32
  0
VERTEX
  8
3
  5
2825
 10
308.387
 20
189.809
 30
0.000000
  70
    32
  0
VERTEX
  8
3
  5
2826
 10
308.374
 20
189.868
 30
0.000000
  70
    32
  0
VERTEX
  8
3
  5
2827
 10
308.360
 20
189.927
 30
0.000000
  70
    32
  0
VERTEX
  8
3
  5
2828
 10
308.345
 20
189.985
 30
0.000000
  70
    32
  0
VERTEX
  8
3
  5
2829
 10
308.329
 20
190.042
 30
0.000000
  70
    32
  0
VERTEX
  8
3
  5
282A
 10
308.312
 20
190.099
 30
0.000000
  70
    32
  0
VERTEX
  8
3
  5
282B
 10
308.294
 20
190.155
 30
0.000000
  70
    32
  0
VERTEX
  8
3
  5
282C
 10
308.275
 20
190.211
 30
0.000000
  70
    32
  0
VERTEX
  8
3
  5
282D
 10
308.255
 20
190.266
 30
0.000000
  70
    32
  0
VERTEX
  8
3
  5
282E
 10
308.234
 20
190.321
 30
0.000000
  70
    32
  0
VERTEX
  8
3
  5
282F
 10
308.212
 20
190.375
 30
0.000000
  70
    32
  0
VERTEX
  8
3
  5
2830
 10
308.189
 20
190.428
 30
0.000000
  70
    32
  0
VERTEX
  8
3
  5
2831
 10
308.165
 20
190.480
 30
0.000000
  70
    32
  0
VERTEX
  8
3
  5
2832
 10
308.140
 20
190.531
 30
0.000000
  70
    32
  0
VERTEX
  8
3
  5
2833
 10
308.114
 20
190.582
 30
0.000000
  70
    32
  0
VERTEX
  8
3
  5
2834
 10
308.087
 20
190.632
 30
0.000000
  70
    32
  0
VERTEX
  8
3
  5
2835
 10
308.059
 20
190.680
 30
0.000000
  70
    32
  0
VERTEX
  8
3
  5
2836
 10
308.030
 20
190.728
 30
0.000000
  70
    32
  0
VERTEX
  8
3
  5
2837
 10
308.001
 20
190.775
 30
0.000000
  70
    32
  0
VERTEX
  8
3
  5
2838
 10
307.971
 20
190.821
 30
0.000000
  70
    32
  0
VERTEX
  8
3
  5
2839
 10
307.939
 20
190.866
 30
0.000000
  70
    32
  0
VERTEX
  8
3
  5
283A
 10
307.907
 20
190.910
 30
0.000000
  70
    32
  0
VERTEX
  8
3
  5
283B
 10
307.874
 20
190.953
 30
0.000000
  70
    32
  0
VERTEX
  8
3
  5
283C
 10
307.841
 20
190.995
 30
0.000000
  70
    32
  0
VERTEX
  8
3
  5
283D
 10
307.807
 20
191.035
 30
0.000000
  70
    32
  0
VERTEX
  8
3
  5
283E
 10
307.771
 20
191.075
 30
0.000000
  70
    32
  0
VERTEX
  8
3
  5
283F
 10
307.736
 20
191.113
 30
0.000000
  70
    32
  0
VERTEX
  8
3
  5
2840
 10
307.699
 20
191.150
 30
0.000000
  70
    32
  0
VERTEX
  8
3
  5
2841
 10
307.662
 20
191.186
 30
0.000000
  70
    32
  0
VERTEX
  8
3
  5
2842
 10
307.624
 20
191.221
 30
0.000000
  70
    32
  0
VERTEX
  8
3
  5
2843
 10
307.586
 20
191.254
 30
0.000000
  70
    32
  0
VERTEX
  8
3
  5
2844
 10
307.547
 20
191.287
 30
0.000000
  70
    32
  0
VERTEX
  8
3
  5
2845
 10
307.507
 20
191.318
 30
0.000000
  70
    32
  0
VERTEX
  8
3
  5
2846
 10
307.467
 20
191.347
 30
0.000000
  70
    32
  0
VERTEX
  8
3
  5
2847
 10
307.426
 20
191.375
 30
0.000000
  70
    32
  0
VERTEX
  8
3
  5
2848
 10
307.385
 20
191.402
 30
0.000000
  70
    32
  0
VERTEX
  8
3
  5
2849
 10
307.343
 20
191.428
 30
0.000000
  70
    32
  0
VERTEX
  8
3
  5
284A
 10
307.301
 20
191.452
 30
0.000000
  70
    32
  0
VERTEX
  8
3
  5
284B
 10
307.259
 20
191.475
 30
0.000000
  70
    32
  0
VERTEX
  8
3
  5
284C
 10
307.216
 20
191.496
 30
0.000000
  70
    32
  0
VERTEX
  8
3
  5
284D
 10
307.172
 20
191.516
 30
0.000000
  70
    32
  0
VERTEX
  8
3
  5
284E
 10
307.129
 20
191.535
 30
0.000000
  70
    32
  0
VERTEX
  8
3
  5
284F
 10
307.085
 20
191.552
 30
0.000000
  70
    32
  0
VERTEX
  8
3
  5
2850
 10
307.040
 20
191.567
 30
0.000000
  70
    32
  0
VERTEX
  8
3
  5
2851
 10
306.996
 20
191.582
 30
0.000000
  70
    32
  0
VERTEX
  8
3
  5
2852
 10
306.951
 20
191.594
 30
0.000000
  70
    32
  0
VERTEX
  8
3
  5
2853
 10
306.906
 20
191.606
 30
0.000000
  70
    32
  0
VERTEX
  8
3
  5
2854
 10
306.860
 20
191.615
 30
0.000000
  70
    32
  0
VERTEX
  8
3
  5
2855
 10
306.815
 20
191.624
 30
0.000000
  70
    32
  0
VERTEX
  8
3
  5
2856
 10
306.769
 20
191.630
 30
0.000000
  70
    32
  0
VERTEX
  8
3
  5
2857
 10
306.724
 20
191.636
 30
0.000000
  70
    32
  0
VERTEX
  8
3
  5
2858
 10
306.678
 20
191.639
 30
0.000000
  70
    32
  0
VERTEX
  8
3
  5
2859
 10
306.632
 20
191.642
 30
0.000000
  70
    32
  0
VERTEX
  8
3
  5
285A
 10
306.586
 20
191.642
 30
0.000000
  70
    32
  0
SEQEND
  8
3
  5
285B
  0
POLYLINE
  5
1F56
  8
0
 10
307.08624562646179
 20
193.39233099816241
 30
0.0
 66
     1
 70
     8
  0
VERTEX
  8
0
  5
285C
 10
307.086
 20
193.392
 30
0.000000
  70
    32
  0
VERTEX
  8
0
  5
285D
 10
306.990
 20
193.391
 30
0.000000
  70
    32
  0
VERTEX
  8
0
  5
285E
 10
306.894
 20
193.387
 30
0.000000
  70
    32
  0
VERTEX
  8
0
  5
285F
 10
306.797
 20
193.381
 30
0.000000
  70
    32
  0
VERTEX
  8
0
  5
2860
 10
306.701
 20
193.372
 30
0.000000
  70
    32
  0
VERTEX
  8
0
  5
2861
 10
306.606
 20
193.360
 30
0.000000
  70
    32
  0
VERTEX
  8
0
  5
2862
 10
306.510
 20
193.346
 30
0.000000
  70
    32
  0
VERTEX
  8
0
  5
2863
 10
306.415
 20
193.330
 30
0.000000
  70
    32
  0
VERTEX
  8
0
  5
2864
 10
306.320
 20
193.311
 30
0.000000
  70
    32
  0
VERTEX
  8
0
  5
2865
 10
306.226
 20
193.289
 30
0.000000
  70
    32
  0
VERTEX
  8
0
  5
2866
 10
306.132
 20
193.265
 30
0.000000
  70
    32
  0
VERTEX
  8
0
  5
2867
 10
306.039
 20
193.238
 30
0.000000
  70
    32
  0
VERTEX
  8
0
  5
2868
 10
305.946
 20
193.209
 30
0.000000
  70
    32
  0
VERTEX
  8
0
  5
2869
 10
305.854
 20
193.178
 30
0.000000
  70
    32
  0
VERTEX
  8
0
  5
286A
 10
305.763
 20
193.144
 30
0.000000
  70
    32
  0
VERTEX
  8
0
  5
286B
 10
305.673
 20
193.108
 30
0.000000
  70
    32
  0
VERTEX
  8
0
  5
286C
 10
305.584
 20
193.069
 30
0.000000
  70
    32
  0
VERTEX
  8
0
  5
286D
 10
305.495
 20
193.028
 30
0.000000
  70
    32
  0
VERTEX
  8
0
  5
286E
 10
305.407
 20
192.984
 30
0.000000
  70
    32
  0
VERTEX
  8
0
  5
286F
 10
305.321
 20
192.939
 30
0.000000
  70
    32
  0
VERTEX
  8
0
  5
2870
 10
305.235
 20
192.890
 30
0.000000
  70
    32
  0
VERTEX
  8
0
  5
2871
 10
305.151
 20
192.840
 30
0.000000
  70
    32
  0
VERTEX
  8
0
  5
2872
 10
305.067
 20
192.788
 30
0.000000
  70
    32
  0
VERTEX
  8
0
  5
2873
 10
304.985
 20
192.733
 30
0.000000
  70
    32
  0
VERTEX
  8
0
  5
2874
 10
304.905
 20
192.676
 30
0.000000
  70
    32
  0
VERTEX
  8
0
  5
2875
 10
304.825
 20
192.617
 30
0.000000
  70
    32
  0
VERTEX
  8
0
  5
2876
 10
304.747
 20
192.556
 30
0.000000
  70
    32
  0
VERTEX
  8
0
  5
2877
 10
304.670
 20
192.493
 30
0.000000
  70
    32
  0
VERTEX
  8
0
  5
2878
 10
304.595
 20
192.428
 30
0.000000
  70
    32
  0
VERTEX
  8
0
  5
2879
 10
304.521
 20
192.360
 30
0.000000
  70
    32
  0
VERTEX
  8
0
  5
287A
 10
304.449
 20
192.291
 30
0.000000
  70
    32
  0
VERTEX
  8
0
  5
287B
 10
304.379
 20
192.220
 30
0.000000
  70
    32
  0
VERTEX
  8
0
  5
287C
 10
304.310
 20
192.148
 30
0.000000
  70
    32
  0
VERTEX
  8
0
  5
287D
 10
304.242
 20
192.073
 30
0.000000
  70
    32
  0
VERTEX
  8
0
  5
287E
 10
304.177
 20
191.996
 30
0.000000
  70
    32
  0
VERTEX
  8
0
  5
287F
 10
304.113
 20
191.918
 30
0.000000
  70
    32
  0
VERTEX
  8
0
  5
2880
 10
304.051
 20
191.839
 30
0.000000
  70
    32
  0
VERTEX
  8
0
  5
2881
 10
303.991
 20
191.757
 30
0.000000
  70
    32
  0
VERTEX
  8
0
  5
2882
 10
303.932
 20
191.674
 30
0.000000
  70
    32
  0
VERTEX
  8
0
  5
2883
 10
303.876
 20
191.590
 30
0.000000
  70
    32
  0
VERTEX
  8
0
  5
2884
 10
303.821
 20
191.504
 30
0.000000
  70
    32
  0
VERTEX
  8
0
  5
2885
 10
303.769
 20
191.416
 30
0.000000
  70
    32
  0
VERTEX
  8
0
  5
2886
 10
303.718
 20
191.327
 30
0.000000
  70
    32
  0
VERTEX
  8
0
  5
2887
 10
303.670
 20
191.237
 30
0.000000
  70
    32
  0
VERTEX
  8
0
  5
2888
 10
303.623
 20
191.146
 30
0.000000
  70
    32
  0
VERTEX
  8
0
  5
2889
 10
303.579
 20
191.053
 30
0.000000
  70
    32
  0
VERTEX
  8
0
  5
288A
 10
303.537
 20
190.959
 30
0.000000
  70
    32
  0
VERTEX
  8
0
  5
288B
 10
303.496
 20
190.865
 30
0.000000
  70
    32
  0
VERTEX
  8
0
  5
288C
 10
303.458
 20
190.769
 30
0.000000
  70
    32
  0
VERTEX
  8
0
  5
288D
 10
303.423
 20
190.672
 30
0.000000
  70
    32
  0
VERTEX
  8
0
  5
288E
 10
303.389
 20
190.574
 30
0.000000
  70
    32
  0
VERTEX
  8
0
  5
288F
 10
303.358
 20
190.475
 30
0.000000
  70
    32
  0
VERTEX
  8
0
  5
2890
 10
303.329
 20
190.376
 30
0.000000
  70
    32
  0
VERTEX
  8
0
  5
2891
 10
303.302
 20
190.276
 30
0.000000
  70
    32
  0
VERTEX
  8
0
  5
2892
 10
303.277
 20
190.175
 30
0.000000
  70
    32
  0
VERTEX
  8
0
  5
2893
 10
303.255
 20
190.074
 30
0.000000
  70
    32
  0
VERTEX
  8
0
  5
2894
 10
303.235
 20
189.971
 30
0.000000
  70
    32
  0
VERTEX
  8
0
  5
2895
 10
303.217
 20
189.869
 30
0.000000
  70
    32
  0
VERTEX
  8
0
  5
2896
 10
303.202
 20
189.766
 30
0.000000
  70
    32
  0
VERTEX
  8
0
  5
2897
 10
303.189
 20
189.663
 30
0.000000
  70
    32
  0
VERTEX
  8
0
  5
2898
 10
303.178
 20
189.559
 30
0.000000
  70
    32
  0
VERTEX
  8
0
  5
2899
 10
303.170
 20
189.455
 30
0.000000
  70
    32
  0
VERTEX
  8
0
  5
289A
 10
303.164
 20
189.351
 30
0.000000
  70
    32
  0
VERTEX
  8
0
  5
289B
 10
303.161
 20
189.247
 30
0.000000
  70
    32
  0
VERTEX
  8
0
  5
289C
 10
303.159
 20
189.142
 30
0.000000
  70
    32
  0
VERTEX
  8
0
  5
289D
 10
303.161
 20
189.038
 30
0.000000
  70
    32
  0
VERTEX
  8
0
  5
289E
 10
303.164
 20
188.934
 30
0.000000
  70
    32
  0
VERTEX
  8
0
  5
289F
 10
303.170
 20
188.830
 30
0.000000
  70
    32
  0
VERTEX
  8
0
  5
28A0
 10
303.178
 20
188.726
 30
0.000000
  70
    32
  0
VERTEX
  8
0
  5
28A1
 10
303.189
 20
188.622
 30
0.000000
  70
    32
  0
VERTEX
  8
0
  5
28A2
 10
303.202
 20
188.519
 30
0.000000
  70
    32
  0
VERTEX
  8
0
  5
28A3
 10
303.217
 20
188.416
 30
0.000000
  70
    32
  0
VERTEX
  8
0
  5
28A4
 10
303.235
 20
188.313
 30
0.000000
  70
    32
  0
VERTEX
  8
0
  5
28A5
 10
303.255
 20
188.211
 30
0.000000
  70
    32
  0
VERTEX
  8
0
  5
28A6
 10
303.277
 20
188.110
 30
0.000000
  70
    32
  0
VERTEX
  8
0
  5
28A7
 10
303.302
 20
188.009
 30
0.000000
  70
    32
  0
VERTEX
  8
0
  5
28A8
 10
303.329
 20
187.909
 30
0.000000
  70
    32
  0
VERTEX
  8
0
  5
28A9
 10
303.358
 20
187.809
 30
0.000000
  70
    32
  0
VERTEX
  8
0
  5
28AA
 10
303.389
 20
187.711
 30
0.000000
  70
    32
  0
VERTEX
  8
0
  5
28AB
 10
303.423
 20
187.613
 30
0.000000
  70
    32
  0
VERTEX
  8
0
  5
28AC
 10
303.458
 20
187.516
 30
0.000000
  70
    32
  0
VERTEX
  8
0
  5
28AD
 10
303.496
 20
187.420
 30
0.000000
  70
    32
  0
VERTEX
  8
0
  5
28AE
 10
303.537
 20
187.325
 30
0.000000
  70
    32
  0
VERTEX
  8
0
  5
28AF
 10
303.579
 20
187.231
 30
0.000000
  70
    32
  0
VERTEX
  8
0
  5
28B0
 10
303.623
 20
187.139
 30
0.000000
  70
    32
  0
VERTEX
  8
0
  5
28B1
 10
303.670
 20
187.048
 30
0.000000
  70
    32
  0
VERTEX
  8
0
  5
28B2
 10
303.718
 20
186.957
 30
0.000000
  70
    32
  0
VERTEX
  8
0
  5
28B3
 10
303.769
 20
186.869
 30
0.000000
  70
    32
  0
VERTEX
  8
0
  5
28B4
 10
303.821
 20
186.781
 30
0.000000
  70
    32
  0
VERTEX
  8
0
  5
28B5
 10
303.876
 20
186.695
 30
0.000000
  70
    32
  0
VERTEX
  8
0
  5
28B6
 10
303.932
 20
186.611
 30
0.000000
  70
    32
  0
VERTEX
  8
0
  5
28B7
 10
303.991
 20
186.528
 30
0.000000
  70
    32
  0
VERTEX
  8
0
  5
28B8
 10
304.051
 20
186.446
 30
0.000000
  70
    32
  0
VERTEX
  8
0
  5
28B9
 10
304.113
 20
186.366
 30
0.000000
  70
    32
  0
VERTEX
  8
0
  5
28BA
 10
304.177
 20
186.288
 30
0.000000
  70
    32
  0
VERTEX
  8
0
  5
28BB
 10
304.242
 20
186.212
 30
0.000000
  70
    32
  0
VERTEX
  8
0
  5
28BC
 10
304.310
 20
186.137
 30
0.000000
  70
    32
  0
VERTEX
  8
0
  5
28BD
 10
304.379
 20
186.064
 30
0.000000
  70
    32
  0
VERTEX
  8
0
  5
28BE
 10
304.449
 20
185.993
 30
0.000000
  70
    32
  0
VERTEX
  8
0
  5
28BF
 10
304.521
 20
185.924
 30
0.000000
  70
    32
  0
VERTEX
  8
0
  5
28C0
 10
304.595
 20
185.857
 30
0.000000
  70
    32
  0
VERTEX
  8
0
  5
28C1
 10
304.670
 20
185.792
 30
0.000000
  70
    32
  0
VERTEX
  8
0
  5
28C2
 10
304.747
 20
185.729
 30
0.000000
  70
    32
  0
VERTEX
  8
0
  5
28C3
 10
304.825
 20
185.668
 30
0.000000
  70
    32
  0
VERTEX
  8
0
  5
28C4
 10
304.905
 20
185.609
 30
0.000000
  70
    32
  0
VERTEX
  8
0
  5
28C5
 10
304.985
 20
185.552
 30
0.000000
  70
    32
  0
VERTEX
  8
0
  5
28C6
 10
305.067
 20
185.497
 30
0.000000
  70
    32
  0
VERTEX
  8
0
  5
28C7
 10
305.151
 20
185.444
 30
0.000000
  70
    32
  0
VERTEX
  8
0
  5
28C8
 10
305.235
 20
185.394
 30
0.000000
  70
    32
  0
VERTEX
  8
0
  5
28C9
 10
305.321
 20
185.346
 30
0.000000
  70
    32
  0
VERTEX
  8
0
  5
28CA
 10
305.407
 20
185.300
 30
0.000000
  70
    32
  0
VERTEX
  8
0
  5
28CB
 10
305.495
 20
185.257
 30
0.000000
  70
    32
  0
VERTEX
  8
0
  5
28CC
 10
305.584
 20
185.216
 30
0.000000
  70
    32
  0
VERTEX
  8
0
  5
28CD
 10
305.673
 20
185.177
 30
0.000000
  70
    32
  0
VERTEX
  8
0
  5
28CE
 10
305.763
 20
185.141
 30
0.000000
  70
    32
  0
VERTEX
  8
0
  5
28CF
 10
305.854
 20
185.107
 30
0.000000
  70
    32
  0
VERTEX
  8
0
  5
28D0
 10
305.946
 20
185.075
 30
0.000000
  70
    32
  0
VERTEX
  8
0
  5
28D1
 10
306.039
 20
185.046
 30
0.000000
  70
    32
  0
VERTEX
  8
0
  5
28D2
 10
306.132
 20
185.020
 30
0.000000
  70
    32
  0
VERTEX
  8
0
  5
28D3
 10
306.226
 20
184.996
 30
0.000000
  70
    32
  0
VERTEX
  8
0
  5
28D4
 10
306.320
 20
184.974
 30
0.000000
  70
    32
  0
VERTEX
  8
0
  5
28D5
 10
306.415
 20
184.955
 30
0.000000
  70
    32
  0
VERTEX
  8
0
  5
28D6
 10
306.510
 20
184.938
 30
0.000000
  70
    32
  0
VERTEX
  8
0
  5
28D7
 10
306.606
 20
184.924
 30
0.000000
  70
    32
  0
VERTEX
  8
0
  5
28D8
 10
306.701
 20
184.913
 30
0.000000
  70
    32
  0
VERTEX
  8
0
  5
28D9
 10
306.797
 20
184.904
 30
0.000000
  70
    32
  0
VERTEX
  8
0
  5
28DA
 10
306.894
 20
184.897
 30
0.000000
  70
    32
  0
VERTEX
  8
0
  5
28DB
 10
306.990
 20
184.894
 30
0.000000
  70
    32
  0
VERTEX
  8
0
  5
28DC
 10
307.086
 20
184.892
 30
0.000000
  70
    32
  0
SEQEND
  8
0
  5
28DD
  0
POLYLINE
  5
1F57
  8
0
 10
307.08624562646179
 20
184.89233099816241
 30
0.0
 66
     1
 70
     8
  0
VERTEX
  8
0
  5
28DE
 10
307.086
 20
184.892
 30
0.000000
  70
    32
  0
VERTEX
  8
0
  5
28DF
 10
307.171
 20
184.894
 30
0.000000
  70
    32
  0
VERTEX
  8
0
  5
28E0
 10
307.255
 20
184.897
 30
0.000000
  70
    32
  0
VERTEX
  8
0
  5
28E1
 10
307.339
 20
184.904
 30
0.000000
  70
    32
  0
VERTEX
  8
0
  5
28E2
 10
307.423
 20
184.913
 30
0.000000
  70
    32
  0
VERTEX
  8
0
  5
28E3
 10
307.507
 20
184.924
 30
0.000000
  70
    32
  0
VERTEX
  8
0
  5
28E4
 10
307.590
 20
184.938
 30
0.000000
  70
    32
  0
VERTEX
  8
0
  5
28E5
 10
307.673
 20
184.955
 30
0.000000
  70
    32
  0
VERTEX
  8
0
  5
28E6
 10
307.756
 20
184.974
 30
0.000000
  70
    32
  0
VERTEX
  8
0
  5
28E7
 10
307.838
 20
184.996
 30
0.000000
  70
    32
  0
VERTEX
  8
0
  5
28E8
 10
307.920
 20
185.020
 30
0.000000
  70
    32
  0
VERTEX
  8
0
  5
28E9
 10
308.002
 20
185.046
 30
0.000000
  70
    32
  0
VERTEX
  8
0
  5
28EA
 10
308.083
 20
185.075
 30
0.000000
  70
    32
  0
VERTEX
  8
0
  5
28EB
 10
308.163
 20
185.107
 30
0.000000
  70
    32
  0
VERTEX
  8
0
  5
28EC
 10
308.243
 20
185.141
 30
0.000000
  70
    32
  0
VERTEX
  8
0
  5
28ED
 10
308.322
 20
185.177
 30
0.000000
  70
    32
  0
VERTEX
  8
0
  5
28EE
 10
308.400
 20
185.216
 30
0.000000
  70
    32
  0
VERTEX
  8
0
  5
28EF
 10
308.478
 20
185.257
 30
0.000000
  70
    32
  0
VERTEX
  8
0
  5
28F0
 10
308.554
 20
185.300
 30
0.000000
  70
    32
  0
VERTEX
  8
0
  5
28F1
 10
308.630
 20
185.346
 30
0.000000
  70
    32
  0
VERTEX
  8
0
  5
28F2
 10
308.705
 20
185.394
 30
0.000000
  70
    32
  0
VERTEX
  8
0
  5
28F3
 10
308.778
 20
185.444
 30
0.000000
  70
    32
  0
VERTEX
  8
0
  5
28F4
 10
308.851
 20
185.497
 30
0.000000
  70
    32
  0
VERTEX
  8
0
  5
28F5
 10
308.923
 20
185.552
 30
0.000000
  70
    32
  0
VERTEX
  8
0
  5
28F6
 10
308.994
 20
185.609
 30
0.000000
  70
    32
  0
VERTEX
  8
0
  5
28F7
 10
309.063
 20
185.668
 30
0.000000
  70
    32
  0
VERTEX
  8
0
  5
28F8
 10
309.131
 20
185.729
 30
0.000000
  70
    32
  0
VERTEX
  8
0
  5
28F9
 10
309.198
 20
185.792
 30
0.000000
  70
    32
  0
VERTEX
  8
0
  5
28FA
 10
309.264
 20
185.857
 30
0.000000
  70
    32
  0
VERTEX
  8
0
  5
28FB
 10
309.329
 20
185.924
 30
0.000000
  70
    32
  0
VERTEX
  8
0
  5
28FC
 10
309.392
 20
185.993
 30
0.000000
  70
    32
  0
VERTEX
  8
0
  5
28FD
 10
309.454
 20
186.064
 30
0.000000
  70
    32
  0
VERTEX
  8
0
  5
28FE
 10
309.514
 20
186.137
 30
0.000000
  70
    32
  0
VERTEX
  8
0
  5
28FF
 10
309.573
 20
186.212
 30
0.000000
  70
    32
  0
VERTEX
  8
0
  5
2900
 10
309.630
 20
186.288
 30
0.000000
  70
    32
  0
VERTEX
  8
0
  5
2901
 10
309.686
 20
186.366
 30
0.000000
  70
    32
  0
VERTEX
  8
0
  5
2902
 10
309.740
 20
186.446
 30
0.000000
  70
    32
  0
VERTEX
  8
0
  5
2903
 10
309.793
 20
186.528
 30
0.000000
  70
    32
  0
VERTEX
  8
0
  5
2904
 10
309.844
 20
186.611
 30
0.000000
  70
    32
  0
VERTEX
  8
0
  5
2905
 10
309.893
 20
186.695
 30
0.000000
  70
    32
  0
VERTEX
  8
0
  5
2906
 10
309.941
 20
186.781
 30
0.000000
  70
    32
  0
VERTEX
  8
0
  5
2907
 10
309.987
 20
186.869
 30
0.000000
  70
    32
  0
VERTEX
  8
0
  5
2908
 10
310.031
 20
186.957
 30
0.000000
  70
    32
  0
VERTEX
  8
0
  5
2909
 10
310.073
 20
187.048
 30
0.000000
  70
    32
  0
VERTEX
  8
0
  5
290A
 10
310.114
 20
187.139
 30
0.000000
  70
    32
  0
VERTEX
  8
0
  5
290B
 10
310.153
 20
187.231
 30
0.000000
  70
    32
  0
VERTEX
  8
0
  5
290C
 10
310.190
 20
187.325
 30
0.000000
  70
    32
  0
VERTEX
  8
0
  5
290D
 10
310.225
 20
187.420
 30
0.000000
  70
    32
  0
VERTEX
  8
0
  5
290E
 10
310.258
 20
187.516
 30
0.000000
  70
    32
  0
VERTEX
  8
0
  5
290F
 10
310.289
 20
187.613
 30
0.000000
  70
    32
  0
VERTEX
  8
0
  5
2910
 10
310.319
 20
187.711
 30
0.000000
  70
    32
  0
VERTEX
  8
0
  5
2911
 10
310.346
 20
187.809
 30
0.000000
  70
    32
  0
VERTEX
  8
0
  5
2912
 10
310.372
 20
187.909
 30
0.000000
  70
    32
  0
VERTEX
  8
0
  5
2913
 10
310.395
 20
188.009
 30
0.000000
  70
    32
  0
VERTEX
  8
0
  5
2914
 10
310.417
 20
188.110
 30
0.000000
  70
    32
  0
VERTEX
  8
0
  5
2915
 10
310.436
 20
188.211
 30
0.000000
  70
    32
  0
VERTEX
  8
0
  5
2916
 10
310.453
 20
188.313
 30
0.000000
  70
    32
  0
VERTEX
  8
0
  5
2917
 10
310.469
 20
188.416
 30
0.000000
  70
    32
  0
VERTEX
  8
0
  5
2918
 10
310.482
 20
188.519
 30
0.000000
  70
    32
  0
VERTEX
  8
0
  5
2919
 10
310.494
 20
188.622
 30
0.000000
  70
    32
  0
VERTEX
  8
0
  5
291A
 10
310.503
 20
188.726
 30
0.000000
  70
    32
  0
VERTEX
  8
0
  5
291B
 10
310.510
 20
188.830
 30
0.000000
  70
    32
  0
VERTEX
  8
0
  5
291C
 10
310.515
 20
188.934
 30
0.000000
  70
    32
  0
VERTEX
  8
0
  5
291D
 10
310.518
 20
189.038
 30
0.000000
  70
    32
  0
VERTEX
  8
0
  5
291E
 10
310.519
 20
189.142
 30
0.000000
  70
    32
  0
VERTEX
  8
0
  5
291F
 10
310.518
 20
189.247
 30
0.000000
  70
    32
  0
VERTEX
  8
0
  5
2920
 10
310.515
 20
189.351
 30
0.000000
  70
    32
  0
VERTEX
  8
0
  5
2921
 10
310.510
 20
189.455
 30
0.000000
  70
    32
  0
VERTEX
  8
0
  5
2922
 10
310.503
 20
189.559
 30
0.000000
  70
    32
  0
VERTEX
  8
0
  5
2923
 10
310.494
 20
189.663
 30
0.000000
  70
    32
  0
VERTEX
  8
0
  5
2924
 10
310.482
 20
189.766
 30
0.000000
  70
    32
  0
VERTEX
  8
0
  5
2925
 10
310.469
 20
189.869
 30
0.000000
  70
    32
  0
VERTEX
  8
0
  5
2926
 10
310.453
 20
189.971
 30
0.000000
  70
    32
  0
VERTEX
  8
0
  5
2927
 10
310.436
 20
190.074
 30
0.000000
  70
    32
  0
VERTEX
  8
0
  5
2928
 10
310.417
 20
190.175
 30
0.000000
  70
    32
  0
VERTEX
  8
0
  5
2929
 10
310.395
 20
190.276
 30
0.000000
  70
    32
  0
VERTEX
  8
0
  5
292A
 10
310.372
 20
190.376
 30
0.000000
  70
    32
  0
VERTEX
  8
0
  5
292B
 10
310.346
 20
190.475
 30
0.000000
  70
    32
  0
VERTEX
  8
0
  5
292C
 10
310.319
 20
190.574
 30
0.000000
  70
    32
  0
VERTEX
  8
0
  5
292D
 10
310.289
 20
190.672
 30
0.000000
  70
    32
  0
VERTEX
  8
0
  5
292E
 10
310.258
 20
190.769
 30
0.000000
  70
    32
  0
VERTEX
  8
0
  5
292F
 10
310.225
 20
190.865
 30
0.000000
  70
    32
  0
VERTEX
  8
0
  5
2930
 10
310.190
 20
190.959
 30
0.000000
  70
    32
  0
VERTEX
  8
0
  5
2931
 10
310.153
 20
191.053
 30
0.000000
  70
    32
  0
VERTEX
  8
0
  5
2932
 10
310.114
 20
191.146
 30
0.000000
  70
    32
  0
VERTEX
  8
0
  5
2933
 10
310.073
 20
191.237
 30
0.000000
  70
    32
  0
VERTEX
  8
0
  5
2934
 10
310.031
 20
191.327
 30
0.000000
  70
    32
  0
VERTEX
  8
0
  5
2935
 10
309.987
 20
191.416
 30
0.000000
  70
    32
  0
VERTEX
  8
0
  5
2936
 10
309.941
 20
191.504
 30
0.000000
  70
    32
  0
VERTEX
  8
0
  5
2937
 10
309.893
 20
191.590
 30
0.000000
  70
    32
  0
VERTEX
  8
0
  5
2938
 10
309.844
 20
191.674
 30
0.000000
  70
    32
  0
VERTEX
  8
0
  5
2939
 10
309.793
 20
191.757
 30
0.000000
  70
    32
  0
VERTEX
  8
0
  5
293A
 10
309.740
 20
191.839
 30
0.000000
  70
    32
  0
VERTEX
  8
0
  5
293B
 10
309.686
 20
191.918
 30
0.000000
  70
    32
  0
VERTEX
  8
0
  5
293C
 10
309.630
 20
191.996
 30
0.000000
  70
    32
  0
VERTEX
  8
0
  5
293D
 10
309.573
 20
192.073
 30
0.000000
  70
    32
  0
VERTEX
  8
0
  5
293E
 10
309.514
 20
192.148
 30
0.000000
  70
    32
  0
VERTEX
  8
0
  5
293F
 10
309.454
 20
192.220
 30
0.000000
  70
    32
  0
VERTEX
  8
0
  5
2940
 10
309.392
 20
192.291
 30
0.000000
  70
    32
  0
VERTEX
  8
0
  5
2941
 10
309.329
 20
192.360
 30
0.000000
  70
    32
  0
VERTEX
  8
0
  5
2942
 10
309.264
 20
192.428
 30
0.000000
  70
    32
  0
VERTEX
  8
0
  5
2943
 10
309.198
 20
192.493
 30
0.000000
  70
    32
  0
VERTEX
  8
0
  5
2944
 10
309.131
 20
192.556
 30
0.000000
  70
    32
  0
VERTEX
  8
0
  5
2945
 10
309.063
 20
192.617
 30
0.000000
  70
    32
  0
VERTEX
  8
0
  5
2946
 10
308.994
 20
192.676
 30
0.000000
  70
    32
  0
VERTEX
  8
0
  5
2947
 10
308.923
 20
192.733
 30
0.000000
  70
    32
  0
VERTEX
  8
0
  5
2948
 10
308.851
 20
192.788
 30
0.000000
  70
    32
  0
VERTEX
  8
0
  5
2949
 10
308.778
 20
192.840
 30
0.000000
  70
    32
  0
VERTEX
  8
0
  5
294A
 10
308.705
 20
192.890
 30
0.000000
  70
    32
  0
VERTEX
  8
0
  5
294B
 10
308.630
 20
192.939
 30
0.000000
  70
    32
  0
VERTEX
  8
0
  5
294C
 10
308.554
 20
192.984
 30
0.000000
  70
    32
  0
VERTEX
  8
0
  5
294D
 10
308.478
 20
193.028
 30
0.000000
  70
    32
  0
VERTEX
  8
0
  5
294E
 10
308.400
 20
193.069
 30
0.000000
  70
    32
  0
VERTEX
  8
0
  5
294F
 10
308.322
 20
193.108
 30
0.000000
  70
    32
  0
VERTEX
  8
0
  5
2950
 10
308.243
 20
193.144
 30
0.000000
  70
    32
  0
VERTEX
  8
0
  5
2951
 10
308.163
 20
193.178
 30
0.000000
  70
    32
  0
VERTEX
  8
0
  5
2952
 10
308.083
 20
193.209
 30
0.000000
  70
    32
  0
VERTEX
  8
0
  5
2953
 10
308.002
 20
193.238
 30
0.000000
  70
    32
  0
VERTEX
  8
0
  5
2954
 10
307.920
 20
193.265
 30
0.000000
  70
    32
  0
VERTEX
  8
0
  5
2955
 10
307.838
 20
193.289
 30
0.000000
  70
    32
  0
VERTEX
  8
0
  5
2956
 10
307.756
 20
193.311
 30
0.000000
  70
    32
  0
VERTEX
  8
0
  5
2957
 10
307.673
 20
193.330
 30
0.000000
  70
    32
  0
VERTEX
  8
0
  5
2958
 10
307.590
 20
193.346
 30
0.000000
  70
    32
  0
VERTEX
  8
0
  5
2959
 10
307.507
 20
193.360
 30
0.000000
  70
    32
  0
VERTEX
  8
0
  5
295A
 10
307.423
 20
193.372
 30
0.000000
  70
    32
  0
VERTEX
  8
0
  5
295B
 10
307.339
 20
193.381
 30
0.000000
  70
    32
  0
VERTEX
  8
0
  5
295C
 10
307.255
 20
193.387
 30
0.000000
  70
    32
  0
VERTEX
  8
0
  5
295D
 10
307.171
 20
193.391
 30
0.000000
  70
    32
  0
VERTEX
  8
0
  5
295E
 10
307.086
 20
193.392
 30
0.000000
  70
    32
  0
SEQEND
  8
0
  5
295F
  0
CIRCLE
  5
1F58
  8
0
 10
297.8362456264619
 20
189.14233099816241
 30
0.0
 40
2.0670000000002342
  0
CIRCLE
  5
1F59
  8
3
 10
297.8362456264619
 20
189.14233099816241
 30
0.0
 40
2.5
  0
POLYLINE
  5
1F5A
  8
0
 10
293.58624539549396
 20
189.14233099816241
 30
0.0
 66
     1
 70
     8
  0
VERTEX
  8
0
  5
2960
 10
293.586
 20
189.142
 30
0.000000
  70
    32
  0
VERTEX
  8
0
  5
2961
 10
293.591
 20
188.934
 30
0.000000
  70
    32
  0
VERTEX
  8
0
  5
2962
 10
293.607
 20
188.726
 30
0.000000
  70
    32
  0
VERTEX
  8
0
  5
2963
 10
293.632
 20
188.519
 30
0.000000
  70
    32
  0
VERTEX
  8
0
  5
2964
 10
293.668
 20
188.313
 30
0.000000
  70
    32
  0
VERTEX
  8
0
  5
2965
 10
293.714
 20
188.110
 30
0.000000
  70
    32
  0
VERTEX
  8
0
  5
2966
 10
293.769
 20
187.909
 30
0.000000
  70
    32
  0
VERTEX
  8
0
  5
2967
 10
293.835
 20
187.711
 30
0.000000
  70
    32
  0
VERTEX
  8
0
  5
2968
 10
293.910
 20
187.516
 30
0.000000
  70
    32
  0
VERTEX
  8
0
  5
2969
 10
293.994
 20
187.325
 30
0.000000
  70
    32
  0
VERTEX
  8
0
  5
296A
 10
294.088
 20
187.139
 30
0.000000
  70
    32
  0
VERTEX
  8
0
  5
296B
 10
294.191
 20
186.957
 30
0.000000
  70
    32
  0
VERTEX
  8
0
  5
296C
 10
294.302
 20
186.781
 30
0.000000
  70
    32
  0
VERTEX
  8
0
  5
296D
 10
294.423
 20
186.611
 30
0.000000
  70
    32
  0
VERTEX
  8
0
  5
296E
 10
294.551
 20
186.446
 30
0.000000
  70
    32
  0
VERTEX
  8
0
  5
296F
 10
294.687
 20
186.288
 30
0.000000
  70
    32
  0
VERTEX
  8
0
  5
2970
 10
294.831
 20
186.137
 30
0.000000
  70
    32
  0
VERTEX
  8
0
  5
2971
 10
294.982
 20
185.993
 30
0.000000
  70
    32
  0
VERTEX
  8
0
  5
2972
 10
295.140
 20
185.857
 30
0.000000
  70
    32
  0
VERTEX
  8
0
  5
2973
 10
295.305
 20
185.729
 30
0.000000
  70
    32
  0
VERTEX
  8
0
  5
2974
 10
295.475
 20
185.609
 30
0.000000
  70
    32
  0
VERTEX
  8
0
  5
2975
 10
295.651
 20
185.497
 30
0.000000
  70
    32
  0
VERTEX
  8
0
  5
2976
 10
295.833
 20
185.394
 30
0.000000
  70
    32
  0
VERTEX
  8
0
  5
2977
 10
296.019
 20
185.300
 30
0.000000
  70
    32
  0
VERTEX
  8
0
  5
2978
 10
296.210
 20
185.216
 30
0.000000
  70
    32
  0
VERTEX
  8
0
  5
2979
 10
296.404
 20
185.141
 30
0.000000
  70
    32
  0
VERTEX
  8
0
  5
297A
 10
296.603
 20
185.075
 30
0.000000
  70
    32
  0
VERTEX
  8
0
  5
297B
 10
296.804
 20
185.020
 30
0.000000
  70
    32
  0
VERTEX
  8
0
  5
297C
 10
297.007
 20
184.974
 30
0.000000
  70
    32
  0
VERTEX
  8
0
  5
297D
 10
297.213
 20
184.938
 30
0.000000
  70
    32
  0
VERTEX
  8
0
  5
297E
 10
297.420
 20
184.913
 30
0.000000
  70
    32
  0
VERTEX
  8
0
  5
297F
 10
297.628
 20
184.897
 30
0.000000
  70
    32
  0
VERTEX
  8
0
  5
2980
 10
297.836
 20
184.892
 30
0.000000
  70
    32
  0
VERTEX
  8
0
  5
2981
 10
298.045
 20
184.897
 30
0.000000
  70
    32
  0
VERTEX
  8
0
  5
2982
 10
298.253
 20
184.913
 30
0.000000
  70
    32
  0
VERTEX
  8
0
  5
2983
 10
298.460
 20
184.938
 30
0.000000
  70
    32
  0
VERTEX
  8
0
  5
2984
 10
298.665
 20
184.974
 30
0.000000
  70
    32
  0
VERTEX
  8
0
  5
2985
 10
298.869
 20
185.020
 30
0.000000
  70
    32
  0
VERTEX
  8
0
  5
2986
 10
299.070
 20
185.075
 30
0.000000
  70
    32
  0
VERTEX
  8
0
  5
2987
 10
299.268
 20
185.141
 30
0.000000
  70
    32
  0
VERTEX
  8
0
  5
2988
 10
299.463
 20
185.216
 30
0.000000
  70
    32
  0
VERTEX
  8
0
  5
2989
 10
299.653
 20
185.300
 30
0.000000
  70
    32
  0
VERTEX
  8
0
  5
298A
 10
299.840
 20
185.394
 30
0.000000
  70
    32
  0
VERTEX
  8
0
  5
298B
 10
300.021
 20
185.497
 30
0.000000
  70
    32
  0
VERTEX
  8
0
  5
298C
 10
300.197
 20
185.609
 30
0.000000
  70
    32
  0
VERTEX
  8
0
  5
298D
 10
300.368
 20
185.729
 30
0.000000
  70
    32
  0
VERTEX
  8
0
  5
298E
 10
300.532
 20
185.857
 30
0.000000
  70
    32
  0
VERTEX
  8
0
  5
298F
 10
300.690
 20
185.993
 30
0.000000
  70
    32
  0
VERTEX
  8
0
  5
2990
 10
300.841
 20
186.137
 30
0.000000
  70
    32
  0
VERTEX
  8
0
  5
2991
 10
300.985
 20
186.288
 30
0.000000
  70
    32
  0
VERTEX
  8
0
  5
2992
 10
301.122
 20
186.446
 30
0.000000
  70
    32
  0
VERTEX
  8
0
  5
2993
 10
301.250
 20
186.611
 30
0.000000
  70
    32
  0
VERTEX
  8
0
  5
2994
 10
301.370
 20
186.781
 30
0.000000
  70
    32
  0
VERTEX
  8
0
  5
2995
 10
301.482
 20
186.957
 30
0.000000
  70
    32
  0
VERTEX
  8
0
  5
2996
 10
301.584
 20
187.139
 30
0.000000
  70
    32
  0
VERTEX
  8
0
  5
2997
 10
301.678
 20
187.325
 30
0.000000
  70
    32
  0
VERTEX
  8
0
  5
2998
 10
301.763
 20
187.516
 30
0.000000
  70
    32
  0
VERTEX
  8
0
  5
2999
 10
301.838
 20
187.711
 30
0.000000
  70
    32
  0
VERTEX
  8
0
  5
299A
 10
301.903
 20
187.909
 30
0.000000
  70
    32
  0
VERTEX
  8
0
  5
299B
 10
301.959
 20
188.110
 30
0.000000
  70
    32
  0
VERTEX
  8
0
  5
299C
 10
302.005
 20
188.313
 30
0.000000
  70
    32
  0
VERTEX
  8
0
  5
299D
 10
302.040
 20
188.519
 30
0.000000
  70
    32
  0
VERTEX
  8
0
  5
299E
 10
302.066
 20
188.726
 30
0.000000
  70
    32
  0
VERTEX
  8
0
  5
299F
 10
302.081
 20
188.934
 30
0.000000
  70
    32
  0
VERTEX
  8
0
  5
29A0
 10
302.086
 20
189.142
 30
0.000000
  70
    32
  0
VERTEX
  8
0
  5
29A1
 10
302.081
 20
189.351
 30
0.000000
  70
    32
  0
VERTEX
  8
0
  5
29A2
 10
302.066
 20
189.559
 30
0.000000
  70
    32
  0
VERTEX
  8
0
  5
29A3
 10
302.040
 20
189.766
 30
0.000000
  70
    32
  0
VERTEX
  8
0
  5
29A4
 10
302.005
 20
189.971
 30
0.000000
  70
    32
  0
VERTEX
  8
0
  5
29A5
 10
301.959
 20
190.175
 30
0.000000
  70
    32
  0
VERTEX
  8
0
  5
29A6
 10
301.903
 20
190.376
 30
0.000000
  70
    32
  0
VERTEX
  8
0
  5
29A7
 10
301.838
 20
190.574
 30
0.000000
  70
    32
  0
VERTEX
  8
0
  5
29A8
 10
301.763
 20
190.769
 30
0.000000
  70
    32
  0
VERTEX
  8
0
  5
29A9
 10
301.678
 20
190.959
 30
0.000000
  70
    32
  0
VERTEX
  8
0
  5
29AA
 10
301.584
 20
191.146
 30
0.000000
  70
    32
  0
VERTEX
  8
0
  5
29AB
 10
301.482
 20
191.327
 30
0.000000
  70
    32
  0
VERTEX
  8
0
  5
29AC
 10
301.370
 20
191.504
 30
0.000000
  70
    32
  0
VERTEX
  8
0
  5
29AD
 10
301.250
 20
191.674
 30
0.000000
  70
    32
  0
VERTEX
  8
0
  5
29AE
 10
301.122
 20
191.839
 30
0.000000
  70
    32
  0
VERTEX
  8
0
  5
29AF
 10
300.985
 20
191.996
 30
0.000000
  70
    32
  0
VERTEX
  8
0
  5
29B0
 10
300.841
 20
192.148
 30
0.000000
  70
    32
  0
VERTEX
  8
0
  5
29B1
 10
300.690
 20
192.291
 30
0.000000
  70
    32
  0
VERTEX
  8
0
  5
29B2
 10
300.532
 20
192.428
 30
0.000000
  70
    32
  0
VERTEX
  8
0
  5
29B3
 10
300.368
 20
192.556
 30
0.000000
  70
    32
  0
VERTEX
  8
0
  5
29B4
 10
300.197
 20
192.676
 30
0.000000
  70
    32
  0
VERTEX
  8
0
  5
29B5
 10
300.021
 20
192.788
 30
0.000000
  70
    32
  0
VERTEX
  8
0
  5
29B6
 10
299.840
 20
192.890
 30
0.000000
  70
    32
  0
VERTEX
  8
0
  5
29B7
 10
299.653
 20
192.984
 30
0.000000
  70
    32
  0
VERTEX
  8
0
  5
29B8
 10
299.463
 20
193.069
 30
0.000000
  70
    32
  0
VERTEX
  8
0
  5
29B9
 10
299.268
 20
193.144
 30
0.000000
  70
    32
  0
VERTEX
  8
0
  5
29BA
 10
299.070
 20
193.209
 30
0.000000
  70
    32
  0
VERTEX
  8
0
  5
29BB
 10
298.869
 20
193.265
 30
0.000000
  70
    32
  0
VERTEX
  8
0
  5
29BC
 10
298.665
 20
193.311
 30
0.000000
  70
    32
  0
VERTEX
  8
0
  5
29BD
 10
298.460
 20
193.346
 30
0.000000
  70
    32
  0
VERTEX
  8
0
  5
29BE
 10
298.253
 20
193.372
 30
0.000000
  70
    32
  0
VERTEX
  8
0
  5
29BF
 10
298.045
 20
193.387
 30
0.000000
  70
    32
  0
VERTEX
  8
0
  5
29C0
 10
297.836
 20
193.392
 30
0.000000
  70
    32
  0
VERTEX
  8
0
  5
29C1
 10
297.628
 20
193.387
 30
0.000000
  70
    32
  0
VERTEX
  8
0
  5
29C2
 10
297.420
 20
193.372
 30
0.000000
  70
    32
  0
VERTEX
  8
0
  5
29C3
 10
297.213
 20
193.346
 30
0.000000
  70
    32
  0
VERTEX
  8
0
  5
29C4
 10
297.007
 20
193.311
 30
0.000000
  70
    32
  0
VERTEX
  8
0
  5
29C5
 10
296.804
 20
193.265
 30
0.000000
  70
    32
  0
VERTEX
  8
0
  5
29C6
 10
296.603
 20
193.209
 30
0.000000
  70
    32
  0
VERTEX
  8
0
  5
29C7
 10
296.404
 20
193.144
 30
0.000000
  70
    32
  0
VERTEX
  8
0
  5
29C8
 10
296.210
 20
193.069
 30
0.000000
  70
    32
  0
VERTEX
  8
0
  5
29C9
 10
296.019
 20
192.984
 30
0.000000
  70
    32
  0
VERTEX
  8
0
  5
29CA
 10
295.833
 20
192.890
 30
0.000000
  70
    32
  0
VERTEX
  8
0
  5
29CB
 10
295.651
 20
192.788
 30
0.000000
  70
    32
  0
VERTEX
  8
0
  5
29CC
 10
295.475
 20
192.676
 30
0.000000
  70
    32
  0
VERTEX
  8
0
  5
29CD
 10
295.305
 20
192.556
 30
0.000000
  70
    32
  0
VERTEX
  8
0
  5
29CE
 10
295.140
 20
192.428
 30
0.000000
  70
    32
  0
VERTEX
  8
0
  5
29CF
 10
294.982
 20
192.291
 30
0.000000
  70
    32
  0
VERTEX
  8
0
  5
29D0
 10
294.831
 20
192.148
 30
0.000000
  70
    32
  0
VERTEX
  8
0
  5
29D1
 10
294.687
 20
191.996
 30
0.000000
  70
    32
  0
VERTEX
  8
0
  5
29D2
 10
294.551
 20
191.839
 30
0.000000
  70
    32
  0
VERTEX
  8
0
  5
29D3
 10
294.423
 20
191.674
 30
0.000000
  70
    32
  0
VERTEX
  8
0
  5
29D4
 10
294.302
 20
191.504
 30
0.000000
  70
    32
  0
VERTEX
  8
0
  5
29D5
 10
294.191
 20
191.327
 30
0.000000
  70
    32
  0
VERTEX
  8
0
  5
29D6
 10
294.088
 20
191.146
 30
0.000000
  70
    32
  0
VERTEX
  8
0
  5
29D7
 10
293.994
 20
190.959
 30
0.000000
  70
    32
  0
VERTEX
  8
0
  5
29D8
 10
293.910
 20
190.769
 30
0.000000
  70
    32
  0
VERTEX
  8
0
  5
29D9
 10
293.835
 20
190.574
 30
0.000000
  70
    32
  0
VERTEX
  8
0
  5
29DA
 10
293.769
 20
190.376
 30
0.000000
  70
    32
  0
VERTEX
  8
0
  5
29DB
 10
293.714
 20
190.175
 30
0.000000
  70
    32
  0
VERTEX
  8
0
  5
29DC
 10
293.668
 20
189.971
 30
0.000000
  70
    32
  0
VERTEX
  8
0
  5
29DD
 10
293.632
 20
189.766
 30
0.000000
  70
    32
  0
VERTEX
  8
0
  5
29DE
 10
293.607
 20
189.559
 30
0.000000
  70
    32
  0
VERTEX
  8
0
  5
29DF
 10
293.591
 20
189.351
 30
0.000000
  70
    32
  0
VERTEX
  8
0
  5
29E0
 10
293.586
 20
189.142
 30
0.000000
  70
    32
  0
SEQEND
  8
0
  5
29E1
  0
LINE
  5
1F5B
  8
0
 10
286.6386747650738
 20
192.6423305563988
 30
0.0
 11
279.3362456264619
 21
192.6423305563988
 31
0.0
  0
LINE
  5
1F5C
  8
0
 10
295.4253321638692
 20
192.6423305563988
 30
0.0
 11
290.81379019078321
 21
192.6423305563988
 31
0.0
  0
LINE
  5
1F5D
  8
0
 10
304.85870106214031
 20
192.6423305563988
 30
0.0
 11
300.24715908905449
 21
192.6423305563988
 31
0.0
  0
ARC
  5
1F65
  8
0
 10
195.29866446164669
 20
89.038454443461646
 30
0.0
 40
2.9999999999999818
 50
279.41791242009549
 51
320.58208757990582
  0
ARC
  5
1F66
  8
0
 10
195.29866446164661
 20
80.248015431883175
 30
0.0
 40
2.9999999999999818
 50
39.417912420095682
 51
80.582087579904567
  0
CIRCLE
  5
1FD9
  8
0
 10
191.4722845957827
 20
91.007195968351255
 30
0.0
 40
1.6209999999999991
  0
CIRCLE
  5
1FDA
  8
3
 10
191.4722845957827
 20
91.007195968351255
 30
0.0
 40
2.0
  0
CIRCLE
  5
1FE3
  8
0
 10
204.2002066571404
 20
91.007195968351283
 30
0.0
 40
1.6209999999999991
  0
CIRCLE
  5
1FE4
  8
3
 10
204.2002066571404
 20
91.007195968351283
 30
0.0
 40
2.0
  0
CIRCLE
  5
1FE6
  8
0
 10
204.2002066571406
 20
78.279273906993538
 30
0.0
 40
1.6209999999999991
  0
CIRCLE
  5
1FE7
  8
3
 10
204.2002066571406
 20
78.279273906993538
 30
0.0
 40
2.0
  0
CIRCLE
  5
1FE9
  8
0
 10
191.4722845957827
 20
78.279273906993353
 30
0.0
 40
1.6209999999999991
  0
CIRCLE
  5
1FEA
  8
3
 10
191.4722845957827
 20
78.279273906993353
 30
0.0
 40
2.0
  0
LINE
  5
1FFB
  8
0
 10
304.58624917915739
 20
196.1432354443115
 30
0.0
 11
304.08624909720101
 21
196.64323645759049
 31
0.0
  0
LINE
  5
1FFC
  8
0
 10
291.58624891093649
 20
196.64323645759049
 30
0.0
 11
291.0862488289801
 21
196.1432354443115
 31
0.0
  0
LINE
  5
1FFD
  8
0
 10
304.58624917915739
 20
194.64233088422239
 30
0.0
 11
304.58624917915739
 21
196.1432354443115
 31
0.0
  0
LINE
  5
1FFE
  8
0
 10
291.0862488289801
 20
196.1432354443115
 30
0.0
 11
291.0862488289801
 21
194.64233088422239
 31
0.0
  0
LINE
  5
1FFF
  8
0
 10
304.58624917915739
 20
196.1432354443115
 30
0.0
 11
291.0862488289801
 21
196.1432354443115
 31
0.0
  0
LINE
  5
2000
  8
0
 10
291.58624891093649
 20
196.64323645759049
 30
0.0
 11
304.08624909720101
 21
196.64323645759049
 31
0.0
  0
ENDSEC
  0
EOF
