  0
SECTION
  2
HEADER
  9
$ACADVER
  1
AC1009
  9
$INSBASE
 10
0.0
 20
0.0
 30
0.0
  9
$EXTMIN
 10
0.0
 20
-2.960436562073669
 30
0.0
  9
$EXTMAX
 10
151.0
 20
181.61424235508159
 30
0.0
  9
$LIMMIN
 10
0.0
 20
0.0
  9
$LIMMAX
 10
770.0
 20
540.0
  9
$ORTHOMODE
 70
     1
  9
$REGENMODE
 70
     1
  9
$FILLMODE
 70
     1
  9
$QTEXTMODE
 70
     0
  9
$MIRRTEXT
 70
     0
  9
$DRAGMODE
 70
     2
  9
$LTSCALE
 40
5.0
  9
$OSMODE
 70
    37
  9
$ATTMODE
 70
     1
  9
$TEXTSIZE
 40
4.000000000000048
  9
$TRACEWID
 40
0.05
  9
$TEXTSTYLE
  7
STANDARD
  9
$CLAYER
  8
0
  9
$CELTYPE
  6
BYLAYER
  9
$CECOLOR
 62
   256
  9
$DIMSCALE
 40
2.0
  9
$DIMASZ
 40
3.0
  9
$DIMEXO
 40
2.0
  9
$DIMDLI
 40
0.38
  9
$DIMRND
 40
0.0
  9
$DIMDLE
 40
0.0
  9
$DIMEXE
 40
2.0
  9
$DIMTP
 40
0.0
  9
$DIMTM
 40
0.0
  9
$DIMTXT
 40
3.0
  9
$DIMCEN
 40
0.0
  9
$DIMTSZ
 40
0.0
  9
$DIMTOL
 70
     0
  9
$DIMLIM
 70
     0
  9
$DIMTIH
 70
     0
  9
$DIMTOH
 70
     0
  9
$DIMSE1
 70
     0
  9
$DIMSE2
 70
     0
  9
$DIMTAD
 70
     1
  9
$DIMZIN
 70
     0
  9
$DIMBLK
  1

  9
$DIMASO
 70
     0
  9
$DIMSHO
 70
     0
  9
$DIMPOST
  1

  9
$DIMAPOST
  1

  9
$DIMALT
 70
     0
  9
$DIMALTD
 70
     2
  9
$DIMALTF
 40
25.399999999999999
  9
$DIMLFAC
 40
1.0
  9
$DIMTOFL
 70
     0
  9
$DIMTVP
 40
1.6000000000000001
  9
$DIMTIX
 70
     1
  9
$DIMSOXD
 70
     0
  9
$DIMSAH
 70
     0
  9
$DIMBLK1
  1

  9
$DIMBLK2
  1

  9
$DIMSTYLE
  2
STANDARD
  9
$DIMCLRD
 70
     4
  9
$DIMCLRE
 70
     4
  9
$DIMCLRT
 70
     4
  9
$DIMTFAC
 40
1.0
  9
$DIMGAP
 40
0.09
  9
$LUNITS
 70
     2
  9
$LUPREC
 70
     1
  9
$SKETCHINC
 40
0.1
  9
$FILLETRAD
 40
0.0
  9
$AUNITS
 70
     0
  9
$AUPREC
 70
     0
  9
$MENU
  1
E:\r13\win\SUPPORT\ACAD
  9
$ELEVATION
 40
0.0
  9
$PELEVATION
 40
0.0
  9
$THICKNESS
 40
0.0
  9
$LIMCHECK
 70
     0
  9
$BLIPMODE
 70
     0
  9
$CHAMFERA
 40
1.1999999999999991
  9
$CHAMFERB
 40
1.1999999999999991
  9
$SKPOLY
 70
     0
  9
$TDCREATE
 40
2450158.583426042
  9
$TDUPDATE
 40
2457170.5815307288
  9
$TDINDWG
 40
0.3042232986
  9
$TDUSRTIMER
 40
0.3042232986
  9
$USRTIMER
 70
     1
  9
$ANGBASE
 50
0.0
  9
$ANGDIR
 70
     0
  9
$PDMODE
 70
     0
  9
$PDSIZE
 40
0.0
  9
$PLINEWID
 40
0.0
  9
$COORDS
 70
     1
  9
$SPLFRAME
 70
     0
  9
$SPLINETYPE
 70
     6
  9
$SPLINESEGS
 70
     8
  9
$ATTDIA
 70
     0
  9
$ATTREQ
 70
     1
  9
$HANDLING
 70
     1
  9
$HANDSEED
  5
2D26
  9
$SURFTAB1
 70
     6
  9
$SURFTAB2
 70
     6
  9
$SURFTYPE
 70
     6
  9
$SURFU
 70
     6
  9
$SURFV
 70
     6
  9
$UCSNAME
  2

  9
$UCSORG
 10
0.0
 20
0.0
 30
0.0
  9
$UCSXDIR
 10
1.0
 20
0.0
 30
0.0
  9
$UCSYDIR
 10
0.0
 20
1.0
 30
0.0
  9
$PUCSNAME
  2

  9
$PUCSORG
 10
0.0
 20
0.0
 30
0.0
  9
$PUCSXDIR
 10
1.0
 20
0.0
 30
0.0
  9
$PUCSYDIR
 10
0.0
 20
1.0
 30
0.0
  9
$USERI1
 70
     3
  9
$USERI2
 70
     1
  9
$USERI3
 70
     0
  9
$USERI4
 70
     0
  9
$USERI5
 70
     0
  9
$USERR1
 40
2.0
  9
$USERR2
 40
3.0
  9
$USERR3
 40
3.0
  9
$USERR4
 40
3.0
  9
$USERR5
 40
10.0
  9
$WORLDVIEW
 70
     1
  9
$SHADEDGE
 70
     3
  9
$SHADEDIF
 70
    70
  9
$TILEMODE
 70
     1
  9
$MAXACTVP
 70
    16
  9
$PLIMCHECK
 70
     0
  9
$PEXTMIN
 10
1.0000000000000000E+020
 20
1.0000000000000000E+020
 30
1.0000000000000000E+020
  9
$PEXTMAX
 10
-1.0000000000000000E+020
 20
-1.0000000000000000E+020
 30
-1.0000000000000000E+020
  9
$PLIMMIN
 10
0.0
 20
0.0
  9
$PLIMMAX
 10
12.0
 20
9.0
  9
$UNITMODE
 70
     0
  9
$VISRETAIN
 70
     0
  9
$PLINEGEN
 70
     0
  9
$PSLTSCALE
 70
     0
  0
ENDSEC
  0
SECTION
  2
TABLES
  0
TABLE
  2
VPORT
 70
     1
  0
VPORT
  2
*ACTIVE
 70
     0
 10
0.0
 20
0.0
 11
1.0
 21
1.0
 12
245.19230769230771
 22
135.0
 13
0.0
 23
0.0
 14
10.0
 24
10.0
 15
10.0
 25
10.0
 16
0.0
 26
0.0
 36
1.0
 17
0.0
 27
0.0
 37
0.0
 40
270.0
 41
1.816239316239316
 42
50.0
 43
0.0
 44
0.0
 50
0.0
 51
0.0
 71
     0
 72
   500
 73
     1
 74
     0
 75
     0
 76
     0
 77
     0
 78
     2
  0
ENDTAB
  0
TABLE
  2
LTYPE
 70
     3
  0
LTYPE
  2
CONTINUOUS
 70
     0
  3
Solid Line
 72
    65
 73
     0
 40
0.0
  0
LTYPE
  2
CENTER
 70
     0
  3
____ _ ____ _ ____ _ ____ _ ____ _ ____ _ ____
 72
    65
 73
     4
 40
2.0
 49
1.25
 49
-0.25
 49
0.25
 49
-0.25
  0
LTYPE
  2
PHANTOM2
 70
     0
  3
___ _ _ ___ _ _ ___ _ _ ___ _ _
 72
    65
 73
     6
 40
1.25
 49
0.625
 49
-0.125
 49
0.125
 49
-0.125
 49
0.125
 49
-0.125
  0
ENDTAB
  0
TABLE
  2
LAYER
 70
     3
  0
LAYER
  2
0
 70
     0
 62
     7
  6
CONTINUOUS
  0
LAYER
  2
1
 70
     0
 62
     1
  6
CENTER
  0
LAYER
  2
3
 70
     0
 62
     3
  6
CONTINUOUS
  0
ENDTAB
  0
TABLE
  2
STYLE
 70
     2
  0
STYLE
  2
STANDARD
 70
     0
 40
0.0
 41
1.0
 50
0.0
 71
     0
 42
4.000000000000048
  3
SIMPLEX
  4
BIGFONT
  0
STYLE
  2
STANDARD1
 70
     0
 40
0.0
 41
1.0
 50
0.0
 71
     0
 42
3.0
  3
txt
  4

  0
ENDTAB
  0
TABLE
  2
VIEW
 70
     1
  0
VIEW
  2
ALL
 70
     0
 40
179.5384664489153
 10
146.94997169852391
 20
89.769233224457665
 41
0.0
 11
0.0
 21
0.0
 31
1.0
 12
0.0
 22
0.0
 32
0.0
 42
50.0
 43
0.0
 44
0.0
 50
0.0
 71
     0
  0
ENDTAB
  0
TABLE
  2
UCS
 70
     0
  0
ENDTAB
  0
TABLE
  2
APPID
 70
     4
  0
APPID
  2
ACAD
 70
     0
  0
APPID
  2
ACAD_MLEADERVER
 70
     0
  0
APPID
  2
ACAD_EXEMPT_FROM_CAD_STANDARDS
 70
     0
  0
APPID
  2
ACAD_NAV_VCDISPLAY
 70
     0
  0
ENDTAB
  0
TABLE
  2
DIMSTYLE
 70
     1
  0
DIMSTYLE
  2
STANDARD
 70
     0
  3

  4

  5

  6

  7

 40
1.0
 41
0.18
 42
0.0625
 43
0.38
 44
0.18
 45
0.0
 46
0.0
 47
0.0
 48
0.0
140
0.18
141
0.09
142
0.0
143
25.399999999999999
144
1.0
145
0.0
146
1.0
147
0.09
 71
     0
 72
     0
 73
     1
 74
     1
 75
     0
 76
     0
 77
     0
 78
     0
170
     0
171
     2
172
     0
173
     0
174
     0
175
     0
176
     0
177
     0
178
     0
  0
ENDTAB
  0
ENDSEC
  0
SECTION
  2
BLOCKS
  0
BLOCK
  8
0
  2
$MODEL_SPACE
 70
     0
 10
0.0
 20
0.0
 30
0.0
  3
$MODEL_SPACE
  1

  0
ENDBLK
  5
644
  8
0
  0
BLOCK
 67
     1
  8
0
  2
$PAPER_SPACE
 70
     0
 10
0.0
 20
0.0
 30
0.0
  3
$PAPER_SPACE
  1

  0
ENDBLK
  5
642
 67
     1
  8
0
  0
ENDSEC
  0
SECTION
  2
ENTITIES
  0
TEXT
  5
1099
  8
0
 62
     3
 10
0.0
 20
0.0
 30
0.0
 40
10.0
  1
QLCL-06X20-NP
  7
STANDARD1
  0
LINE
  5
1DEA
  8
0
 10
61.402915810895102
 20
110.3316092557816
 30
0.0
 11
61.402915810895102
 21
112.93160925578159
 31
0.0
  0
LINE
  5
1DEB
  8
0
 10
45.402915810895088
 20
112.93160925578159
 30
0.0
 11
45.402915810895088
 21
110.3316092557816
 31
0.0
  0
LINE
  5
1DEC
  8
0
 10
61.402915810895102
 20
112.93160925578159
 30
0.0
 11
61.202915810895099
 21
113.1316092557816
 31
0.0
  0
LINE
  5
1DED
  8
0
 10
45.602915810895077
 20
113.1316092557816
 30
0.0
 11
45.402915810895088
 21
112.93160925578159
 31
0.0
  0
LINE
  5
1DEE
  8
0
 10
45.402915810895088
 20
110.3316092557816
 30
0.0
 11
45.602915810895077
 21
110.1316092557816
 31
0.0
  0
LINE
  5
1DEF
  8
0
 10
61.202915810895099
 20
110.1316092557816
 30
0.0
 11
61.402915810895102
 21
110.3316092557816
 31
0.0
  0
POLYLINE
  5
1DF1
  8
0
 66
     1
 10
0.0
 20
0.0
 30
0.0
 70
   128
  0
VERTEX
  5
2B51
  8
0
 10
62.205647053195101
 20
116.3724592115816
 30
0.0
  0
VERTEX
  5
2B52
  8
0
 10
63.341044101595131
 20
117.3737604974816
 30
0.0
  0
VERTEX
  5
2B53
  8
0
 10
64.718510784095102
 20
118.36760809338161
 30
0.0
  0
VERTEX
  5
2B54
  8
0
 10
66.311980084595078
 20
119.2968122326816
 30
0.0
  0
VERTEX
  5
2B55
  8
0
 10
68.067670205795096
 20
120.0823549558815
 30
0.0
  0
VERTEX
  5
2B56
  8
0
 10
69.835219386395082
 20
120.6564299062816
 30
0.0
  0
VERTEX
  5
2B57
  8
0
 10
71.58242001319509
 20
121.0324581429816
 30
0.0
  0
VERTEX
  5
2B58
  8
0
 10
73.2863772102951
 20
121.2281190122816
 30
0.0
  0
VERTEX
  5
2B59
  8
0
 10
74.928050083395092
 20
121.2602771345816
 30
0.0
  0
VERTEX
  5
2B5A
  8
0
 10
76.496816868795079
 20
121.1641792211816
 30
0.0
  0
VERTEX
  5
2B5B
  8
0
 10
78.064224969495072
 20
121.0149069528816
 30
0.0
  0
VERTEX
  5
2B5C
  8
0
 10
79.667947545895132
 20
120.8597463948816
 30
0.0
  0
VERTEX
  5
2B5D
  8
0
 10
81.317714877595137
 20
120.70738736458161
 30
0.0
  0
VERTEX
  5
2B5E
  8
0
 10
82.592107566295127
 20
120.5986826371816
 30
0.0
  0
VERTEX
  5
2B5F
  8
0
 10
83.898794586495129
 20
120.48627307568159
 30
0.0
  0
VERTEX
  5
2B60
  8
0
 10
85.238974430195086
 20
120.36092222188159
 30
0.0
  0
VERTEX
  5
2B61
  8
0
 10
86.640140305495109
 20
120.27967009318159
 30
0.0
  0
VERTEX
  5
2B62
  8
0
 10
87.77645796229514
 20
120.37859739868161
 30
0.0
  0
VERTEX
  5
2B63
  8
0
 10
88.862624425195136
 20
120.7072613015816
 30
0.0
  0
VERTEX
  5
2B64
  8
0
 10
89.91430908409508
 20
121.1148003581816
 30
0.0
  0
VERTEX
  5
2B65
  8
0
 10
90.948275144295067
 20
121.48918931678161
 30
0.0
  0
VERTEX
  5
2B66
  8
0
 10
91.966192982595103
 20
121.8229805087816
 30
0.0
  0
VERTEX
  5
2B67
  8
0
 10
93.157148933358044
 20
122.1521925710167
 30
0.0
  0
SEQEND
  5
2B68
  8
0
  0
ARC
  5
1DF3
  8
0
 10
111.39933209156401
 20
127.5860333608926
 30
0.0
 40
6.0616252049439243
 50
306.89444606028673
 51
329.78714869837938
  0
LINE
  5
1DFE
  8
0
 10
52.402915810895088
 20
123.7084734407815
 30
0.0
 11
52.402915810895088
 21
122.5537729023816
 31
0.0
  0
LINE
  5
1DFF
  8
0
 10
52.402915810895088
 20
122.5537729023816
 30
0.0
 11
53.402915810895088
 21
121.9764226331816
 31
0.0
  0
LINE
  5
1E00
  8
0
 10
53.402915810895088
 20
121.9764226331816
 30
0.0
 11
54.402915810895102
 21
122.5537729023816
 31
0.0
  0
LINE
  5
1E01
  8
0
 10
54.402915810895102
 20
123.7084734407815
 30
0.0
 11
53.402915810895088
 21
124.2858237099816
 31
0.0
  0
LINE
  5
1E02
  8
0
 10
53.402915810895088
 20
124.2858237099816
 30
0.0
 11
52.402915810895088
 21
123.7084734407815
 31
0.0
  0
CIRCLE
  5
1E03
  8
0
 10
53.402915810895088
 20
123.13112317158161
 30
0.0
 40
2.0
  0
LINE
  5
1E04
  8
0
 10
54.402915810895102
 20
122.5537729023816
 30
0.0
 11
54.402915810895102
 21
123.7084734407815
 31
0.0
  0
LINE
  5
1E07
  8
0
 10
45.602915810895077
 20
113.1316092557816
 30
0.0
 11
61.202915810895099
 21
113.1316092557816
 31
0.0
  0
LINE
  5
1E08
  8
0
 10
61.202915810895099
 20
110.1316092557816
 30
0.0
 11
45.602915810895077
 21
110.1316092557816
 31
0.0
  0
CIRCLE
  5
1E09
  8
0
 10
53.402915810895088
 20
123.13112317158161
 30
0.0
 40
6.0000000000000133
  0
LINE
  5
1E0F
  8
0
 10
115.4532914281951
 20
126.73679727548161
 30
0.0
 11
54.187317495697883
 21
132.09687545439061
 31
0.0
  0
ARC
  5
1E10
  8
0
 10
115.32255781409511
 20
125.2425052282816
 30
0.0
 40
1.5000000000000699
 50
354.99999999890008
 51
84.999999998800348
  0
POLYLINE
  5
1E1E
  8
0
 66
     1
 10
0.0
 20
0.0
 30
0.0
 70
   128
  0
VERTEX
  5
2B69
  8
0
 10
116.63755797359509
 20
124.5357399759816
 30
0.0
  0
VERTEX
  5
2B6A
  8
0
 10
116.74643166539509
 20
124.77071839858159
 30
0.0
  0
VERTEX
  5
2B6B
  8
0
 10
116.8168498611951
 20
125.11177161418161
 30
0.0
  0
SEQEND
  5
2B6C
  8
0
  0
LINE
  5
1E1F
  8
0
 10
61.815709291695107
 20
116.0263734583816
 30
0.0
 11
62.205647053195101
 21
116.3724592115816
 31
0.0
  0
POLYLINE
  5
1E21
  8
0
 66
     1
 10
0.0
 20
0.0
 30
0.0
 70
   128
  0
VERTEX
  5
2B6D
  8
0
 10
93.157148933357874
 20
122.1521925710167
 30
0.0
  0
VERTEX
  5
2B6E
  8
0
 10
95.513509647395097
 20
122.69174776858161
 30
0.0
  0
VERTEX
  5
2B6F
  8
0
 10
98.099749684495137
 20
123.0498709906816
 30
0.0
  0
VERTEX
  5
2B70
  8
0
 10
100.0625577988951
 20
123.17003514388161
 30
0.0
  0
VERTEX
  5
2B71
  8
0
 10
102.0304446554951
 20
123.1630079568816
 30
0.0
  0
VERTEX
  5
2B72
  8
0
 10
103.9817131401951
 20
123.0293319183816
 30
0.0
  0
VERTEX
  5
2B73
  8
0
 10
105.9812924429951
 20
122.7557380647816
 30
0.0
  0
VERTEX
  5
2B74
  8
0
 10
107.3055895759951
 20
122.4909601219816
 30
0.0
  0
VERTEX
  5
2B75
  8
0
 10
108.5216804986951
 20
122.1878884008815
 30
0.0
  0
VERTEX
  5
2B76
  8
0
 10
109.60604509869501
 20
121.8872993906816
 30
0.0
  0
VERTEX
  5
2B77
  8
0
 10
110.3713663252951
 20
121.7007521383816
 30
0.0
  0
VERTEX
  5
2B78
  8
0
 10
111.1152280486951
 20
121.59207676778161
 30
0.0
  0
VERTEX
  5
2B79
  8
0
 10
111.8447127908951
 20
121.5918777648816
 30
0.0
  0
VERTEX
  5
2B7A
  8
0
 10
112.54754213399509
 20
121.6830485488816
 30
0.0
  0
VERTEX
  5
2B7B
  8
0
 10
113.2094230230951
 20
121.8409369167816
 30
0.0
  0
VERTEX
  5
2B7C
  8
0
 10
113.82736479589499
 20
122.05841924348159
 30
0.0
  0
VERTEX
  5
2B7D
  8
0
 10
114.9307707353951
 20
122.66119985038161
 30
0.0
  0
VERTEX
  5
2B7E
  8
0
 10
115.038384566494
 20
122.73829190636791
 30
0.0
  0
SEQEND
  5
2B7F
  8
0
  0
LINE
  5
1E2B
  8
0
 10
51.073544404895081
 20
131.82445560818161
 30
0.0
 11
54.18731749559511
 21
132.0968754543816
 31
0.0
  0
ARC
  5
1E2E
  8
0
 10
74.464413741795127
 20
103.2197237899816
 30
0.0
 40
18.000000000002281
 50
134.6444960759998
 51
142.05885547199989
  0
LINE
  5
1E2F
  8
0
 10
44.437163527995111
 20
123.91552485628161
 30
0.0
 11
45.246145727495119
 21
126.9346875272816
 31
0.0
  0
LINE
  5
1E32
  8
0
 10
57.902915810895088
 20
113.1316092557816
 30
0.0
 11
57.646969558295112
 21
113.1316092557816
 31
0.0
  0
ARC
  5
1E36
  8
0
 10
53.453410153295081
 20
121.79373618788161
 30
0.0
 40
9.2625423271211265
 50
166.7575600423001
 51
197.37781873209971
  0
ARC
  5
1E38
  8
0
 10
53.643590446995127
 20
122.9530387937816
 30
0.0
 40
9.8463931583031439
 50
203.4969448390994
 51
263.51436986740021
  0
ARC
  5
1E3A
  8
0
 10
53.402915810895088
 20
123.13112317158161
 30
0.0
 40
9.0
 50
104.9999999812996
 51
155.00000001869941
  0
ARC
  5
1E3B
  8
0
 10
57.902915810895088
 20
116.1316092557816
 30
0.0
 40
2.9999999999999138
 50
270.0
 51
322.05885547199989
  0
LINE
  5
1E3D
  8
0
 10
132.5
 20
125.13112317158151
 30
0.0
 11
131.5
 21
125.13112317158151
 31
0.0
  0
LINE
  5
1E3E
  8
0
 10
131.5
 20
121.13112317158161
 30
0.0
 11
132.5
 21
121.13112317158161
 31
0.0
  0
LINE
  5
1E3F
  8
0
 10
132.5
 20
110.3316092557816
 30
0.0
 11
132.69999999999999
 21
110.1316092557816
 31
0.0
  0
LINE
  5
1E40
  8
0
 10
148.30000000000001
 20
110.1316092557816
 30
0.0
 11
148.5
 21
110.3316092557816
 31
0.0
  0
LINE
  5
1E41
  8
0
 10
148.5
 20
110.3316092557816
 30
0.0
 11
148.5
 21
112.93160925578159
 31
0.0
  0
LINE
  5
1E42
  8
0
 10
132.5
 20
112.93160925578159
 30
0.0
 11
132.5
 21
110.3316092557816
 31
0.0
  0
LINE
  5
1E43
  8
0
 10
148.5
 20
112.93160925578159
 30
0.0
 11
148.30000000000001
 21
113.1316092557816
 31
0.0
  0
LINE
  5
1E44
  8
0
 10
132.69999999999999
 20
113.1316092557816
 30
0.0
 11
132.5
 21
112.93160925578159
 31
0.0
  0
LINE
  5
1E45
  8
0
 10
148.0
 20
117.13112317158161
 30
0.0
 11
148.5
 21
117.63112317158151
 31
0.0
  0
LINE
  5
1E46
  8
0
 10
148.5
 20
128.63112317158161
 30
0.0
 11
148.0
 21
129.13112317158161
 31
0.0
  0
LINE
  5
1E47
  8
0
 10
147.5
 20
117.13112317158161
 30
0.0
 11
148.0
 21
117.13112317158161
 31
0.0
  0
LINE
  5
1E48
  8
0
 10
133.0
 20
117.13112317158161
 30
0.0
 11
133.5
 21
117.13112317158161
 31
0.0
  0
LINE
  5
1E49
  8
0
 10
133.5
 20
129.13112317158161
 30
0.0
 11
133.0
 21
129.13112317158161
 31
0.0
  0
LINE
  5
1E4A
  8
0
 10
148.0
 20
129.13112317158161
 30
0.0
 11
147.5
 21
129.13112317158161
 31
0.0
  0
LINE
  5
1E4B
  8
0
 10
133.0
 20
129.13112317158161
 30
0.0
 11
132.5
 21
128.63112317158161
 31
0.0
  0
LINE
  5
1E4C
  8
0
 10
132.5
 20
117.63112317158151
 30
0.0
 11
133.0
 21
117.13112317158161
 31
0.0
  0
ARC
  5
1E4D
  8
0
 10
142.8254642533
 20
124.0551907939815
 30
0.0
 40
4.9603553833736624
 50
22.923626685100469
 51
49.849561477998797
  0
ARC
  5
1E4E
  8
0
 10
138.14627471239999
 20
124.07601642038161
 30
0.0
 40
4.926221387876967
 50
130.0553785096003
 51
157.17143332340041
  0
POLYLINE
  5
1E4F
  8
0
 66
     1
 10
0.0
 20
0.0
 30
0.0
 70
   128
  0
VERTEX
  5
2B80
  8
0
 10
133.48597435420001
 20
125.72183166898159
 30
0.0
  0
VERTEX
  5
2B81
  8
0
 10
133.6076296004
 20
125.1630786953816
 30
0.0
  0
VERTEX
  5
2B82
  8
0
 10
134.00975356239999
 20
124.4328119142816
 30
0.0
  0
VERTEX
  5
2B83
  8
0
 10
134.32164193579999
 20
123.8923530955816
 30
0.0
  0
VERTEX
  5
2B84
  8
0
 10
134.5455866099
 20
123.50442997358159
 30
0.0
  0
VERTEX
  5
2B85
  8
0
 10
134.76771949389999
 20
123.1208592195816
 30
0.0
  0
VERTEX
  5
2B86
  8
0
 10
135.04333170570001
 20
122.6590271103816
 30
0.0
  0
VERTEX
  5
2B87
  8
0
 10
135.20664802920001
 20
122.41336561208161
 30
0.0
  0
VERTEX
  5
2B88
  8
0
 10
135.423823906
 20
122.1718187022815
 30
0.0
  0
VERTEX
  5
2B89
  8
0
 10
136.02535204439999
 20
121.7678947701816
 30
0.0
  0
VERTEX
  5
2B8A
  8
0
 10
136.3966895492
 20
121.6388442917816
 30
0.0
  0
VERTEX
  5
2B8B
  8
0
 10
136.8493932303
 20
121.5804251144816
 30
0.0
  0
SEQEND
  5
2B8C
  8
0
  0
POLYLINE
  5
1E50
  8
0
 66
     1
 10
0.0
 20
0.0
 30
0.0
 70
   128
  0
VERTEX
  5
2B8D
  8
0
 10
144.16921825649999
 20
121.5866080952816
 30
0.0
  0
VERTEX
  5
2B8E
  8
0
 10
144.98467154150001
 20
121.7714344342816
 30
0.0
  0
VERTEX
  5
2B8F
  8
0
 10
145.57702385570011
 20
122.1639101608816
 30
0.0
  0
VERTEX
  5
2B90
  8
0
 10
145.95372054219999
 20
122.6500123263816
 30
0.0
  0
VERTEX
  5
2B91
  8
0
 10
146.2296948370001
 20
123.1148239636816
 30
0.0
  0
VERTEX
  5
2B92
  8
0
 10
146.40088062780001
 20
123.41072227338159
 30
0.0
  0
VERTEX
  5
2B93
  8
0
 10
146.5662362985
 20
123.6978386665816
 30
0.0
  0
VERTEX
  5
2B94
  8
0
 10
146.75672337550009
 20
124.02857682458161
 30
0.0
  0
VERTEX
  5
2B95
  8
0
 10
147.1563763529
 20
124.7245039699816
 30
0.0
  0
VERTEX
  5
2B96
  8
0
 10
147.39290625059999
 20
125.16860830748151
 30
0.0
  0
VERTEX
  5
2B97
  8
0
 10
147.51402564579999
 20
125.72183166898159
 30
0.0
  0
SEQEND
  5
2B98
  8
0
  0
POLYLINE
  5
1E51
  8
0
 66
     1
 10
0.0
 20
0.0
 30
0.0
 70
   128
  0
VERTEX
  5
2B99
  8
0
 10
136.8493932303
 20
121.5804251144816
 30
0.0
  0
VERTEX
  5
2B9A
  8
0
 10
140.5
 20
121.5850461280816
 30
0.0
  0
VERTEX
  5
2B9B
  8
0
 10
144.16921825649999
 20
121.5866080952816
 30
0.0
  0
SEQEND
  5
2B9C
  8
0
  0
LINE
  5
1E54
  8
0
 10
131.5
 20
125.13112317158151
 30
0.0
 11
131.5
 21
121.13112317158161
 31
0.0
  0
LINE
  5
1E56
  8
0
 10
148.30000000000001
 20
110.1316092557816
 30
0.0
 11
132.69999999999999
 21
110.1316092557816
 31
0.0
  0
LINE
  5
1E58
  8
0
 10
132.69999999999999
 20
113.1316092557816
 30
0.0
 11
148.30000000000001
 21
113.1316092557816
 31
0.0
  0
LINE
  5
1E59
  8
0
 10
148.5
 20
128.63112317158161
 30
0.0
 11
148.5
 21
117.63112317158151
 31
0.0
  0
LINE
  5
1E5C
  8
0
 10
132.5
 20
117.63112317158151
 30
0.0
 11
132.5
 21
128.63112317158161
 31
0.0
  0
POLYLINE
  5
1E5D
  8
0
 66
     1
 10
0.0
 20
0.0
 30
0.0
 70
   128
  0
VERTEX
  5
2B9D
  8
0
 10
147.5
 20
129.81818172258161
 30
0.0
  0
VERTEX
  5
2B9E
  8
0
 10
147.44629287859999
 20
129.5579668101816
 30
0.0
  0
VERTEX
  5
2B9F
  8
0
 10
147.28125219090009
 20
129.28123066568159
 30
0.0
  0
VERTEX
  5
2BA0
  8
0
 10
146.98646305430009
 20
128.9931707270816
 30
0.0
  0
VERTEX
  5
2BA1
  8
0
 10
146.58275604100001
 20
128.70148328648159
 30
0.0
  0
VERTEX
  5
2BA2
  8
0
 10
146.2359403016001
 20
128.4074844838816
 30
0.0
  0
VERTEX
  5
2BA3
  8
0
 10
146.04719523029999
 20
128.11150718698161
 30
0.0
  0
VERTEX
  5
2BA4
  8
0
 10
146.0238853050725
 20
127.84665862385199
 30
0.0
  0
SEQEND
  5
2BA5
  8
0
  0
POLYLINE
  5
1E5E
  8
0
 66
     1
 10
0.0
 20
0.0
 30
0.0
 70
   128
  0
VERTEX
  5
2BA6
  8
0
 10
147.39341411464551
 20
125.9888297451816
 30
0.0
  0
VERTEX
  5
2BA7
  8
0
 10
147.45070929939999
 20
125.9068518880815
 30
0.0
  0
VERTEX
  5
2BA8
  8
0
 10
147.51402564579999
 20
125.72183166898159
 30
0.0
  0
SEQEND
  5
2BA9
  8
0
  0
POLYLINE
  5
1E5F
  8
0
 66
     1
 10
0.0
 20
0.0
 30
0.0
 70
   128
  0
VERTEX
  5
2BAA
  8
0
 10
140.5
 20
125.11177161418161
 30
0.0
  0
VERTEX
  5
2BAB
  8
0
 10
141.36828670739999
 20
125.11649287198161
 30
0.0
  0
VERTEX
  5
2BAC
  8
0
 10
142.18909893009999
 20
125.12948163298159
 30
0.0
  0
VERTEX
  5
2BAD
  8
0
 10
142.95578625120001
 20
125.15024028108159
 30
0.0
  0
VERTEX
  5
2BAE
  8
0
 10
143.66314244279999
 20
125.1773556490816
 30
0.0
  0
VERTEX
  5
2BAF
  8
0
 10
144.3086723401
 20
125.2097979265816
 30
0.0
  0
VERTEX
  5
2BB0
  8
0
 10
144.89926565580001
 20
125.2471137933816
 30
0.0
  0
VERTEX
  5
2BB1
  8
0
 10
145.41844120729999
 20
125.2874929036816
 30
0.0
  0
VERTEX
  5
2BB2
  8
0
 10
145.86959572559999
 20
125.3302490412816
 30
0.0
  0
VERTEX
  5
2BB3
  8
0
 10
146.58557579629999
 20
125.4205622130816
 30
0.0
  0
VERTEX
  5
2BB4
  8
0
 10
147.09407076580001
 20
125.5182270321816
 30
0.0
  0
VERTEX
  5
2BB5
  8
0
 10
147.40586427529999
 20
125.62287739688161
 30
0.0
  0
VERTEX
  5
2BB6
  8
0
 10
147.51402564579999
 20
125.72183166898159
 30
0.0
  0
SEQEND
  5
2BB7
  8
0
  0
ARC
  5
1E62
  8
0
 10
146.00284854629999
 20
129.81532229528159
 30
0.0
 40
1.497154184314246
 50
0.1094297549001674
 51
90.109013341099285
  0
POLYLINE
  5
1E64
  8
0
 66
     1
 10
0.0
 20
0.0
 30
0.0
 70
   128
  0
VERTEX
  5
2BB8
  8
0
 10
133.48597435420001
 20
125.72183166898159
 30
0.0
  0
VERTEX
  5
2BB9
  8
0
 10
133.59413572459999
 20
125.62287739688161
 30
0.0
  0
VERTEX
  5
2BBA
  8
0
 10
133.90592923400001
 20
125.5182270321816
 30
0.0
  0
VERTEX
  5
2BBB
  8
0
 10
134.4144242035
 20
125.4205622130816
 30
0.0
  0
VERTEX
  5
2BBC
  8
0
 10
135.13040427409999
 20
125.3302490412816
 30
0.0
  0
VERTEX
  5
2BBD
  8
0
 10
135.5815587925
 20
125.2874929036816
 30
0.0
  0
VERTEX
  5
2BBE
  8
0
 10
136.10073434399999
 20
125.2471137933816
 30
0.0
  0
VERTEX
  5
2BBF
  8
0
 10
136.69132765969999
 20
125.2097979265816
 30
0.0
  0
VERTEX
  5
2BC0
  8
0
 10
137.336857557
 20
125.1773556490816
 30
0.0
  0
VERTEX
  5
2BC1
  8
0
 10
138.0442137486001
 20
125.15024028108159
 30
0.0
  0
VERTEX
  5
2BC2
  8
0
 10
138.8109010698
 20
125.12948163298159
 30
0.0
  0
VERTEX
  5
2BC3
  8
0
 10
139.63171329260001
 20
125.11649287198161
 30
0.0
  0
VERTEX
  5
2BC4
  8
0
 10
140.5
 20
125.11177161418161
 30
0.0
  0
SEQEND
  5
2BC5
  8
0
  0
POLYLINE
  5
1E65
  8
0
 66
     1
 10
0.0
 20
0.0
 30
0.0
 70
   128
  0
VERTEX
  5
2BC6
  8
0
 10
133.5
 20
129.81818172258161
 30
0.0
  0
VERTEX
  5
2BC7
  8
0
 10
133.59363810310001
 20
129.47028480608159
 30
0.0
  0
VERTEX
  5
2BC8
  8
0
 10
133.86400058469999
 20
129.12402848088161
 30
0.0
  0
VERTEX
  5
2BC9
  8
0
 10
134.3040232620001
 20
128.78095117388159
 30
0.0
  0
VERTEX
  5
2BCA
  8
0
 10
134.73407199159999
 20
128.44122481098159
 30
0.0
  0
VERTEX
  5
2BCB
  8
0
 10
134.9599115070001
 20
128.10390708778161
 30
0.0
  0
VERTEX
  5
2BCC
  8
0
 10
134.97611469505671
 20
127.8466586238814
 30
0.0
  0
SEQEND
  5
2BCD
  8
0
  0
POLYLINE
  5
1E66
  8
0
 66
     1
 10
0.0
 20
0.0
 30
0.0
 70
   128
  0
VERTEX
  5
2BCE
  8
0
 10
133.60592509067391
 20
125.98726796710901
 30
0.0
  0
VERTEX
  5
2BCF
  8
0
 10
133.5335893049
 20
125.8828379362816
 30
0.0
  0
VERTEX
  5
2BD0
  8
0
 10
133.48597435420001
 20
125.72183166898159
 30
0.0
  0
SEQEND
  5
2BD1
  8
0
  0
ARC
  5
1E67
  8
0
 10
134.99715145370001
 20
129.81532229528159
 30
0.0
 40
1.4971541843143481
 50
89.890986658900687
 51
179.89057024509981
  0
ARC
  5
1E68
  8
0
 10
144.94058022390001
 20
119.37218038348161
 30
0.0
 40
11.49819946090693
 50
157.10237769749929
 51
185.7383626262997
  0
POLYLINE
  5
1E6D
  8
0
 66
     1
 10
0.0
 20
0.0
 30
0.0
 70
   128
  0
VERTEX
  5
2BD2
  8
0
 10
134.89155893809999
 20
116.03229627358159
 30
0.0
  0
VERTEX
  5
2BD3
  8
0
 10
134.93335348439999
 20
116.0286297208816
 30
0.0
  0
VERTEX
  5
2BD4
  8
0
 10
134.9752543945001
 20
116.0267020788816
 30
0.0
  0
SEQEND
  5
2BD5
  8
0
  0
POLYLINE
  5
1E6E
  8
0
 66
     1
 10
0.0
 20
0.0
 30
0.0
 70
   128
  0
VERTEX
  5
2BD6
  8
0
 10
134.71666569929999
 20
116.0676566282816
 30
0.0
  0
VERTEX
  5
2BD7
  8
0
 10
134.8033375638
 20
116.0459612170816
 30
0.0
  0
VERTEX
  5
2BD8
  8
0
 10
134.89155893809999
 20
116.03229627358159
 30
0.0
  0
SEQEND
  5
2BD9
  8
0
  0
POLYLINE
  5
1E6F
  8
0
 66
     1
 10
0.0
 20
0.0
 30
0.0
 70
   128
  0
VERTEX
  5
2BDA
  8
0
 10
134.63910933330001
 20
116.0941011658816
 30
0.0
  0
VERTEX
  5
2BDB
  8
0
 10
134.6776616153
 20
116.08013242148159
 30
0.0
  0
VERTEX
  5
2BDC
  8
0
 10
134.71666569929999
 20
116.0676566282816
 30
0.0
  0
SEQEND
  5
2BDD
  8
0
  0
POLYLINE
  5
1E70
  8
0
 66
     1
 10
0.0
 20
0.0
 30
0.0
 70
   128
  0
VERTEX
  5
2BDE
  8
0
 10
134.45134409319999
 20
116.1856537006816
 30
0.0
  0
VERTEX
  5
2BDF
  8
0
 10
134.5434231914
 20
116.1357777350816
 30
0.0
  0
VERTEX
  5
2BE0
  8
0
 10
134.63910933330001
 20
116.0941011658816
 30
0.0
  0
SEQEND
  5
2BE1
  8
0
  0
POLYLINE
  5
1E71
  8
0
 66
     1
 10
0.0
 20
0.0
 30
0.0
 70
   128
  0
VERTEX
  5
2BE2
  8
0
 10
134.34209631249999
 20
116.2586821765816
 30
0.0
  0
VERTEX
  5
2BE3
  8
0
 10
134.3958874978
 20
116.22072596388161
 30
0.0
  0
VERTEX
  5
2BE4
  8
0
 10
134.45134409319999
 20
116.1856537006816
 30
0.0
  0
SEQEND
  5
2BE5
  8
0
  0
ARC
  5
1E72
  8
0
 10
135.7132407485
 20
117.94280089928159
 30
0.0
 40
2.1717027735309711
 50
190.7915136066996
 51
230.8488494442995
  0
POLYLINE
  5
1E73
  8
0
 66
     1
 10
0.0
 20
0.0
 30
0.0
 70
   128
  0
VERTEX
  5
2BE6
  8
0
 10
133.5009643519
 20
118.14701187858159
 30
0.0
  0
VERTEX
  5
2BE7
  8
0
 10
133.52439513709999
 20
117.8413327296816
 30
0.0
  0
VERTEX
  5
2BE8
  8
0
 10
133.57994455150001
 20
117.53618034848159
 30
0.0
  0
SEQEND
  5
2BE9
  8
0
  0
POLYLINE
  5
1E74
  8
0
 66
     1
 10
0.0
 20
0.0
 30
0.0
 70
   128
  0
VERTEX
  5
2BEA
  8
0
 10
133.5
 20
118.2225217455816
 30
0.0
  0
VERTEX
  5
2BEB
  8
0
 10
133.50024712519999
 20
118.1847676591816
 30
0.0
  0
VERTEX
  5
2BEC
  8
0
 10
133.5009643519
 20
118.14701187858159
 30
0.0
  0
SEQEND
  5
2BED
  8
0
  0
POLYLINE
  5
1E75
  8
0
 66
     1
 10
0.0
 20
0.0
 30
0.0
 70
   128
  0
VERTEX
  5
2BEE
  8
0
 10
147.4875643302
 20
117.94969006798161
 30
0.0
  0
VERTEX
  5
2BEF
  8
0
 10
147.45643853799999
 20
117.71404101598161
 30
0.0
  0
VERTEX
  5
2BF0
  8
0
 10
147.40621524299999
 20
117.4801894174816
 30
0.0
  0
SEQEND
  5
2BF1
  8
0
  0
POLYLINE
  5
1E76
  8
0
 66
     1
 10
0.0
 20
0.0
 30
0.0
 70
   128
  0
VERTEX
  5
2BF2
  8
0
 10
147.40621524299999
 20
117.4801894174816
 30
0.0
  0
VERTEX
  5
2BF3
  8
0
 10
147.3657997816
 20
117.33861900648159
 30
0.0
  0
VERTEX
  5
2BF4
  8
0
 10
147.3179750984001
 20
117.19923011278161
 30
0.0
  0
SEQEND
  5
2BF5
  8
0
  0
POLYLINE
  5
1E77
  8
0
 66
     1
 10
0.0
 20
0.0
 30
0.0
 70
   128
  0
VERTEX
  5
2BF6
  8
0
 10
147.31698789640001
 20
117.1965898904816
 30
0.0
  0
VERTEX
  5
2BF7
  8
0
 10
147.240372552
 20
117.0130798596816
 30
0.0
  0
VERTEX
  5
2BF8
  8
0
 10
147.1498474343
 20
116.8362105087816
 30
0.0
  0
SEQEND
  5
2BF9
  8
0
  0
POLYLINE
  5
1E78
  8
0
 66
     1
 10
0.0
 20
0.0
 30
0.0
 70
   128
  0
VERTEX
  5
2BFA
  8
0
 10
147.1498474343
 20
116.8362105087816
 30
0.0
  0
VERTEX
  5
2BFB
  8
0
 10
147.1420690283
 20
116.8225500719816
 30
0.0
  0
VERTEX
  5
2BFC
  8
0
 10
147.13419948360001
 20
116.8089457037816
 30
0.0
  0
SEQEND
  5
2BFD
  8
0
  0
ARC
  5
1E79
  8
0
 10
145.7539511322
 20
117.5260387221816
 30
0.0
 40
1.555412456039255
 50
293.12373803880081
 51
332.5463581042988
  0
POLYLINE
  5
1E7A
  8
0
 66
     1
 10
0.0
 20
0.0
 30
0.0
 70
   128
  0
VERTEX
  5
2BFE
  8
0
 10
146.3647898677001
 20
116.0955898597816
 30
0.0
  0
VERTEX
  5
2BFF
  8
0
 10
146.3136731173
 20
116.07723081108161
 30
0.0
  0
VERTEX
  5
2C00
  8
0
 10
146.26177695850001
 20
116.0615207810816
 30
0.0
  0
SEQEND
  5
2C01
  8
0
  0
POLYLINE
  5
1E7B
  8
0
 66
     1
 10
0.0
 20
0.0
 30
0.0
 70
   128
  0
VERTEX
  5
2C02
  8
0
 10
146.26177695850001
 20
116.0615207810816
 30
0.0
  0
VERTEX
  5
2C03
  8
0
 10
146.1900082022
 20
116.0446915050816
 30
0.0
  0
VERTEX
  5
2C04
  8
0
 10
146.11722336810001
 20
116.0333218335816
 30
0.0
  0
SEQEND
  5
2C05
  8
0
  0
POLYLINE
  5
1E7C
  8
0
 66
     1
 10
0.0
 20
0.0
 30
0.0
 70
   128
  0
VERTEX
  5
2C06
  8
0
 10
146.11722336810001
 20
116.0333218335816
 30
0.0
  0
VERTEX
  5
2C07
  8
0
 10
146.07318197710001
 20
116.02910122458159
 30
0.0
  0
VERTEX
  5
2C08
  8
0
 10
146.0290083065
 20
116.0268215546816
 30
0.0
  0
SEQEND
  5
2C09
  8
0
  0
POLYLINE
  5
1E7D
  8
0
 66
     1
 10
0.0
 20
0.0
 30
0.0
 70
   128
  0
VERTEX
  5
2C0A
  8
0
 10
146.0290083065
 20
116.0268215546816
 30
0.0
  0
VERTEX
  5
2C0B
  8
0
 10
146.0253025312
 20
116.0267181966816
 30
0.0
  0
VERTEX
  5
2C0C
  8
0
 10
146.02159650620001
 20
116.0266283685816
 30
0.0
  0
SEQEND
  5
2C0D
  8
0
  0
POLYLINE
  5
1E7E
  8
0
 66
     1
 10
0.0
 20
0.0
 30
0.0
 70
   128
  0
VERTEX
  5
2C0E
  8
0
 10
146.02159650620001
 20
116.0266283685816
 30
0.0
  0
VERTEX
  5
2C0F
  8
0
 10
146.01072120890001
 20
116.0264428081816
 30
0.0
  0
VERTEX
  5
2C10
  8
0
 10
145.99984554400001
 20
116.0263734583816
 30
0.0
  0
SEQEND
  5
2C11
  8
0
  0
ARC
  5
1E82
  8
0
 10
136.4169848935
 20
119.4312201811816
 30
0.0
 40
11.14872978235204
 50
353.77599868850029
 51
23.34321952830004
  0
POLYLINE
  5
1E83
  8
0
 66
     1
 10
0.0
 20
0.0
 30
0.0
 70
   128
  0
VERTEX
  5
2C12
  8
0
 10
147.5
 20
118.2225217455816
 30
0.0
  0
VERTEX
  5
2C13
  8
0
 10
147.49689006560001
 20
118.08611984398161
 30
0.0
  0
VERTEX
  5
2C14
  8
0
 10
147.4875643302
 20
117.94969006798161
 30
0.0
  0
SEQEND
  5
2C15
  8
0
  0
LINE
  5
1E86
  8
0
 10
135.00015445599999
 20
116.0263734584816
 30
0.0
 11
145.99984555968271
 21
116.0263734584816
 31
0.0
  0
LINE
  5
1E87
  8
0
 10
143.75
 20
132.0968754543816
 30
0.0
 11
147.0
 21
132.0968754543816
 31
0.0
  0
ARC
  5
1E88
  8
0
 10
144.2193805787
 20
134.61213830798161
 30
0.0
 40
3.7494521718037861
 50
298.35291885230089
 51
317.86847517030031
  0
ARC
  5
1E89
  8
0
 10
132.2193805787
 20
128.7972109161816
 30
0.0
 40
3.7494521717990801
 50
42.131524829699728
 51
61.647081147699041
  0
LINE
  5
1E8A
  8
0
 10
134.0
 20
132.0968754543816
 30
0.0
 11
137.25
 21
132.0968754543816
 31
0.0
  0
LINE
  5
1E8B
  8
0
 10
137.25
 20
131.44320738378161
 30
0.0
 11
137.25
 21
132.0968754543816
 31
0.0
  0
ARC
  5
1E8C
  8
0
 10
138.37784854629999
 20
135.71316644738161
 30
0.0
 40
4.4164004288778349
 50
255.20405517679961
 51
274.83380603579809
  0
LINE
  5
1E8D
  8
0
 10
142.25
 20
131.31247376968159
 30
0.0
 11
138.75
 21
131.31247376968159
 31
0.0
  0
ARC
  5
1E8E
  8
0
 10
142.62215145370001
 20
135.71316644738161
 30
0.0
 40
4.416400428877794
 50
265.1661939641985
 51
284.79594482319862
  0
LINE
  5
1E8F
  8
0
 10
143.75
 20
131.44320738378161
 30
0.0
 11
143.75
 21
132.0968754543816
 31
0.0
  0
POLYLINE
  5
1E90
  8
0
 66
     1
 10
0.0
 20
0.0
 30
0.0
 70
   128
  0
VERTEX
  5
2C16
  8
0
 10
140.5
 20
126.7549690192816
 30
0.0
  0
VERTEX
  5
2C17
  8
0
 10
139.8497362877001
 20
126.7584645652816
 30
0.0
  0
VERTEX
  5
2C18
  8
0
 10
139.2093299105
 20
126.7688982144816
 30
0.0
  0
VERTEX
  5
2C19
  8
0
 10
138.58848877610001
 20
126.7861118034816
 30
0.0
  0
VERTEX
  5
2C1A
  8
0
 10
137.99662420350001
 20
126.80984439158161
 30
0.0
  0
VERTEX
  5
2C1B
  8
0
 10
137.44270825609999
 20
126.83973621708159
 30
0.0
  0
VERTEX
  5
2C1C
  8
0
 10
136.9351377351
 20
126.8753341503816
 30
0.0
  0
VERTEX
  5
2C1D
  8
0
 10
136.48160689230011
 20
126.9160985630816
 30
0.0
  0
VERTEX
  5
2C1E
  8
0
 10
136.08899079279999
 20
126.9614115081816
 30
0.0
  0
VERTEX
  5
2C1F
  8
0
 10
135.76324109660001
 20
127.0105860876816
 30
0.0
  0
VERTEX
  5
2C20
  8
0
 10
135.50929583690001
 20
127.06287686508161
 30
0.0
  0
VERTEX
  5
2C21
  8
0
 10
135.33100456509999
 20
127.1174911654816
 30
0.0
  0
VERTEX
  5
2C22
  8
0
 10
135.23106999519999
 20
127.17360109188159
 30
0.0
  0
VERTEX
  5
2C23
  8
0
 10
135.2110070332001
 20
127.2303560747816
 30
0.0
  0
VERTEX
  5
2C24
  8
0
 10
135.27111981339999
 20
127.28689576658159
 30
0.0
  0
VERTEX
  5
2C25
  8
0
 10
135.4104970871
 20
127.3423630831816
 30
0.0
  0
VERTEX
  5
2C26
  8
0
 10
135.62702603709999
 20
127.39591719668149
 30
0.0
  0
VERTEX
  5
2C27
  8
0
 10
135.917424305
 20
127.4467462811816
 30
0.0
  0
VERTEX
  5
2C28
  8
0
 10
136.2772897493
 20
127.4940798196816
 30
0.0
  0
VERTEX
  5
2C29
  8
0
 10
136.70116717659999
 20
127.5372002839816
 30
0.0
  0
VERTEX
  5
2C2A
  8
0
 10
137.1826310372
 20
127.5754540116816
 30
0.0
  0
VERTEX
  5
2C2B
  8
0
 10
137.7143828298
 20
127.60826111538159
 30
0.0
  0
VERTEX
  5
2C2C
  8
0
 10
138.28836173910011
 20
127.6351242727816
 30
0.0
  0
VERTEX
  5
2C2D
  8
0
 10
138.89586682999999
 20
127.6556362657816
 30
0.0
  0
VERTEX
  5
2C2E
  8
0
 10
139.5276889447
 20
127.6694861534816
 30
0.0
  0
VERTEX
  5
2C2F
  8
0
 10
140.17425030379999
 20
127.6764639857816
 30
0.0
  0
VERTEX
  5
2C30
  8
0
 10
140.82574969620001
 20
127.6764639857816
 30
0.0
  0
VERTEX
  5
2C31
  8
0
 10
141.4723110553
 20
127.6694861534816
 30
0.0
  0
VERTEX
  5
2C32
  8
0
 10
142.1041331700001
 20
127.6556362657816
 30
0.0
  0
VERTEX
  5
2C33
  8
0
 10
142.7116382609
 20
127.6351242727816
 30
0.0
  0
VERTEX
  5
2C34
  8
0
 10
143.2856171702
 20
127.60826111538159
 30
0.0
  0
VERTEX
  5
2C35
  8
0
 10
143.8173689628
 20
127.5754540116816
 30
0.0
  0
VERTEX
  5
2C36
  8
0
 10
144.29883282329999
 20
127.5372002839816
 30
0.0
  0
VERTEX
  5
2C37
  8
0
 10
144.7227102507
 20
127.4940798196816
 30
0.0
  0
VERTEX
  5
2C38
  8
0
 10
145.082575695
 20
127.4467462811816
 30
0.0
  0
VERTEX
  5
2C39
  8
0
 10
145.37297396290001
 20
127.39591719668149
 30
0.0
  0
VERTEX
  5
2C3A
  8
0
 10
145.5895029129
 20
127.3423630831816
 30
0.0
  0
VERTEX
  5
2C3B
  8
0
 10
145.72888018660001
 20
127.28689576658159
 30
0.0
  0
VERTEX
  5
2C3C
  8
0
 10
145.78899296669999
 20
127.2303560747816
 30
0.0
  0
VERTEX
  5
2C3D
  8
0
 10
145.76893000480001
 20
127.17360109188159
 30
0.0
  0
VERTEX
  5
2C3E
  8
0
 10
145.6689954348
 20
127.1174911654816
 30
0.0
  0
VERTEX
  5
2C3F
  8
0
 10
145.49070416309999
 20
127.06287686508161
 30
0.0
  0
VERTEX
  5
2C40
  8
0
 10
145.23675890339999
 20
127.0105860876816
 30
0.0
  0
VERTEX
  5
2C41
  8
0
 10
144.91100920720001
 20
126.9614115081816
 30
0.0
  0
VERTEX
  5
2C42
  8
0
 10
144.51839310770001
 20
126.9160985630816
 30
0.0
  0
VERTEX
  5
2C43
  8
0
 10
144.0648622649
 20
126.8753341503816
 30
0.0
  0
VERTEX
  5
2C44
  8
0
 10
143.55729174390001
 20
126.83973621708159
 30
0.0
  0
VERTEX
  5
2C45
  8
0
 10
143.00337579649999
 20
126.80984439158161
 30
0.0
  0
VERTEX
  5
2C46
  8
0
 10
142.41151122380001
 20
126.7861118034816
 30
0.0
  0
VERTEX
  5
2C47
  8
0
 10
141.7906700895
 20
126.7688982144816
 30
0.0
  0
VERTEX
  5
2C48
  8
0
 10
141.15026371229999
 20
126.7584645652816
 30
0.0
  0
VERTEX
  5
2C49
  8
0
 10
140.5
 20
126.7549690192816
 30
0.0
  0
SEQEND
  5
2C4A
  8
0
  0
LINE
  5
1E91
  8
0
 10
147.5
 20
120.6399186171017
 30
0.0
 11
147.5
 21
125.6577683131179
 31
0.0
  0
LINE
  5
1E93
  8
0
 10
133.5
 20
120.5218390212124
 30
0.0
 11
133.5
 21
125.65741298140161
 31
0.0
  0
LINE
  5
1E95
  8
0
 10
133.5
 20
125.7692583037577
 30
0.0
 11
133.5
 21
131.5949307130816
 31
0.0
  0
ARC
  5
1E96
  8
0
 10
134.00118676669999
 20
131.59568951838159
 30
0.0
 40
0.5011873410774075
 50
90.135671391898498
 51
180.08674672239999
  0
ARC
  5
1E97
  8
0
 10
146.99881323330001
 20
131.59568951838159
 30
0.0
 40
0.5011873410778917
 50
359.91325327760001
 51
89.86432860800052
  0
LINE
  5
1E98
  8
0
 10
147.5
 20
131.5949307130816
 30
0.0
 11
147.5
 21
125.7628167890411
 31
0.0
  0
ARC
  5
1E99
  8
0
 10
138.8618775068
 20
114.4172051031816
 30
0.0
 40
1.6130528114475391
 50
93.977091980699612
 51
184.6280029160996
  0
LINE
  5
1E9A
  8
0
 10
137.25
 20
114.13810578838159
 30
0.0
 11
137.25408395279999
 21
114.2870541892816
 31
0.0
  0
LINE
  5
1E9B
  8
0
 10
143.74591604720001
 20
114.2870541892816
 30
0.0
 11
143.75
 21
114.13810578838159
 31
0.0
  0
ARC
  5
1E9C
  8
0
 10
142.13715945210001
 20
114.4163768315816
 30
0.0
 40
1.6139461354422591
 50
355.40406373759947
 51
85.990841365599891
  0
LINE
  5
1E9F
  8
0
 10
133.5
 20
114.59448003368161
 30
0.0
 11
133.5
 21
118.2225217455816
 31
0.0
  0
LINE
  5
1EA2
  8
0
 10
147.5
 20
118.2225217455816
 30
0.0
 11
147.5
 21
114.59448003368161
 31
0.0
  0
ARC
  5
1EA5
  8
0
 10
147.0
 20
113.6316092557816
 30
0.0
 40
0.5000000000000285
 50
270.0
 51
0.0
  0
LINE
  5
1EA7
  8
0
 10
147.5
 20
114.59448003368161
 30
0.0
 11
147.5
 21
113.6316092557816
 31
0.0
  0
ARC
  5
1EA9
  8
0
 10
134.0
 20
113.6316092557816
 30
0.0
 40
0.5
 50
180.0
 51
270.0
  0
LINE
  5
1EAA
  8
0
 10
133.5
 20
113.6316092557816
 30
0.0
 11
133.5
 21
114.59448003368161
 31
0.0
  0
LINE
  5
1EAB
  8
0
 10
146.8710281745
 20
113.1316092557816
 30
0.0
 11
147.0
 21
113.1316092557816
 31
0.0
  0
LINE
  5
1EAC
  8
0
 10
143.75
 20
113.1316092557816
 30
0.0
 11
143.75
 21
114.13810578838159
 31
0.0
  0
LINE
  5
1EAD
  8
0
 10
134.0
 20
113.1316092557816
 30
0.0
 11
134.1289718255
 21
113.1316092557816
 31
0.0
  0
LINE
  5
1EAE
  8
0
 10
137.25
 20
113.1316092557816
 30
0.0
 11
137.25
 21
114.13810578838159
 31
0.0
  0
LINE
  5
1EB2
  8
0
 10
28.500000000000011
 20
121.13112317158161
 30
0.0
 11
29.500000000000011
 21
121.13112317158161
 31
0.0
  0
LINE
  5
1EB3
  8
0
 10
29.500000000000011
 20
125.13112317158161
 30
0.0
 11
28.500000000000011
 21
125.13112317158161
 31
0.0
  0
LINE
  5
1EB4
  8
0
 10
12.500000000000011
 20
110.3316092557816
 30
0.0
 11
12.699999999999999
 21
110.1316092557816
 31
0.0
  0
LINE
  5
1EB5
  8
0
 10
28.300000000000029
 20
110.1316092557816
 30
0.0
 11
28.500000000000011
 21
110.3316092557816
 31
0.0
  0
LINE
  5
1EB6
  8
0
 10
28.500000000000011
 20
110.3316092557816
 30
0.0
 11
28.500000000000011
 21
112.93160925578159
 31
0.0
  0
LINE
  5
1EB7
  8
0
 10
12.500000000000011
 20
112.93160925578159
 30
0.0
 11
12.500000000000011
 21
110.3316092557816
 31
0.0
  0
LINE
  5
1EB8
  8
0
 10
28.500000000000011
 20
112.93160925578159
 30
0.0
 11
28.300000000000029
 21
113.1316092557816
 31
0.0
  0
LINE
  5
1EB9
  8
0
 10
12.699999999999999
 20
113.1316092557816
 30
0.0
 11
12.500000000000011
 21
112.93160925578159
 31
0.0
  0
LINE
  5
1EBA
  8
0
 10
28.000000000000021
 20
117.13112317158161
 30
0.0
 11
28.500000000000011
 21
117.63112317158161
 31
0.0
  0
LINE
  5
1EBB
  8
0
 10
28.500000000000011
 20
128.63112317158161
 30
0.0
 11
28.000000000000021
 21
129.13112317158161
 31
0.0
  0
LINE
  5
1EBC
  8
0
 10
13.500000000000011
 20
129.13112317158161
 30
0.0
 11
13.000000000000011
 21
129.13112317158161
 31
0.0
  0
LINE
  5
1EBD
  8
0
 10
28.000000000000021
 20
129.13112317158161
 30
0.0
 11
27.500000000000021
 21
129.13112317158161
 31
0.0
  0
LINE
  5
1EBE
  8
0
 10
27.500000000000021
 20
117.13112317158161
 30
0.0
 11
28.000000000000021
 21
117.13112317158161
 31
0.0
  0
LINE
  5
1EBF
  8
0
 10
13.000000000000011
 20
117.13112317158161
 30
0.0
 11
13.500000000000011
 21
117.13112317158161
 31
0.0
  0
LINE
  5
1EC0
  8
0
 10
13.000000000000011
 20
129.13112317158161
 30
0.0
 11
12.500000000000011
 21
128.63112317158161
 31
0.0
  0
LINE
  5
1EC1
  8
0
 10
12.500000000000011
 20
117.63112317158161
 30
0.0
 11
13.000000000000011
 21
117.13112317158161
 31
0.0
  0
LINE
  5
1EC2
  8
0
 10
29.500000000000011
 20
121.13112317158161
 30
0.0
 11
29.500000000000011
 21
125.13112317158161
 31
0.0
  0
LINE
  5
1EC6
  8
0
 10
28.300000000000029
 20
110.1316092557816
 30
0.0
 11
12.699999999999999
 21
110.1316092557816
 31
0.0
  0
LINE
  5
1EC9
  8
0
 10
12.699999999999999
 20
113.1316092557816
 30
0.0
 11
28.300000000000029
 21
113.1316092557816
 31
0.0
  0
LINE
  5
1ECD
  8
0
 10
28.500000000000011
 20
128.63112317158149
 30
0.0
 11
28.500000000000011
 21
117.63112317158161
 31
0.0
  0
LINE
  5
1ED4
  8
0
 10
12.500000000000011
 20
117.63112317158161
 30
0.0
 11
12.500000000000011
 21
128.63112317158161
 31
0.0
  0
LINE
  5
1EE5
  8
0
 10
13.500000000000011
 20
113.6679777673816
 30
0.0
 11
13.500000000000011
 21
131.594930742044
 31
0.0
  0
LINE
  5
1EE8
  8
0
 10
27.500000000000021
 20
131.59493067581849
 30
0.0
 11
27.500000000000021
 21
113.6679777673816
 31
0.0
  0
LINE
  5
1EEA
  8
0
 10
17.250000000000011
 20
132.0968754543816
 30
0.0
 11
17.250000000000011
 21
113.1316092557816
 31
0.0
  0
LINE
  5
1EEC
  8
0
 10
23.750000000000011
 20
132.0968754543816
 30
0.0
 11
23.750000000000011
 21
113.1316092557816
 31
0.0
  0
ARC
  5
1F02
  8
0
 10
14.00118676670003
 20
131.59568951838159
 30
0.0
 40
0.5011873410779345
 50
90.135671391999438
 51
180.08674672239999
  0
ARC
  5
1F05
  8
0
 10
26.998813233400039
 20
131.59568951838159
 30
0.0
 40
0.5011873410781403
 50
359.91325327760001
 51
89.86432860800052
  0
LINE
  5
1F07
  8
0
 10
17.250000000000011
 20
132.0968754543816
 30
0.0
 11
14.000000000000011
 21
132.0968754543816
 31
0.0
  0
LINE
  5
1F09
  8
0
 10
27.000000000000011
 20
132.0968754543816
 30
0.0
 11
23.750000000000011
 21
132.0968754543816
 31
0.0
  0
ARC
  5
1F0B
  8
0
 10
26.999168036797322
 20
113.6336177926291
 30
0.0
 40
0.5020092262404369
 50
270.09495443420877
 51
3.9246726941693519
  0
ARC
  5
1F0C
  8
0
 10
14.00083196320271
 20
113.6336177926291
 30
0.0
 40
0.50200922624038
 50
176.0753273058306
 51
269.90504556579123
  0
ARC
  5
1F0D
  8
0
 10
22.138122493299999
 20
114.4172051031816
 30
0.0
 40
1.6130528114475191
 50
355.3719970839004
 51
43.920972468939361
  0
ARC
  5
1F0E
  8
0
 10
22.622151453699999
 20
135.71316644738161
 30
0.0
 40
4.4164004288787986
 50
265.1661939641985
 51
284.79594482319862
  0
ARC
  5
1F0F
  8
0
 10
18.862840548000019
 20
114.4163768315816
 30
0.0
 40
1.6139461354422591
 50
136.09538555476229
 51
184.59593626239959
  0
ARC
  5
1F10
  8
0
 10
18.377848546400021
 20
135.71316644738161
 30
0.0
 40
4.4164004288776386
 50
255.20405517679961
 51
274.83380603579809
  0
LINE
  5
1F12
  8
0
 10
18.750000000000011
 20
131.31247376968159
 30
0.0
 11
22.250000000000011
 21
131.31247376968159
 31
0.0
  0
LINE
  5
1F17
  8
0
 10
51.402915810895081
 20
163.11424235508159
 30
0.0
 11
51.402915810895081
 21
162.11424235508159
 31
0.0
  0
LINE
  5
1F18
  8
0
 10
55.402915810895081
 20
162.11424235508159
 30
0.0
 11
55.402915810895081
 21
163.11424235508159
 31
0.0
  0
LINE
  5
1F19
  8
0
 10
59.402915810895081
 20
178.61424235508159
 30
0.0
 11
58.902915810895081
 21
179.11424235508159
 31
0.0
  0
LINE
  5
1F1A
  8
0
 10
47.902915810895067
 20
179.11424235508159
 30
0.0
 11
47.402915810895081
 21
178.61424235508159
 31
0.0
  0
LINE
  5
1F1B
  8
0
 10
59.402915810895081
 20
163.61424235508159
 30
0.0
 11
59.402915810895081
 21
164.11424235508159
 31
0.0
  0
LINE
  5
1F1C
  8
0
 10
59.402915810895081
 20
167.86424235508159
 30
0.0
 11
59.402915810895081
 21
174.36424235508159
 31
0.0
  0
LINE
  5
1F1D
  8
0
 10
59.402915810895081
 20
178.11424235508159
 30
0.0
 11
59.402915810895081
 21
178.61424235508159
 31
0.0
  0
LINE
  5
1F1E
  8
0
 10
47.402915810895081
 20
178.61424235508159
 30
0.0
 11
47.402915810895081
 21
178.11424235508159
 31
0.0
  0
LINE
  5
1F1F
  8
0
 10
47.402915810895081
 20
174.36424235508159
 30
0.0
 11
47.402915810895081
 21
167.86424235508159
 31
0.0
  0
LINE
  5
1F20
  8
0
 10
47.402915810895081
 20
164.11424235508159
 30
0.0
 11
47.402915810895081
 21
163.61424235508159
 31
0.0
  0
LINE
  5
1F21
  8
0
 10
47.402915810895081
 20
163.61424235508159
 30
0.0
 11
47.902915810895067
 21
163.11424235508159
 31
0.0
  0
LINE
  5
1F22
  8
0
 10
58.902915810895081
 20
163.11424235508159
 30
0.0
 11
59.402915810895081
 21
163.61424235508159
 31
0.0
  0
LINE
  5
1F31
  8
0
 10
44.190649462595097
 20
177.61424235508159
 30
0.0
 11
44.190649462595097
 21
174.36424235508159
 31
0.0
  0
LINE
  5
1F32
  8
0
 10
44.190649462595097
 20
167.86424235508159
 30
0.0
 11
44.190649462595097
 21
164.61424235508159
 31
0.0
  0
POLYLINE
  5
1F33
  8
0
 66
     1
 10
0.0
 20
0.0
 30
0.0
 70
   128
  0
VERTEX
  5
2C4B
  8
0
 10
44.923451795395067
 20
178.11424235508159
 30
0.0
  0
VERTEX
  5
2C4C
  8
0
 10
44.68918831199511
 20
178.10595929448161
 30
0.0
  0
VERTEX
  5
2C4D
  8
0
 10
44.524433796295057
 20
178.07938834458159
 30
0.0
  0
VERTEX
  5
2C4E
  8
0
 10
44.417811900795073
 20
178.03323718448161
 30
0.0
  0
VERTEX
  5
2C4F
  8
0
 10
44.34318852629508
 20
177.96847155828161
 30
0.0
  0
VERTEX
  5
2C50
  8
0
 10
44.311484890295098
 20
177.93010145888161
 30
0.0
  0
VERTEX
  5
2C51
  8
0
 10
44.296633726995083
 20
177.90967879828159
 30
0.0
  0
VERTEX
  5
2C52
  8
0
 10
44.282447374495057
 20
177.88854786838161
 30
0.0
  0
VERTEX
  5
2C53
  8
0
 10
44.26897043649506
 20
177.86680208208159
 30
0.0
  0
VERTEX
  5
2C54
  8
0
 10
44.256273005995119
 20
177.84453791188159
 30
0.0
  0
VERTEX
  5
2C55
  8
0
 10
44.233572162795099
 20
177.79884749628161
 30
0.0
  0
VERTEX
  5
2C56
  8
0
 10
44.201538938395061
 20
177.70552096868161
 30
0.0
  0
VERTEX
  5
2C57
  8
0
 10
44.190649462695092
 20
177.61424235508159
 30
0.0
  0
SEQEND
  5
2C58
  8
0
  0
POLYLINE
  5
1F34
  8
0
 66
     1
 10
0.0
 20
0.0
 30
0.0
 70
   128
  0
VERTEX
  5
2C59
  8
0
 10
44.190649462695092
 20
164.61424235508159
 30
0.0
  0
VERTEX
  5
2C5A
  8
0
 10
44.199292775095103
 20
164.52313498848159
 30
0.0
  0
VERTEX
  5
2C5B
  8
0
 10
44.21043695409508
 20
164.4764798395816
 30
0.0
  0
VERTEX
  5
2C5C
  8
0
 10
44.217763258395109
 20
164.4531594458816
 30
0.0
  0
VERTEX
  5
2C5D
  8
0
 10
44.226265516695094
 20
164.42996456758161
 30
0.0
  0
VERTEX
  5
2C5E
  8
0
 10
44.235950982795082
 20
164.40699004228159
 30
0.0
  0
VERTEX
  5
2C5F
  8
0
 10
44.246834769995068
 20
164.3843328797816
 30
0.0
  0
VERTEX
  5
2C60
  8
0
 10
44.27233333009508
 20
164.3403623657816
 30
0.0
  0
VERTEX
  5
2C61
  8
0
 10
44.340416161895057
 20
164.26044473268161
 30
0.0
  0
VERTEX
  5
2C62
  8
0
 10
44.475955955795087
 20
164.17797649558159
 30
0.0
  0
VERTEX
  5
2C63
  8
0
 10
44.67148413729506
 20
164.12932569688169
 30
0.0
  0
VERTEX
  5
2C64
  8
0
 10
44.923451795395067
 20
164.11424235508159
 30
0.0
  0
SEQEND
  5
2C65
  8
0
  0
LINE
  5
1F35
  8
0
 10
51.402915810895081
 20
162.11424235508159
 30
0.0
 11
55.402915810895081
 21
162.11424235508159
 31
0.0
  0
ARC
  5
1F3A
  8
0
 10
53.402915810895081
 20
171.11424235508159
 30
0.0
 40
8.0000000000000266
 50
336.68858400959999
 51
23.24816094359878
  0
ARC
  5
1F3B
  8
0
 10
53.402915810895081
 20
171.11424235508159
 30
0.0
 40
8.0000000000000089
 50
156.0305176822398
 51
203.96948231780021
  0
LINE
  5
1F3C
  8
0
 10
47.902915810895067
 20
179.11424235508159
 30
0.0
 11
58.902915810895081
 21
179.11424235508159
 31
0.0
  0
LINE
  5
1F41
  8
0
 10
58.902915810895081
 20
163.11424235508159
 30
0.0
 11
47.902915810895067
 21
163.11424235508159
 31
0.0
  0
LINE
  5
1F45
  8
0
 10
44.923451795395067
 20
178.11424235508159
 30
0.0
 11
54.186919471995111
 21
178.11424235508159
 31
0.0
  0
LINE
  5
1F47
  8
0
 10
54.186919471995111
 20
164.11424235508159
 30
0.0
 11
44.923451795395067
 21
164.11424235508159
 31
0.0
  0
LINE
  5
1F5D
  8
0
 10
63.022336164295098
 20
164.11424235508159
 30
0.0
 11
54.186919471995111
 21
164.11424235508159
 31
0.0
  0
LINE
  5
1F60
  8
0
 10
54.186919471995111
 20
178.11424235508159
 30
0.0
 11
63.022336164295098
 21
178.11424235508159
 31
0.0
  0
ARC
  5
1F63
  8
0
 10
61.655918303995122
 20
169.36139380868161
 30
0.0
 40
1.497154184314377
 50
270.10942975489849
 51
0.1090133411001293
  0
LINE
  5
1F64
  8
0
 10
63.153069778395093
 20
172.86424235508159
 30
0.0
 11
63.153069778395093
 21
169.36424235508159
 31
0.0
  0
ARC
  5
1F65
  8
0
 10
61.655918303995122
 20
172.8670909013816
 30
0.0
 40
1.497154184314446
 50
359.89098665889992
 51
89.890570245101472
  0
CIRCLE
  5
1F66
  8
0
 10
109.9604214153951
 20
171.11586423158161
 30
0.0
 40
5.2851662792421239
  0
LINE
  5
1F67
  8
0
 10
61.658777731295118
 20
167.86424235508159
 30
0.0
 11
44.190649462595097
 21
167.86424235508159
 31
0.0
  0
LINE
  5
1F68
  8
0
 10
61.658777731295118
 20
174.36424235508159
 30
0.0
 11
44.190649462595097
 21
174.36424235508159
 31
0.0
  0
ARC
  5
1F69
  8
0
 10
60.253770692895102
 20
169.43164592338161
 30
0.0
 40
1.563392281997376
 50
270.55242387999851
 51
357.52900314499999
  0
ARC
  5
1F6C
  8
0
 10
60.249269609895123
 20
172.7921844020816
 30
0.0
 40
1.5680961785348051
 50
2.6338122891999611
 51
89.284760685799966
  0
POLYLINE
  5
1F6D
  8
0
 66
     1
 10
0.0
 20
0.0
 30
0.0
 70
   128
  0
VERTEX
  5
2C66
  8
0
 10
63.022336164295098
 20
178.11424235508159
 30
0.0
  0
VERTEX
  5
2C67
  8
0
 10
65.996606222195055
 20
178.06053523368161
 30
0.0
  0
VERTEX
  5
2C68
  8
0
 10
69.159714827795085
 20
177.89549454598159
 30
0.0
  0
VERTEX
  5
2C69
  8
0
 10
72.452254992695075
 20
177.6007054092816
 30
0.0
  0
VERTEX
  5
2C6A
  8
0
 10
75.78625769509506
 20
177.1969983960816
 30
0.0
  0
VERTEX
  5
2C6B
  8
0
 10
79.146679385695052
 20
176.85018265658161
 30
0.0
  0
VERTEX
  5
2C6C
  8
0
 10
82.529715370795074
 20
176.66143758528159
 30
0.0
  0
VERTEX
  5
2C6D
  8
0
 10
85.92891467299512
 20
176.61053440478159
 30
0.0
  0
VERTEX
  5
2C6E
  8
0
 10
90.383518706695099
 20
176.68701110018159
 30
0.0
  0
VERTEX
  5
2C6F
  8
0
 10
94.845977906795099
 20
176.90119987868161
 30
0.0
  0
VERTEX
  5
2C70
  8
0
 10
99.310518072795105
 20
177.24148966078161
 30
0.0
  0
VERTEX
  5
2C71
  8
0
 10
101.4143866794951
 20
177.4422467084816
 30
0.0
  0
VERTEX
  5
2C72
  8
0
 10
103.5170490050951
 20
177.66658221218159
 30
0.0
  0
VERTEX
  5
2C73
  8
0
 10
105.619284730895
 20
177.90100572958161
 30
0.0
  0
VERTEX
  5
2C74
  8
0
 10
107.7290407449951
 20
178.06495165438159
 30
0.0
  0
VERTEX
  5
2C75
  8
0
 10
109.6491612765042
 20
178.1191984860836
 30
0.0
  0
SEQEND
  5
2C76
  8
0
  0
POLYLINE
  5
1F73
  8
0
 66
     1
 10
0.0
 20
0.0
 30
0.0
 70
   128
  0
VERTEX
  5
2C77
  8
0
 10
63.022336164295098
 20
164.11424235508159
 30
0.0
  0
VERTEX
  5
2C78
  8
0
 10
66.998816115595105
 20
164.20788045818159
 30
0.0
  0
VERTEX
  5
2C79
  8
0
 10
70.956544022295077
 20
164.47824293968159
 30
0.0
  0
VERTEX
  5
2C7A
  8
0
 10
74.877935586195122
 20
164.9182656170816
 30
0.0
  0
VERTEX
  5
2C7B
  8
0
 10
78.761025681795104
 20
165.3483143466816
 30
0.0
  0
VERTEX
  5
2C7C
  8
0
 10
82.616584901195097
 20
165.5741538620816
 30
0.0
  0
VERTEX
  5
2C7D
  8
0
 10
86.448513130295098
 20
165.61453071108161
 30
0.0
  0
VERTEX
  5
2C7E
  8
0
 10
90.719121989195045
 20
165.52430777548159
 30
0.0
  0
VERTEX
  5
2C7F
  8
0
 10
94.989018170695076
 20
165.3152486586817
 30
0.0
  0
VERTEX
  5
2C80
  8
0
 10
99.300533924395111
 20
164.9872747535816
 30
0.0
  0
VERTEX
  5
2C81
  8
0
 10
101.0156267973951
 20
164.82612073968161
 30
0.0
  0
VERTEX
  5
2C82
  8
0
 10
102.74689152109509
 20
164.6468380078816
 30
0.0
  0
VERTEX
  5
2C83
  8
0
 10
104.4965044914951
 20
164.4507665436816
 30
0.0
  0
VERTEX
  5
2C84
  8
0
 10
106.2542042171951
 20
164.2669525483816
 30
0.0
  0
VERTEX
  5
2C85
  8
0
 10
108.003521470095
 20
164.1478316598816
 30
0.0
  0
VERTEX
  5
2C86
  8
0
 10
109.8093639932151
 20
164.1210319340816
 30
0.0
  0
SEQEND
  5
2C87
  8
0
  0
LINE
  5
1F74
  8
0
 10
61.8157092916951
 20
169.36424235508159
 30
0.0
 11
61.8157092916951
 21
172.86424235508159
 31
0.0
  0
LINE
  5
1F89
  8
0
 10
55.402915810895081
 20
59.114242355081643
 30
0.0
 11
55.402915810895081
 21
60.114242355081643
 31
0.0
  0
LINE
  5
1F8A
  8
0
 10
51.402915810895081
 20
60.114242355081643
 30
0.0
 11
51.402915810895081
 21
59.114242355081643
 31
0.0
  0
LINE
  5
1F8B
  8
0
 10
47.402915810895081
 20
43.614242355081643
 30
0.0
 11
47.902915810895067
 21
43.114242355081643
 31
0.0
  0
LINE
  5
1F8C
  8
0
 10
58.902915810895081
 20
43.114242355081643
 30
0.0
 11
59.402915810895081
 21
43.614242355081643
 31
0.0
  0
LINE
  5
1F8D
  8
0
 10
47.402915810895081
 20
58.614242355081643
 30
0.0
 11
47.402915810895081
 21
58.114242355081643
 31
0.0
  0
LINE
  5
1F8E
  8
0
 10
47.402915810895081
 20
44.114242355081643
 30
0.0
 11
47.402915810895081
 21
43.614242355081643
 31
0.0
  0
LINE
  5
1F8F
  8
0
 10
59.402915810895081
 20
43.614242355081643
 30
0.0
 11
59.402915810895081
 21
44.114242355081643
 31
0.0
  0
LINE
  5
1F90
  8
0
 10
59.402915810895081
 20
58.114242355081643
 30
0.0
 11
59.402915810895081
 21
58.614242355081643
 31
0.0
  0
LINE
  5
1F91
  8
0
 10
59.402915810895081
 20
58.614242355081643
 30
0.0
 11
58.902915810895081
 21
59.114242355081643
 31
0.0
  0
LINE
  5
1F92
  8
0
 10
47.902915810895067
 20
59.114242355081643
 30
0.0
 11
47.402915810895081
 21
58.614242355081643
 31
0.0
  0
POLYLINE
  5
1F9D
  8
0
 66
     1
 10
0.0
 20
0.0
 30
0.0
 70
   128
  0
VERTEX
  5
2C88
  8
0
 10
44.190649462695092
 20
44.614242355081643
 30
0.0
  0
VERTEX
  5
2C89
  8
0
 10
44.199508498695081
 20
44.523050535081637
 30
0.0
  0
VERTEX
  5
2C8A
  8
0
 10
44.210795094195078
 20
44.476356762081643
 30
0.0
  0
VERTEX
  5
2C8B
  8
0
 10
44.218153409395093
 20
44.45301950258164
 30
0.0
  0
VERTEX
  5
2C8C
  8
0
 10
44.22664786859508
 20
44.429809955781629
 30
0.0
  0
VERTEX
  5
2C8D
  8
0
 10
44.236284148595132
 20
44.406823342281633
 30
0.0
  0
VERTEX
  5
2C8E
  8
0
 10
44.247087251795101
 20
44.384157003781638
 30
0.0
  0
VERTEX
  5
2C8F
  8
0
 10
44.272453863095052
 20
44.340177864081639
 30
0.0
  0
VERTEX
  5
2C90
  8
0
 10
44.342509508995079
 20
44.260281026281632
 30
0.0
  0
VERTEX
  5
2C91
  8
0
 10
44.496574004395079
 20
44.177885613181637
 30
0.0
  0
VERTEX
  5
2C92
  8
0
 10
44.746379994895108
 20
44.129301841681631
 30
0.0
  0
VERTEX
  5
2C93
  8
0
 10
45.10005255479507
 20
44.114242355081643
 30
0.0
  0
SEQEND
  5
2C94
  8
0
  0
POLYLINE
  5
1F9E
  8
0
 66
     1
 10
0.0
 20
0.0
 30
0.0
 70
   128
  0
VERTEX
  5
2C95
  8
0
 10
45.10005255479507
 20
58.114242355081643
 30
0.0
  0
VERTEX
  5
2C96
  8
0
 10
44.754336494895092
 20
58.106001930481639
 30
0.0
  0
VERTEX
  5
2C97
  8
0
 10
44.536739917595121
 20
58.079555547481633
 30
0.0
  0
VERTEX
  5
2C98
  8
0
 10
44.468244622195073
 20
58.05900748308165
 30
0.0
  0
VERTEX
  5
2C99
  8
0
 10
44.418320218995063
 20
58.033567650381642
 30
0.0
  0
VERTEX
  5
2C9A
  8
0
 10
44.379850023195097
 20
58.003421463081636
 30
0.0
  0
VERTEX
  5
2C9B
  8
0
 10
44.3472633179951
 20
57.968921561481643
 30
0.0
  0
VERTEX
  5
2C9C
  8
0
 10
44.317460883295098
 20
57.930574555181629
 30
0.0
  0
VERTEX
  5
2C9D
  8
0
 10
44.303173270895059
 20
57.910152573481632
 30
0.0
  0
VERTEX
  5
2C9E
  8
0
 10
44.296163448395077
 20
57.899667461981643
 30
0.0
  0
VERTEX
  5
2C9F
  8
0
 10
44.289247442395087
 20
57.889014951481641
 30
0.0
  0
VERTEX
  5
2CA0
  8
0
 10
44.282433038995123
 20
57.878206870381632
 30
0.0
  0
VERTEX
  5
2CA1
  8
0
 10
44.275730981195117
 20
57.867255249681648
 30
0.0
  0
VERTEX
  5
2CA2
  8
0
 10
44.262718951595097
 20
57.844970267781633
 30
0.0
  0
VERTEX
  5
2CA3
  8
0
 10
44.250339668195068
 20
57.822258672281627
 30
0.0
  0
VERTEX
  5
2CA4
  8
0
 10
44.238741782795103
 20
57.79921963498164
 30
0.0
  0
VERTEX
  5
2CA5
  8
0
 10
44.203235594195121
 20
57.705719246381648
 30
0.0
  0
VERTEX
  5
2CA6
  8
0
 10
44.190649462695092
 20
57.614242355081643
 30
0.0
  0
SEQEND
  5
2CA7
  8
0
  0
LINE
  5
1F9F
  8
0
 10
44.190649462595097
 20
47.864242355081643
 30
0.0
 11
44.190649462595097
 21
44.614242355081643
 31
0.0
  0
LINE
  5
1FA0
  8
0
 10
44.190649462595097
 20
57.614242355081643
 30
0.0
 11
44.190649462595097
 21
54.364242355081643
 31
0.0
  0
LINE
  5
1FA6
  8
0
 10
53.402915810895081
 20
60.114242355081643
 30
0.0
 11
51.402915810895081
 21
60.114242355081643
 31
0.0
  0
LINE
  5
1FA7
  8
0
 10
55.402915810895081
 20
60.114242355081643
 30
0.0
 11
53.402915810895081
 21
60.114242355081643
 31
0.0
  0
CIRCLE
  5
1FA8
  8
0
 10
53.402915810895081
 20
51.114242355081643
 30
0.0
 40
7.9999999999999858
  0
LINE
  5
1FAC
  8
0
 10
58.902915810895081
 20
43.114242355081643
 30
0.0
 11
47.902915810895067
 21
43.114242355081643
 31
0.0
  0
LINE
  5
1FB4
  8
0
 10
47.902915810895067
 20
59.114242355081643
 30
0.0
 11
58.902915810895081
 21
59.114242355081643
 31
0.0
  0
POLYLINE
  5
1FB6
  8
0
 66
     1
 10
0.0
 20
0.0
 30
0.0
 70
   128
  0
VERTEX
  5
2CA8
  8
0
 10
107.93196431059501
 20
58.075780319181632
 30
0.0
  0
VERTEX
  5
2CA9
  8
0
 10
107.0795986136951
 20
58.025819400581639
 30
0.0
  0
VERTEX
  5
2CAA
  8
0
 10
104.32242802119509
 20
57.762475568881641
 30
0.0
  0
VERTEX
  5
2CAB
  8
0
 10
101.5673594588951
 20
57.455167427081633
 30
0.0
  0
VERTEX
  5
2CAC
  8
0
 10
98.811366541895111
 20
57.194312639981632
 30
0.0
  0
VERTEX
  5
2CAD
  8
0
 10
96.05439225489512
 20
56.981679210781628
 30
0.0
  0
VERTEX
  5
2CAE
  8
0
 10
92.442612332295084
 20
56.776619091881628
 30
0.0
  0
VERTEX
  5
2CAF
  8
0
 10
88.829252597695117
 20
56.654652031981641
 30
0.0
  0
VERTEX
  5
2CB0
  8
0
 10
85.214285578995089
 20
56.61424105478163
 30
0.0
  0
VERTEX
  5
2CB1
  8
0
 10
82.1412928318951
 20
56.670994866481628
 30
0.0
  0
VERTEX
  5
2CB2
  8
0
 10
79.084999462195071
 20
56.838415848481638
 30
0.0
  0
VERTEX
  5
2CB3
  8
0
 10
76.045264812495077
 20
57.115435936281642
 30
0.0
  0
VERTEX
  5
2CB4
  8
0
 10
73.029048314595116
 20
57.482934761281641
 30
0.0
  0
VERTEX
  5
2CB5
  8
0
 10
71.040060549495081
 20
57.693594523481629
 30
0.0
  0
VERTEX
  5
2CB6
  8
0
 10
69.087591332195075
 20
57.859228246181651
 30
0.0
  0
VERTEX
  5
2CB7
  8
0
 10
67.190334558995119
 20
57.979590443481641
 30
0.0
  0
VERTEX
  5
2CB8
  8
0
 10
65.369432547595125
 20
58.058297294581642
 30
0.0
  0
VERTEX
  5
2CB9
  8
0
 10
63.643663006395059
 20
58.10122890028164
 30
0.0
  0
VERTEX
  5
2CBA
  8
0
 10
62.007847370195122
 20
58.114242355081643
 30
0.0
  0
SEQEND
  5
2CBB
  8
0
  0
ARC
  5
1FB7
  8
0
 10
109.80863653679511
 20
51.120140568881631
 30
0.0
 40
7.0082158064556017
 50
359.95177905309993
 51
89.712261594300998
  0
POLYLINE
  5
1FB9
  8
0
 66
     1
 10
0.0
 20
0.0
 30
0.0
 70
   128
  0
VERTEX
  5
2CBC
  8
0
 10
61.8157092916951
 20
56.614087899081639
 30
0.0
  0
VERTEX
  5
2CBD
  8
0
 10
63.241526618695097
 20
56.505948281781642
 30
0.0
  0
VERTEX
  5
2CBE
  8
0
 10
64.791131818095096
 20
56.375853227281631
 30
0.0
  0
VERTEX
  5
2CBF
  8
0
 10
66.445983716495107
 20
56.218251697781639
 30
0.0
  0
VERTEX
  5
2CC0
  8
0
 10
68.187211190595121
 20
56.027577790781642
 30
0.0
  0
VERTEX
  5
2CC1
  8
0
 10
69.995109913695103
 20
55.798224960181628
 30
0.0
  0
VERTEX
  5
2CC2
  8
0
 10
71.846972696495072
 20
55.524438948281642
 30
0.0
  0
VERTEX
  5
2CC3
  8
0
 10
73.7193416339951
 20
55.200428570081641
 30
0.0
  0
VERTEX
  5
2CC4
  8
0
 10
75.587901044895091
 20
54.819154317381631
 30
0.0
  0
VERTEX
  5
2CC5
  8
0
 10
78.051487834895056
 20
54.237907429681641
 30
0.0
  0
VERTEX
  5
2CC6
  8
0
 10
80.496088627595114
 20
53.650735821481632
 30
0.0
  0
VERTEX
  5
2CC7
  8
0
 10
82.956144281795105
 20
53.171608684581642
 30
0.0
  0
VERTEX
  5
2CC8
  8
0
 10
84.195059597895124
 20
53.006910283881638
 30
0.0
  0
VERTEX
  5
2CC9
  8
0
 10
85.444821920695077
 20
52.912066622481632
 30
0.0
  0
VERTEX
  5
2CCA
  8
0
 10
86.728423067695076
 20
52.906997146881629
 30
0.0
  0
VERTEX
  5
2CCB
  8
0
 10
87.69160809709507
 20
52.954637680581641
 30
0.0
  0
VERTEX
  5
2CCC
  8
0
 10
88.629530628395074
 20
53.032481146981631
 30
0.0
  0
VERTEX
  5
2CCD
  8
0
 10
89.552918973195105
 20
53.132413018381641
 30
0.0
  0
VERTEX
  5
2CCE
  8
0
 10
90.477745571995115
 20
53.248315618081641
 30
0.0
  0
VERTEX
  5
2CCF
  8
0
 10
92.971450971795093
 20
53.618959969781621
 30
0.0
  0
VERTEX
  5
2CD0
  8
0
 10
95.513509647395097
 20
54.053235831881629
 30
0.0
  0
VERTEX
  5
2CD1
  8
0
 10
98.099749684495123
 20
54.506794320681628
 30
0.0
  0
VERTEX
  5
2CD2
  8
0
 10
100.0625577988951
 20
54.830294070181637
 30
0.0
  0
VERTEX
  5
2CD3
  8
0
 10
102.0304446554951
 20
55.115502683781642
 30
0.0
  0
VERTEX
  5
2CD4
  8
0
 10
103.9817131401951
 20
55.338938030781627
 30
0.0
  0
VERTEX
  5
2CD5
  8
0
 10
105.9812924429951
 20
55.474775285781632
 30
0.0
  0
VERTEX
  5
2CD6
  8
0
 10
107.3055895759951
 20
55.484188722481633
 30
0.0
  0
VERTEX
  5
2CD7
  8
0
 10
108.5216804986951
 20
55.414655547581653
 30
0.0
  0
VERTEX
  5
2CD8
  8
0
 10
109.60604509869501
 20
55.271908069181627
 30
0.0
  0
VERTEX
  5
2CD9
  8
0
 10
110.371366325295
 20
55.117906067781632
 30
0.0
  0
VERTEX
  5
2CDA
  8
0
 10
111.1152280486951
 20
54.917434780781633
 30
0.0
  0
VERTEX
  5
2CDB
  8
0
 10
111.844712790895
 20
54.667466821381637
 30
0.0
  0
VERTEX
  5
2CDC
  8
0
 10
112.54754213399509
 20
54.369578271081629
 30
0.0
  0
VERTEX
  5
2CDD
  8
0
 10
113.2094230230951
 20
54.027522797181639
 30
0.0
  0
VERTEX
  5
2CDE
  8
0
 10
113.82736479589499
 20
53.649160941181627
 30
0.0
  0
VERTEX
  5
2CDF
  8
0
 10
114.9307707353951
 20
52.819067124081641
 30
0.0
  0
VERTEX
  5
2CE0
  8
0
 10
115.85643943809509
 20
51.95039490148163
 30
0.0
  0
VERTEX
  5
2CE1
  8
0
 10
116.6030503894951
 20
51.114242355081643
 30
0.0
  0
SEQEND
  5
2CE2
  8
0
  0
POLYLINE
  5
1FCC
  8
0
 66
     1
 10
0.0
 20
0.0
 30
0.0
 70
   128
  0
VERTEX
  5
2CE3
  8
0
 10
61.8157092916951
 20
45.614396810981638
 30
0.0
  0
VERTEX
  5
2CE4
  8
0
 10
63.187217523895072
 20
45.719125428881632
 30
0.0
  0
VERTEX
  5
2CE5
  8
0
 10
64.674002986695086
 20
45.845344280781632
 30
0.0
  0
VERTEX
  5
2CE6
  8
0
 10
66.259978498195096
 20
45.99723406298164
 30
0.0
  0
VERTEX
  5
2CE7
  8
0
 10
67.929056876695086
 20
46.178975471581637
 30
0.0
  0
VERTEX
  5
2CE8
  8
0
 10
69.664558091795129
 20
46.394952468881641
 30
0.0
  0
VERTEX
  5
2CE9
  8
0
 10
71.447430719095109
 20
46.650362082981637
 30
0.0
  0
VERTEX
  5
2CEA
  8
0
 10
73.258030485895119
 20
46.950604607881637
 30
0.0
  0
VERTEX
  5
2CEB
  8
0
 10
75.076713119395095
 20
47.30108033808164
 30
0.0
  0
VERTEX
  5
2CEC
  8
0
 10
77.488195770395123
 20
47.847430806681643
 30
0.0
  0
VERTEX
  5
2CED
  8
0
 10
79.886046333695106
 20
48.431023843481633
 30
0.0
  0
VERTEX
  5
2CEE
  8
0
 10
82.288731513795085
 20
48.942372419081643
 30
0.0
  0
VERTEX
  5
2CEF
  8
0
 10
84.103173025495096
 20
49.210947953281632
 30
0.0
  0
VERTEX
  5
2CF0
  8
0
 10
85.93190666389512
 20
49.330522378081639
 30
0.0
  0
VERTEX
  5
2CF1
  8
0
 10
86.856202352395087
 20
49.318681354081633
 30
0.0
  0
VERTEX
  5
2CF2
  8
0
 10
87.766749932495088
 20
49.268632037981646
 30
0.0
  0
VERTEX
  5
2CF3
  8
0
 10
88.645287357195116
 20
49.193935403281642
 30
0.0
  0
VERTEX
  5
2CF4
  8
0
 10
89.503552549595042
 20
49.101771919081642
 30
0.0
  0
VERTEX
  5
2CF5
  8
0
 10
91.80195711169506
 20
48.793421646481633
 30
0.0
  0
VERTEX
  5
2CF6
  8
0
 10
94.142629594395089
 20
48.415862682481638
 30
0.0
  0
VERTEX
  5
2CF7
  8
0
 10
96.526311082695102
 20
47.999695781081627
 30
0.0
  0
VERTEX
  5
2CF8
  8
0
 10
98.939172584595084
 20
47.581686190181628
 30
0.0
  0
VERTEX
  5
2CF9
  8
0
 10
101.368812555695
 20
47.203151867681633
 30
0.0
  0
VERTEX
  5
2CFA
  8
0
 10
103.8033503454951
 20
46.906493714781632
 30
0.0
  0
VERTEX
  5
2CFB
  8
0
 10
105.624220486095
 20
46.768250673681628
 30
0.0
  0
VERTEX
  5
2CFC
  8
0
 10
107.42954798559509
 20
46.747876636581637
 30
0.0
  0
VERTEX
  5
2CFD
  8
0
 10
108.3225090322951
 20
46.797020330081637
 30
0.0
  0
VERTEX
  5
2CFE
  8
0
 10
109.20576134009499
 20
46.894465561381637
 30
0.0
  0
VERTEX
  5
2CFF
  8
0
 10
110.0828211661951
 20
47.048061296181643
 30
0.0
  0
VERTEX
  5
2D00
  8
0
 10
110.9725013594951
 20
47.269299703381627
 30
0.0
  0
VERTEX
  5
2D01
  8
0
 10
111.85903382419509
 20
47.566820411581631
 30
0.0
  0
VERTEX
  5
2D02
  8
0
 10
112.7192734173951
 20
47.939510999381639
 30
0.0
  0
VERTEX
  5
2D03
  8
0
 10
113.5328713614951
 20
48.382425962881641
 30
0.0
  0
VERTEX
  5
2D04
  8
0
 10
114.28759543479509
 20
48.884660853681638
 30
0.0
  0
VERTEX
  5
2D05
  8
0
 10
114.9746387893951
 20
49.431873461381642
 30
0.0
  0
VERTEX
  5
2D06
  8
0
 10
115.5907795161951
 20
50.001929473081638
 30
0.0
  0
VERTEX
  5
2D07
  8
0
 10
116.1341919410951
 20
50.570746550481651
 30
0.0
  0
VERTEX
  5
2D08
  8
0
 10
116.6030503894951
 20
51.114242355081643
 30
0.0
  0
SEQEND
  5
2D09
  8
0
  0
ARC
  5
1FCD
  8
0
 10
109.80863653679511
 20
51.108344141181632
 30
0.0
 40
7.0082158064313171
 50
270.28773841060058
 51
0.0482209469994182
  0
LINE
  5
1FD2
  8
0
 10
61.8157092916951
 20
52.864242355081643
 30
0.0
 11
61.8157092916951
 21
49.364242355081643
 31
0.0
  0
LINE
  5
1FD4
  8
0
 10
57.902915810895081
 20
44.114242355081643
 30
0.0
 11
57.249438124295118
 21
44.114242355081643
 31
0.0
  0
LINE
  5
1FD6
  8
0
 10
57.199711034795079
 20
58.114242355081643
 30
0.0
 11
57.902915810895081
 21
58.114242355081643
 31
0.0
  0
ARC
  5
1FD7
  8
0
 10
59.81460289659509
 20
44.566987030081627
 30
0.0
 40
0.4566925930561319
 50
277.53916175229989
 51
5.9391931805000562
  0
LINE
  5
1FD8
  8
0
 10
59.874522707395101
 20
44.114242355081643
 30
0.0
 11
57.902915810895081
 21
44.114242355081643
 31
0.0
  0
ARC
  5
1FD9
  8
0
 10
59.81460289659509
 20
57.661497679981643
 30
0.0
 40
0.4566925930561947
 50
354.06080681949987
 51
82.460838247700025
  0
LINE
  5
1FDA
  8
0
 10
57.902915810895081
 20
58.114242355081643
 30
0.0
 11
59.874522707395101
 21
58.114242355081643
 31
0.0
  0
LINE
  5
1FE0
  8
0
 10
49.529932464687697
 20
44.114242355081643
 30
0.0
 11
45.083497535695066
 21
44.114242355081643
 31
0.0
  0
LINE
  5
1FE2
  8
0
 10
45.083492082295102
 20
58.114242355081643
 30
0.0
 11
49.529932464687697
 21
58.114242355081643
 31
0.0
  0
ARC
  5
1FE3
  8
0
 10
65.850385348695113
 20
64.550512525781642
 30
0.0
 40
8.9031144405446927
 50
231.1767442312991
 51
243.05237636859951
  0
ARC
  5
1FE4
  8
0
 10
60.322472680495082
 20
52.833119210381639
 30
0.0
 40
1.493560921808464
 50
1.1940282370995119
 51
74.74095781650017
  0
ARC
  5
1FE5
  8
0
 10
60.396976632295093
 20
49.351155636781641
 30
0.0
 40
1.4187930155164881
 50
283.52400809539881
 51
0.5284945364998027
  0
ARC
  5
1FE6
  8
0
 10
66.047289878795084
 20
37.373434455681632
 30
0.0
 40
9.2638941492110511
 50
117.1796533918999
 51
128.5912260083002
  0
LINE
  5
1FE7
  8
0
 10
59.874522707395101
 20
58.114242355081643
 30
0.0
 11
62.007847370195122
 21
58.114242355081643
 31
0.0
  0
LINE
  5
1FEC
  8
0
 10
62.007847370195122
 20
44.114242355081643
 30
0.0
 11
59.874522707395101
 21
44.114242355081643
 31
0.0
  0
POLYLINE
  5
1FF1
  8
0
 66
     1
 10
0.0
 20
0.0
 30
0.0
 70
   128
  0
VERTEX
  5
2D0A
  8
0
 10
107.93196431059501
 20
58.075780319181632
 30
0.0
  0
VERTEX
  5
2D0B
  8
0
 10
108.003521470095
 20
58.080653050181638
 30
0.0
  0
VERTEX
  5
2D0C
  8
0
 10
109.84383152639511
 20
58.128268000881633
 30
0.0
  0
SEQEND
  5
2D0D
  8
0
  0
LINE
  5
1FF2
  8
0
 10
62.007847370195122
 20
58.114242355081643
 30
0.0
 11
63.022336164295098
 21
58.114242355081643
 31
0.0
  0
LINE
  5
1FF3
  8
0
 10
44.222380864695083
 20
47.864242355081643
 30
0.0
 11
46.092820052288339
 21
47.864242355081643
 31
0.0
  0
LINE
  5
1FF4
  8
0
 10
44.222380864695083
 20
54.364242355081643
 30
0.0
 11
46.092820052288339
 21
54.364242355081643
 31
0.0
  0
LINE
  5
1FF6
  8
0
 10
60.268844086695083
 20
47.00826757298163
 30
0.0
 11
60.268844086695083
 21
44.614242355081643
 31
0.0
  0
LINE
  5
1FF9
  8
0
 10
60.268844086695083
 20
57.614242355081643
 30
0.0
 11
60.268844086695083
 21
55.220217137081633
 31
0.0
  0
LINE
  5
2088
  8
0
 10
52.531400748410199
 20
113.16966042523011
 30
0.0
 11
53.402915810910223
 21
113.1316092558301
 31
0.0
  0
ARC
  5
20D0
  8
0
 10
109.8093639932151
 20
171.1210319340816
 30
0.0
 40
7.0
 50
268.29952119583498
 51
91.925163556263044
  0
POLYLINE
  5
2157
  8
0
 66
     1
 10
0.0
 20
0.0
 30
0.0
 70
   128
  0
VERTEX
  5
2D0E
  8
0
 10
107.93196431123989
 20
44.152704390951229
 30
0.0
  0
VERTEX
  5
2D0F
  8
0
 10
107.07959861434
 20
44.202665309551222
 30
0.0
  0
VERTEX
  5
2D10
  8
0
 10
104.3224280218399
 20
44.46600914125122
 30
0.0
  0
VERTEX
  5
2D11
  8
0
 10
101.56735945954
 20
44.773317283051227
 30
0.0
  0
VERTEX
  5
2D12
  8
0
 10
98.81136654254
 20
45.034172070151229
 30
0.0
  0
VERTEX
  5
2D13
  8
0
 10
96.054392255539994
 20
45.246805499351218
 30
0.0
  0
VERTEX
  5
2D14
  8
0
 10
92.442612332939973
 20
45.451865618251233
 30
0.0
  0
VERTEX
  5
2D15
  8
0
 10
88.829252598340005
 20
45.573832678151213
 30
0.0
  0
VERTEX
  5
2D16
  8
0
 10
85.214285579639977
 20
45.614243655351231
 30
0.0
  0
VERTEX
  5
2D17
  8
0
 10
82.141292832539989
 20
45.557489843651233
 30
0.0
  0
VERTEX
  5
2D18
  8
0
 10
79.084999462839946
 20
45.390068861651208
 30
0.0
  0
VERTEX
  5
2D19
  8
0
 10
76.045264813139966
 20
45.113048773851212
 30
0.0
  0
VERTEX
  5
2D1A
  8
0
 10
73.029048315240004
 20
44.74554994885122
 30
0.0
  0
VERTEX
  5
2D1B
  8
0
 10
71.040060550139955
 20
44.534890186651232
 30
0.0
  0
VERTEX
  5
2D1C
  8
0
 10
69.087591332839963
 20
44.36925646395121
 30
0.0
  0
VERTEX
  5
2D1D
  8
0
 10
67.190334559640007
 20
44.24889426665122
 30
0.0
  0
VERTEX
  5
2D1E
  8
0
 10
65.369432548240013
 20
44.170187415551219
 30
0.0
  0
VERTEX
  5
2D1F
  8
0
 10
63.643663007039947
 20
44.127255809851221
 30
0.0
  0
VERTEX
  5
2D20
  8
0
 10
62.007847370840011
 20
44.114242355051218
 30
0.0
  0
SEQEND
  5
2D21
  8
0
  0
POLYLINE
  5
2158
  8
0
 66
     1
 10
0.0
 20
0.0
 30
0.0
 70
   128
  0
VERTEX
  5
2D22
  8
0
 10
107.93196431123989
 20
44.152704390951229
 30
0.0
  0
VERTEX
  5
2D23
  8
0
 10
108.0035214707399
 20
44.147831659951223
 30
0.0
  0
VERTEX
  5
2D24
  8
0
 10
109.84383152704
 20
44.100216709251221
 30
0.0
  0
SEQEND
  5
2D25
  8
0
  0
LINE
  5
22EF
  8
1
 10
39.190649462595097
 20
171.11424235508159
 30
0.0
 11
121.809350537405
 21
171.11424235508159
 31
0.0
  0
LINE
  5
22F0
  8
1
 10
53.402915810895081
 20
181.61424235508159
 30
0.0
 11
53.402915810895081
 21
160.61424235508159
 31
0.0
  0
LINE
  5
22F2
  8
1
 10
20.500000000000071
 20
83.131609255781626
 30
0.0
 11
20.500000000000071
 21
137.0968754543816
 31
0.0
  0
LINE
  5
22F5
  8
1
 10
10.000000000000011
 20
123.13112317158161
 30
0.0
 11
31.000000000000011
 21
123.13112317158161
 31
0.0
  0
LINE
  5
22F6
  8
1
 10
140.5
 20
83.131609255781612
 30
0.0
 11
140.5
 21
137.0968754543816
 31
0.0
  0
LINE
  5
22F7
  8
1
 10
130.0
 20
123.13112317158161
 30
0.0
 11
151.0
 21
123.13112317158161
 31
0.0
  0
LINE
  5
22F8
  8
1
 10
53.402915810895152
 20
83.131609255781612
 30
0.0
 11
53.402915810895152
 21
137.0968754543816
 31
0.0
  0
LINE
  5
22F9
  8
1
 10
44.902915810895088
 20
123.13112317158161
 30
0.0
 11
61.902915810895102
 21
123.13112317158161
 31
0.0
  0
LINE
  5
22FB
  8
1
 10
39.190649462595097
 20
51.114242355081643
 30
0.0
 11
121.809350537405
 21
51.114242355081643
 31
0.0
  0
LINE
  5
22FC
  8
1
 10
53.402915810895081
 20
61.614242355081643
 30
0.0
 11
53.402915810895081
 21
40.614242355081643
 31
0.0
  0
LINE
  5
2767
  8
0
 10
17.500000000000071
 20
130.13112317158149
 30
0.0
 11
17.500000000000071
 21
128.68923999828161
 31
0.0
  0
LINE
  5
2768
  8
0
 10
17.500000000000071
 20
117.5735712041816
 30
0.0
 11
17.500000000000071
 21
116.63112317158161
 31
0.0
  0
LINE
  5
2769
  8
0
 10
23.500000000000071
 20
116.63112317158161
 30
0.0
 11
23.500000000000071
 21
117.5704840324816
 31
0.0
  0
LINE
  5
276A
  8
0
 10
23.500000000000071
 20
128.69063750848159
 30
0.0
 11
23.500000000000071
 21
130.13112317158149
 31
0.0
  0
LINE
  5
276B
  8
0
 10
17.500000000000071
 20
110.1316092557816
 30
0.0
 11
17.500000000000071
 21
89.131609255781626
 31
0.0
  0
LINE
  5
276C
  8
0
 10
23.500000000000071
 20
89.131609255781626
 30
0.0
 11
23.500000000000071
 21
110.1316092557816
 31
0.0
  0
LINE
  5
276D
  8
0
 10
17.500000000000071
 20
89.131609255781626
 30
0.0
 11
18.500000000000071
 21
88.131609255781626
 31
0.0
  0
LINE
  5
276E
  8
0
 10
22.500000000000071
 20
88.131609255781626
 30
0.0
 11
23.500000000000071
 21
89.131609255781626
 31
0.0
  0
LINE
  5
276F
  8
0
 10
18.000000000000071
 20
130.63112317158161
 30
0.0
 11
17.500000000000071
 21
130.13112317158149
 31
0.0
  0
LINE
  5
2770
  8
0
 10
23.500000000000071
 20
130.13112317158149
 30
0.0
 11
23.000000000000071
 21
130.63112317158161
 31
0.0
  0
LINE
  5
2771
  8
0
 10
17.70000000000006
 20
116.63112317158161
 30
0.0
 11
17.70000000000006
 21
114.13112317158161
 31
0.0
  0
LINE
  5
2772
  8
0
 10
23.30000000000005
 20
114.13112317158161
 30
0.0
 11
23.30000000000005
 21
116.63112317158161
 31
0.0
  0
LINE
  5
2773
  8
0
 10
17.850000000000058
 20
114.13112317158161
 30
0.0
 11
17.850000000000058
 21
113.1316092557816
 31
0.0
  0
LINE
  5
2774
  8
0
 10
23.150000000000048
 20
113.1316092557816
 30
0.0
 11
23.150000000000048
 21
114.13112317158161
 31
0.0
  0
LINE
  5
2786
  8
0
 10
17.500000000000071
 20
116.63112317158161
 30
0.0
 11
23.500000000000071
 21
116.63112317158161
 31
0.0
  0
LINE
  5
2787
  8
0
 10
23.50000000000006
 20
130.13112317158149
 30
0.0
 11
17.500000000000071
 21
130.13112317158149
 31
0.0
  0
LINE
  5
278C
  8
0
 10
17.500000000000071
 20
89.131609255781626
 30
0.0
 11
23.500000000000071
 21
89.131609255781626
 31
0.0
  0
LINE
  5
278D
  8
0
 10
22.500000000000071
 20
88.131609255781626
 30
0.0
 11
18.500000000000071
 21
88.131609255781626
 31
0.0
  0
LINE
  5
278E
  8
0
 10
18.000000000000071
 20
130.63112317158161
 30
0.0
 11
23.000000000000071
 21
130.63112317158161
 31
0.0
  0
LINE
  5
2792
  8
0
 10
17.70000000000006
 20
114.13112317158161
 30
0.0
 11
23.30000000000005
 21
114.13112317158161
 31
0.0
  0
ARC
  5
2799
  8
0
 10
20.50071013190005
 20
108.5969534380816
 30
0.0
 40
9.4671509217906529
 50
69.926989649000333
 51
110.08216203479959
  0
ARC
  5
279A
  8
0
 10
20.501213450200041
 20
137.62713756958161
 30
0.0
 40
9.4322852705201097
 50
249.83713284180041
 51
290.1471634829004
  0
ARC
  5
27F5
  8
0
 10
53.402915810895081
 20
171.11424235508159
 30
0.0
 40
2.5
 50
282.70903299440039
 51
77.290967005599612
  0
ARC
  5
27F9
  8
0
 10
53.402915810895081
 20
171.11424235508159
 30
0.0
 40
2.4999999999999938
 50
102.7090329944004
 51
257.29096700559961
  0
LINE
  5
27FD
  8
0
 10
52.85291581089507
 20
174.06339477569341
 30
0.0
 11
52.85291581089507
 21
168.1650899344699
 31
0.0
  0
LINE
  5
27FE
  8
0
 10
53.952915810895057
 20
168.1650899344699
 30
0.0
 11
53.952915810895057
 21
174.06339477569341
 31
0.0
  0
CIRCLE
  5
2847
  8
0
 10
53.402915810895081
 20
171.11424235508159
 30
0.0
 40
3.0000000000000102
  0
LINE
  5
2856
  8
3
 10
22.958500000000161
 20
88.590109255781698
 30
0.0
 11
22.95850000000015
 21
110.1316092557816
 31
0.0
  0
LINE
  5
2857
  8
3
 10
18.041499999999981
 20
88.590109255781712
 30
0.0
 11
18.041499999999989
 21
110.1316092557816
 31
0.0
  0
LINE
  5
2859
  8
3
 10
22.958500000000161
 20
128.52056037303609
 30
0.0
 11
22.958500000000161
 21
130.63112317158149
 31
0.0
  0
LINE
  5
285A
  8
3
 10
18.041499999999981
 20
128.52121558620311
 30
0.0
 11
18.041499999999981
 21
130.63112317158161
 31
0.0
  0
LINE
  5
285B
  8
3
 10
18.041499999999981
 20
116.63112317158161
 30
0.0
 11
18.041499999999981
 21
117.7391212391625
 31
0.0
  0
LINE
  5
285C
  8
3
 10
22.95850000000015
 20
116.63112317158161
 30
0.0
 11
22.95850000000015
 21
117.7395031666981
 31
0.0
  0
LINE
  5
285D
  8
0
 10
50.402915810895152
 20
110.1316092557816
 30
0.0
 11
50.402915810895152
 21
89.131609255781584
 31
0.0
  0
LINE
  5
285E
  8
0
 10
56.402915810895152
 20
89.131609255781584
 30
0.0
 11
56.402915810895152
 21
110.1316092557816
 31
0.0
  0
LINE
  5
285F
  8
0
 10
50.402915810895152
 20
89.131609255781584
 30
0.0
 11
51.402915810895152
 21
88.131609255781584
 31
0.0
  0
LINE
  5
2860
  8
0
 10
55.402915810895152
 20
88.131609255781584
 30
0.0
 11
56.402915810895152
 21
89.131609255781584
 31
0.0
  0
LINE
  5
2861
  8
0
 10
50.752915810895153
 20
113.54052274460069
 30
0.0
 11
50.752915810895153
 21
113.1316092557815
 31
0.0
  0
LINE
  5
2863
  8
0
 10
50.402915810895152
 20
89.131609255781584
 30
0.0
 11
56.402915810895152
 21
89.131609255781584
 31
0.0
  0
LINE
  5
2864
  8
0
 10
55.402915810895152
 20
88.131609255781584
 30
0.0
 11
51.402915810895152
 21
88.131609255781584
 31
0.0
  0
LINE
  5
2865
  8
3
 10
55.861415810895238
 20
88.590109255781655
 30
0.0
 11
55.861415810895238
 21
110.1316092557816
 31
0.0
  0
LINE
  5
2866
  8
3
 10
50.944415810895059
 20
88.590109255781684
 30
0.0
 11
50.944415810895059
 21
110.1316092557816
 31
0.0
  0
LINE
  5
2867
  8
0
 10
137.50000000000011
 20
110.1316092557816
 30
0.0
 11
137.50000000000011
 21
89.131609255781584
 31
0.0
  0
LINE
  5
2868
  8
0
 10
143.50000000000011
 20
89.131609255781584
 30
0.0
 11
143.50000000000011
 21
110.1316092557816
 31
0.0
  0
LINE
  5
2869
  8
0
 10
137.50000000000011
 20
89.131609255781584
 30
0.0
 11
138.50000000000011
 21
88.131609255781584
 31
0.0
  0
LINE
  5
286A
  8
0
 10
142.50000000000011
 20
88.131609255781584
 30
0.0
 11
143.50000000000011
 21
89.131609255781584
 31
0.0
  0
LINE
  5
286B
  8
0
 10
137.85000000000011
 20
114.13112317158161
 30
0.0
 11
137.85000000000011
 21
113.1316092557815
 31
0.0
  0
LINE
  5
286C
  8
0
 10
143.15000000000009
 20
113.1316092557815
 30
0.0
 11
143.15000000000009
 21
114.13112317158161
 31
0.0
  0
LINE
  5
286D
  8
0
 10
137.50000000000011
 20
89.131609255781584
 30
0.0
 11
143.50000000000011
 21
89.131609255781584
 31
0.0
  0
LINE
  5
286E
  8
0
 10
142.50000000000011
 20
88.131609255781584
 30
0.0
 11
138.50000000000011
 21
88.131609255781584
 31
0.0
  0
LINE
  5
286F
  8
3
 10
142.95850000000021
 20
88.590109255781655
 30
0.0
 11
142.95850000000021
 21
110.1316092557816
 31
0.0
  0
LINE
  5
2870
  8
3
 10
138.04150000000001
 20
88.590109255781684
 30
0.0
 11
138.04150000000001
 21
110.1316092557816
 31
0.0
  0
LINE
  5
2871
  8
0
 10
137.69999999999999
 20
115.5361242386471
 30
0.0
 11
137.69999999999999
 21
114.13112317158161
 31
0.0
  0
LINE
  5
2872
  8
0
 10
143.30000000000001
 20
114.13112317158161
 30
0.0
 11
143.30000000000001
 21
115.5355836883639
 31
0.0
  0
LINE
  5
2873
  8
0
 10
137.69999999999999
 20
114.13112317158161
 30
0.0
 11
143.30000000000001
 21
114.13112317158161
 31
0.0
  0
CIRCLE
  5
28B7
  8
3
 10
53.402915810895081
 20
51.114242355081643
 30
0.0
 40
2.4585000000000861
  0
CIRCLE
  5
28B8
  8
0
 10
53.402915810895081
 20
51.114242355081643
 30
0.0
 40
3.0
  0
ARC
  5
28B9
  8
3
 10
53.402915810895081
 20
171.11424235508159
 30
0.0
 40
2.4585000000000861
 50
102.9272474839247
 51
257.07275251607518
  0
ARC
  5
28BA
  8
3
 10
53.402915810895081
 20
171.11424235508159
 30
0.0
 40
2.4585000000000861
 50
282.92724748392391
 51
77.072752516076051
  0
ENDSEC
  0
EOF
