  0
SECTION
  2
HEADER
  9
$ACADVER
  1
AC1009
  9
$INSBASE
 10
0.0
 20
0.0
 30
0.0
  9
$EXTMIN
 10
0.0
 20
-2.960436562073669
 30
0.0
  9
$EXTMAX
 10
151.0
 20
181.61424235508159
 30
0.0
  9
$LIMMIN
 10
0.0
 20
0.0
  9
$LIMMAX
 10
770.0
 20
540.0
  9
$ORTHOMODE
 70
     1
  9
$REGENMODE
 70
     1
  9
$FILLMODE
 70
     1
  9
$QTEXTMODE
 70
     0
  9
$MIRRTEXT
 70
     0
  9
$DRAGMODE
 70
     2
  9
$LTSCALE
 40
5.0
  9
$OSMODE
 70
    37
  9
$ATTMODE
 70
     1
  9
$TEXTSIZE
 40
4.000000000000048
  9
$TRACEWID
 40
0.05
  9
$TEXTSTYLE
  7
STANDARD
  9
$CLAYER
  8
0
  9
$CELTYPE
  6
BYLAYER
  9
$CECOLOR
 62
   256
  9
$DIMSCALE
 40
2.0
  9
$DIMASZ
 40
3.0
  9
$DIMEXO
 40
2.0
  9
$DIMDLI
 40
0.38
  9
$DIMRND
 40
0.0
  9
$DIMDLE
 40
0.0
  9
$DIMEXE
 40
2.0
  9
$DIMTP
 40
0.0
  9
$DIMTM
 40
0.0
  9
$DIMTXT
 40
3.0
  9
$DIMCEN
 40
0.0
  9
$DIMTSZ
 40
0.0
  9
$DIMTOL
 70
     0
  9
$DIMLIM
 70
     0
  9
$DIMTIH
 70
     0
  9
$DIMTOH
 70
     0
  9
$DIMSE1
 70
     0
  9
$DIMSE2
 70
     0
  9
$DIMTAD
 70
     1
  9
$DIMZIN
 70
     0
  9
$DIMBLK
  1

  9
$DIMASO
 70
     0
  9
$DIMSHO
 70
     0
  9
$DIMPOST
  1

  9
$DIMAPOST
  1

  9
$DIMALT
 70
     0
  9
$DIMALTD
 70
     2
  9
$DIMALTF
 40
25.399999999999999
  9
$DIMLFAC
 40
1.0
  9
$DIMTOFL
 70
     0
  9
$DIMTVP
 40
1.6000000000000001
  9
$DIMTIX
 70
     1
  9
$DIMSOXD
 70
     0
  9
$DIMSAH
 70
     0
  9
$DIMBLK1
  1

  9
$DIMBLK2
  1

  9
$DIMSTYLE
  2
STANDARD
  9
$DIMCLRD
 70
     4
  9
$DIMCLRE
 70
     4
  9
$DIMCLRT
 70
     4
  9
$DIMTFAC
 40
1.0
  9
$DIMGAP
 40
0.09
  9
$LUNITS
 70
     2
  9
$LUPREC
 70
     1
  9
$SKETCHINC
 40
0.1
  9
$FILLETRAD
 40
0.0
  9
$AUNITS
 70
     0
  9
$AUPREC
 70
     0
  9
$MENU
  1
E:\r13\win\SUPPORT\ACAD
  9
$ELEVATION
 40
0.0
  9
$PELEVATION
 40
0.0
  9
$THICKNESS
 40
0.0
  9
$LIMCHECK
 70
     0
  9
$BLIPMODE
 70
     0
  9
$CHAMFERA
 40
1.1999999999999991
  9
$CHAMFERB
 40
1.1999999999999991
  9
$SKPOLY
 70
     0
  9
$TDCREATE
 40
2450158.583426042
  9
$TDUPDATE
 40
2457162.4696565508
  9
$TDINDWG
 40
0.2676557292
  9
$TDUSRTIMER
 40
0.2676557292
  9
$USRTIMER
 70
     1
  9
$ANGBASE
 50
0.0
  9
$ANGDIR
 70
     0
  9
$PDMODE
 70
     0
  9
$PDSIZE
 40
0.0
  9
$PLINEWID
 40
0.0
  9
$COORDS
 70
     1
  9
$SPLFRAME
 70
     0
  9
$SPLINETYPE
 70
     6
  9
$SPLINESEGS
 70
     8
  9
$ATTDIA
 70
     0
  9
$ATTREQ
 70
     1
  9
$HANDLING
 70
     1
  9
$HANDSEED
  5
283F
  9
$SURFTAB1
 70
     6
  9
$SURFTAB2
 70
     6
  9
$SURFTYPE
 70
     6
  9
$SURFU
 70
     6
  9
$SURFV
 70
     6
  9
$UCSNAME
  2

  9
$UCSORG
 10
0.0
 20
0.0
 30
0.0
  9
$UCSXDIR
 10
1.0
 20
0.0
 30
0.0
  9
$UCSYDIR
 10
0.0
 20
1.0
 30
0.0
  9
$PUCSNAME
  2

  9
$PUCSORG
 10
0.0
 20
0.0
 30
0.0
  9
$PUCSXDIR
 10
1.0
 20
0.0
 30
0.0
  9
$PUCSYDIR
 10
0.0
 20
1.0
 30
0.0
  9
$USERI1
 70
     3
  9
$USERI2
 70
     1
  9
$USERI3
 70
     0
  9
$USERI4
 70
     0
  9
$USERI5
 70
     0
  9
$USERR1
 40
2.0
  9
$USERR2
 40
3.0
  9
$USERR3
 40
3.0
  9
$USERR4
 40
3.0
  9
$USERR5
 40
10.0
  9
$WORLDVIEW
 70
     1
  9
$SHADEDGE
 70
     3
  9
$SHADEDIF
 70
    70
  9
$TILEMODE
 70
     1
  9
$MAXACTVP
 70
    16
  9
$PLIMCHECK
 70
     0
  9
$PEXTMIN
 10
1.0000000000000000E+020
 20
1.0000000000000000E+020
 30
1.0000000000000000E+020
  9
$PEXTMAX
 10
-1.0000000000000000E+020
 20
-1.0000000000000000E+020
 30
-1.0000000000000000E+020
  9
$PLIMMIN
 10
0.0
 20
0.0
  9
$PLIMMAX
 10
12.0
 20
9.0
  9
$UNITMODE
 70
     0
  9
$VISRETAIN
 70
     0
  9
$PLINEGEN
 70
     0
  9
$PSLTSCALE
 70
     0
  0
ENDSEC
  0
SECTION
  2
TABLES
  0
TABLE
  2
VPORT
 70
     1
  0
VPORT
  2
*ACTIVE
 70
     0
 10
0.0
 20
0.0
 11
1.0
 21
1.0
 12
76.663321653648495
 22
89.330911055585148
 13
0.0
 23
0.0
 14
10.0
 24
10.0
 15
10.0
 25
10.0
 16
0.0
 26
0.0
 36
1.0
 17
0.0
 27
0.0
 37
0.0
 40
186.15705508917739
 41
1.368715083798882
 42
50.0
 43
0.0
 44
0.0
 50
0.0
 51
0.0
 71
     0
 72
   500
 73
     1
 74
     0
 75
     0
 76
     0
 77
     0
 78
     2
  0
ENDTAB
  0
TABLE
  2
LTYPE
 70
     4
  0
LTYPE
  2
CONTINUOUS
 70
     0
  3
Solid Line
 72
    65
 73
     0
 40
0.0
  0
LTYPE
  2
CENTER
 70
     0
  3
____ _ ____ _ ____ _ ____ _ ____ _ ____ _ ____
 72
    65
 73
     4
 40
2.0
 49
1.25
 49
-0.25
 49
0.25
 49
-0.25
  0
LTYPE
  2
HIDDEN
 70
     0
  3
_ _ _ _ _ _ _ _ _ _ _ _ _ _ _ _ _ _ _ _ _ _ _
 72
    65
 73
     2
 40
0.375
 49
0.25
 49
-0.125
  0
LTYPE
  2
PHANTOM2
 70
     0
  3
___ _ _ ___ _ _ ___ _ _ ___ _ _
 72
    65
 73
     6
 40
1.25
 49
0.625
 49
-0.125
 49
0.125
 49
-0.125
 49
0.125
 49
-0.125
  0
ENDTAB
  0
TABLE
  2
LAYER
 70
     4
  0
LAYER
  2
0
 70
     0
 62
     7
  6
CONTINUOUS
  0
LAYER
  2
1
 70
     0
 62
     1
  6
CENTER
  0
LAYER
  2
2
 70
     0
 62
     2
  6
HIDDEN
  0
LAYER
  2
3
 70
     0
 62
     3
  6
CONTINUOUS
  0
ENDTAB
  0
TABLE
  2
STYLE
 70
     2
  0
STYLE
  2
STANDARD
 70
     0
 40
0.0
 41
1.0
 50
0.0
 71
     0
 42
4.000000000000048
  3
SIMPLEX
  4
BIGFONT
  0
STYLE
  2
STANDARD1
 70
     0
 40
0.0
 41
1.0
 50
0.0
 71
     0
 42
3.0
  3
txt
  4

  0
ENDTAB
  0
TABLE
  2
VIEW
 70
     1
  0
VIEW
  2
ALL
 70
     0
 40
179.5384664489153
 10
146.94997169852391
 20
89.769233224457665
 41
0.0
 11
0.0
 21
0.0
 31
1.0
 12
0.0
 22
0.0
 32
0.0
 42
50.0
 43
0.0
 44
0.0
 50
0.0
 71
     0
  0
ENDTAB
  0
TABLE
  2
UCS
 70
     0
  0
ENDTAB
  0
TABLE
  2
APPID
 70
     4
  0
APPID
  2
ACAD
 70
     0
  0
APPID
  2
ACAD_MLEADERVER
 70
     0
  0
APPID
  2
ACAD_EXEMPT_FROM_CAD_STANDARDS
 70
     0
  0
APPID
  2
ACAD_NAV_VCDISPLAY
 70
     0
  0
ENDTAB
  0
TABLE
  2
DIMSTYLE
 70
     2
  0
DIMSTYLE
  2
STANDARD
 70
     0
  3

  4

  5

  6

  7

 40
1.0
 41
0.18
 42
0.0625
 43
0.38
 44
0.18
 45
0.0
 46
0.0
 47
0.0
 48
0.0
140
0.18
141
0.09
142
0.0
143
25.399999999999999
144
1.0
145
0.0
146
1.0
147
0.09
 71
     0
 72
     0
 73
     1
 74
     1
 75
     0
 76
     0
 77
     0
 78
     0
170
     0
171
     2
172
     0
173
     0
174
     0
175
     0
176
     0
177
     0
178
     0
  0
DIMSTYLE
  2
ISO-25
 70
     0
  3

  4

  5

  6

  7

 40
1.0
 41
2.5
 42
0.625
 43
3.75
 44
1.25
 45
0.0
 46
0.0
 47
0.0
 48
0.0
140
2.5
141
2.5
142
0.0
143
0.0393700787
144
1.0
145
0.0
146
1.0
147
0.625
 71
     0
 72
     0
 73
     0
 74
     0
 75
     0
 76
     0
 77
     1
 78
     8
170
     0
171
     3
172
     1
173
     0
174
     0
175
     0
176
     0
177
     0
178
     0
  0
ENDTAB
  0
ENDSEC
  0
SECTION
  2
BLOCKS
  0
BLOCK
  8
0
  2
$MODEL_SPACE
 70
     0
 10
0.0
 20
0.0
 30
0.0
  3
$MODEL_SPACE
  1

  0
ENDBLK
  5
644
  8
0
  0
BLOCK
 67
     1
  8
0
  2
$PAPER_SPACE
 70
     0
 10
0.0
 20
0.0
 30
0.0
  3
$PAPER_SPACE
  1

  0
ENDBLK
  5
642
 67
     1
  8
0
  0
ENDSEC
  0
SECTION
  2
ENTITIES
  0
TEXT
  5
1099
  8
0
 62
     3
 10
0.0
 20
0.0
 30
0.0
 40
10.0
  1
QLCL-06-NP
  7
STANDARD1
  0
LINE
  5
1DEA
  8
0
 10
61.402915810895081
 20
100.3316092557816
 30
0.0
 11
61.402915810895081
 21
102.93160925578159
 31
0.0
  0
LINE
  5
1DEB
  8
0
 10
45.402915810895067
 20
102.93160925578159
 30
0.0
 11
45.402915810895067
 21
100.3316092557816
 31
0.0
  0
LINE
  5
1DEC
  8
0
 10
61.402915810895081
 20
102.93160925578159
 30
0.0
 11
61.202915810895092
 21
103.1316092557816
 31
0.0
  0
LINE
  5
1DED
  8
0
 10
45.60291581089507
 20
103.1316092557816
 30
0.0
 11
45.402915810895067
 21
102.93160925578159
 31
0.0
  0
LINE
  5
1DEE
  8
0
 10
45.402915810895067
 20
100.3316092557816
 30
0.0
 11
45.60291581089507
 21
100.1316092557816
 31
0.0
  0
LINE
  5
1DEF
  8
0
 10
61.202915810895092
 20
100.1316092557816
 30
0.0
 11
61.402915810895081
 21
100.3316092557816
 31
0.0
  0
POLYLINE
  5
1DF1
  8
0
 66
     1
 10
0.0
 20
0.0
 30
0.0
 70
   128
  0
VERTEX
  5
266A
  8
0
 10
62.205647053195086
 20
106.3724592115816
 30
0.0
  0
VERTEX
  5
266B
  8
0
 10
63.341044101595109
 20
107.3737604974816
 30
0.0
  0
VERTEX
  5
266C
  8
0
 10
64.718510784095088
 20
108.36760809338161
 30
0.0
  0
VERTEX
  5
266D
  8
0
 10
66.311980084595064
 20
109.2968122326816
 30
0.0
  0
VERTEX
  5
266E
  8
0
 10
68.067670205795082
 20
110.0823549558816
 30
0.0
  0
VERTEX
  5
266F
  8
0
 10
69.835219386395067
 20
110.6564299062816
 30
0.0
  0
VERTEX
  5
2670
  8
0
 10
71.582420013195076
 20
111.0324581429816
 30
0.0
  0
VERTEX
  5
2671
  8
0
 10
73.286377210295086
 20
111.2281190122816
 30
0.0
  0
VERTEX
  5
2672
  8
0
 10
74.928050083395078
 20
111.2602771345816
 30
0.0
  0
VERTEX
  5
2673
  8
0
 10
76.496816868795065
 20
111.1641792211816
 30
0.0
  0
VERTEX
  5
2674
  8
0
 10
78.064224969495044
 20
111.0149069528816
 30
0.0
  0
VERTEX
  5
2675
  8
0
 10
79.667947545895103
 20
110.8597463948816
 30
0.0
  0
VERTEX
  5
2676
  8
0
 10
81.317714877595108
 20
110.70738736458161
 30
0.0
  0
VERTEX
  5
2677
  8
0
 10
82.592107566295127
 20
110.5986826371816
 30
0.0
  0
VERTEX
  5
2678
  8
0
 10
83.898794586495114
 20
110.48627307568159
 30
0.0
  0
VERTEX
  5
2679
  8
0
 10
85.238974430195071
 20
110.36092222188159
 30
0.0
  0
VERTEX
  5
267A
  8
0
 10
86.640140305495095
 20
110.27967009318159
 30
0.0
  0
VERTEX
  5
267B
  8
0
 10
87.776457962295126
 20
110.37859739868161
 30
0.0
  0
VERTEX
  5
267C
  8
0
 10
88.862624425195122
 20
110.7072613015816
 30
0.0
  0
VERTEX
  5
267D
  8
0
 10
89.914309084095066
 20
111.1148003581816
 30
0.0
  0
VERTEX
  5
267E
  8
0
 10
90.948275144295053
 20
111.48918931678161
 30
0.0
  0
VERTEX
  5
267F
  8
0
 10
91.966192982595089
 20
111.8229805087816
 30
0.0
  0
VERTEX
  5
2680
  8
0
 10
93.15714893335803
 20
112.1521925710167
 30
0.0
  0
SEQEND
  5
2681
  8
0
  0
ARC
  5
1DF3
  8
0
 10
111.39933209156401
 20
117.5860333608926
 30
0.0
 40
6.0616252049439243
 50
306.89444606028673
 51
329.7871486983795
  0
LINE
  5
1DFE
  8
0
 10
52.402915810895081
 20
113.7084734407816
 30
0.0
 11
52.402915810895081
 21
112.5537729023816
 31
0.0
  0
LINE
  5
1DFF
  8
0
 10
52.402915810895081
 20
112.5537729023816
 30
0.0
 11
53.402915810895081
 21
111.9764226331816
 31
0.0
  0
LINE
  5
1E00
  8
0
 10
53.402915810895081
 20
111.9764226331816
 30
0.0
 11
54.402915810895081
 21
112.5537729023816
 31
0.0
  0
LINE
  5
1E01
  8
0
 10
54.402915810895081
 20
113.7084734407816
 30
0.0
 11
53.402915810895081
 21
114.2858237099816
 31
0.0
  0
LINE
  5
1E02
  8
0
 10
53.402915810895081
 20
114.2858237099816
 30
0.0
 11
52.402915810895081
 21
113.7084734407816
 31
0.0
  0
CIRCLE
  5
1E03
  8
0
 10
53.402915810895081
 20
113.13112317158161
 30
0.0
 40
2.0
  0
LINE
  5
1E04
  8
0
 10
54.402915810895081
 20
112.5537729023816
 30
0.0
 11
54.402915810895081
 21
113.7084734407816
 31
0.0
  0
LINE
  5
1E07
  8
0
 10
45.60291581089507
 20
103.1316092557816
 30
0.0
 11
61.202915810895092
 21
103.1316092557816
 31
0.0
  0
LINE
  5
1E08
  8
0
 10
61.202915810895092
 20
100.1316092557816
 30
0.0
 11
45.60291581089507
 21
100.1316092557816
 31
0.0
  0
CIRCLE
  5
1E09
  8
0
 10
53.402915810895081
 20
113.13112317158161
 30
0.0
 40
6.0000000000000133
  0
LINE
  5
1E0F
  8
0
 10
115.4532914281951
 20
116.73679727548161
 30
0.0
 11
54.187317495697862
 21
122.0968754543906
 31
0.0
  0
ARC
  5
1E10
  8
0
 10
115.32255781409511
 20
115.2425052282816
 30
0.0
 40
1.5000000000000699
 50
354.99999999890008
 51
84.999999998800376
  0
POLYLINE
  5
1E1E
  8
0
 66
     1
 10
0.0
 20
0.0
 30
0.0
 70
   128
  0
VERTEX
  5
2682
  8
0
 10
116.63755797359509
 20
114.5357399759816
 30
0.0
  0
VERTEX
  5
2683
  8
0
 10
116.74643166539509
 20
114.77071839858159
 30
0.0
  0
VERTEX
  5
2684
  8
0
 10
116.8168498611951
 20
115.11177161418161
 30
0.0
  0
SEQEND
  5
2685
  8
0
  0
LINE
  5
1E1F
  8
0
 10
61.8157092916951
 20
106.0263734583816
 30
0.0
 11
62.205647053195086
 21
106.3724592115816
 31
0.0
  0
POLYLINE
  5
1E21
  8
0
 66
     1
 10
0.0
 20
0.0
 30
0.0
 70
   128
  0
VERTEX
  5
2686
  8
0
 10
93.157148933357846
 20
112.1521925710167
 30
0.0
  0
VERTEX
  5
2687
  8
0
 10
95.513509647395097
 20
112.69174776858161
 30
0.0
  0
VERTEX
  5
2688
  8
0
 10
98.099749684495123
 20
113.0498709906816
 30
0.0
  0
VERTEX
  5
2689
  8
0
 10
100.0625577988951
 20
113.17003514388161
 30
0.0
  0
VERTEX
  5
268A
  8
0
 10
102.0304446554951
 20
113.1630079568816
 30
0.0
  0
VERTEX
  5
268B
  8
0
 10
103.9817131401951
 20
113.0293319183816
 30
0.0
  0
VERTEX
  5
268C
  8
0
 10
105.9812924429951
 20
112.7557380647816
 30
0.0
  0
VERTEX
  5
268D
  8
0
 10
107.3055895759951
 20
112.4909601219816
 30
0.0
  0
VERTEX
  5
268E
  8
0
 10
108.5216804986951
 20
112.1878884008816
 30
0.0
  0
VERTEX
  5
268F
  8
0
 10
109.60604509869501
 20
111.8872993906816
 30
0.0
  0
VERTEX
  5
2690
  8
0
 10
110.371366325295
 20
111.7007521383816
 30
0.0
  0
VERTEX
  5
2691
  8
0
 10
111.1152280486951
 20
111.59207676778161
 30
0.0
  0
VERTEX
  5
2692
  8
0
 10
111.844712790895
 20
111.5918777648816
 30
0.0
  0
VERTEX
  5
2693
  8
0
 10
112.54754213399509
 20
111.6830485488816
 30
0.0
  0
VERTEX
  5
2694
  8
0
 10
113.2094230230951
 20
111.8409369167816
 30
0.0
  0
VERTEX
  5
2695
  8
0
 10
113.82736479589499
 20
112.05841924348159
 30
0.0
  0
VERTEX
  5
2696
  8
0
 10
114.9307707353951
 20
112.66119985038161
 30
0.0
  0
VERTEX
  5
2697
  8
0
 10
115.038384566494
 20
112.73829190636791
 30
0.0
  0
SEQEND
  5
2698
  8
0
  0
LINE
  5
1E2B
  8
0
 10
51.073544404895067
 20
121.82445560818159
 30
0.0
 11
54.187317495595089
 21
122.0968754543816
 31
0.0
  0
ARC
  5
1E2E
  8
0
 10
74.464413741795113
 20
93.219723789981629
 30
0.0
 40
18.000000000002281
 50
134.6444960759998
 51
142.05885547199989
  0
LINE
  5
1E2F
  8
0
 10
44.437163527995089
 20
113.91552485628161
 30
0.0
 11
45.246145727495097
 21
116.9346875272816
 31
0.0
  0
LINE
  5
1E32
  8
0
 10
57.902915810895081
 20
103.1316092557816
 30
0.0
 11
57.646969558295098
 21
103.1316092557816
 31
0.0
  0
ARC
  5
1E36
  8
0
 10
53.45341015329506
 20
111.79373618788161
 30
0.0
 40
9.2625423271211265
 50
166.7575600423001
 51
197.37781873209971
  0
ARC
  5
1E38
  8
0
 10
53.643590446995113
 20
112.9530387937816
 30
0.0
 40
9.8463931583031439
 50
203.4969448390994
 51
263.51436986740021
  0
ARC
  5
1E3A
  8
0
 10
53.402915810895081
 20
113.13112317158161
 30
0.0
 40
9.0
 50
104.9999999812996
 51
155.00000001869941
  0
ARC
  5
1E3B
  8
0
 10
57.902915810895081
 20
106.1316092557816
 30
0.0
 40
2.9999999999999138
 50
270.0
 51
322.05885547199989
  0
LINE
  5
1E3D
  8
0
 10
132.5
 20
115.13112317158161
 30
0.0
 11
131.5
 21
115.13112317158161
 31
0.0
  0
LINE
  5
1E3E
  8
0
 10
131.5
 20
111.13112317158161
 30
0.0
 11
132.5
 21
111.13112317158161
 31
0.0
  0
LINE
  5
1E3F
  8
0
 10
132.5
 20
100.3316092557816
 30
0.0
 11
132.69999999999999
 21
100.1316092557816
 31
0.0
  0
LINE
  5
1E40
  8
0
 10
148.30000000000001
 20
100.1316092557816
 30
0.0
 11
148.5
 21
100.3316092557816
 31
0.0
  0
LINE
  5
1E41
  8
0
 10
148.5
 20
100.3316092557816
 30
0.0
 11
148.5
 21
102.93160925578159
 31
0.0
  0
LINE
  5
1E42
  8
0
 10
132.5
 20
102.93160925578159
 30
0.0
 11
132.5
 21
100.3316092557816
 31
0.0
  0
LINE
  5
1E43
  8
0
 10
148.5
 20
102.93160925578159
 30
0.0
 11
148.30000000000001
 21
103.1316092557816
 31
0.0
  0
LINE
  5
1E44
  8
0
 10
132.69999999999999
 20
103.1316092557816
 30
0.0
 11
132.5
 21
102.93160925578159
 31
0.0
  0
LINE
  5
1E45
  8
0
 10
148.0
 20
107.13112317158161
 30
0.0
 11
148.5
 21
107.63112317158161
 31
0.0
  0
LINE
  5
1E46
  8
0
 10
148.5
 20
118.63112317158161
 30
0.0
 11
148.0
 21
119.13112317158161
 31
0.0
  0
LINE
  5
1E47
  8
0
 10
147.5
 20
107.13112317158161
 30
0.0
 11
148.0
 21
107.13112317158161
 31
0.0
  0
LINE
  5
1E48
  8
0
 10
133.0
 20
107.13112317158161
 30
0.0
 11
133.5
 21
107.13112317158161
 31
0.0
  0
LINE
  5
1E49
  8
0
 10
133.5
 20
119.13112317158161
 30
0.0
 11
133.0
 21
119.13112317158161
 31
0.0
  0
LINE
  5
1E4A
  8
0
 10
148.0
 20
119.13112317158161
 30
0.0
 11
147.5
 21
119.13112317158161
 31
0.0
  0
LINE
  5
1E4B
  8
0
 10
133.0
 20
119.13112317158161
 30
0.0
 11
132.5
 21
118.63112317158161
 31
0.0
  0
LINE
  5
1E4C
  8
0
 10
132.5
 20
107.63112317158161
 30
0.0
 11
133.0
 21
107.13112317158161
 31
0.0
  0
ARC
  5
1E4D
  8
0
 10
142.8254642533
 20
114.05519079398159
 30
0.0
 40
4.9603553833736624
 50
22.923626685100469
 51
49.849561477998783
  0
ARC
  5
1E4E
  8
0
 10
138.14627471239999
 20
114.07601642038161
 30
0.0
 40
4.926221387876967
 50
130.05537850960039
 51
157.17143332340041
  0
POLYLINE
  5
1E4F
  8
0
 66
     1
 10
0.0
 20
0.0
 30
0.0
 70
   128
  0
VERTEX
  5
2699
  8
0
 10
133.48597435420001
 20
115.72183166898159
 30
0.0
  0
VERTEX
  5
269A
  8
0
 10
133.6076296004
 20
115.1630786953816
 30
0.0
  0
VERTEX
  5
269B
  8
0
 10
134.00975356239999
 20
114.4328119142816
 30
0.0
  0
VERTEX
  5
269C
  8
0
 10
134.32164193579999
 20
113.8923530955816
 30
0.0
  0
VERTEX
  5
269D
  8
0
 10
134.5455866099
 20
113.50442997358159
 30
0.0
  0
VERTEX
  5
269E
  8
0
 10
134.76771949389999
 20
113.1208592195816
 30
0.0
  0
VERTEX
  5
269F
  8
0
 10
135.04333170570001
 20
112.6590271103816
 30
0.0
  0
VERTEX
  5
26A0
  8
0
 10
135.20664802920001
 20
112.41336561208161
 30
0.0
  0
VERTEX
  5
26A1
  8
0
 10
135.423823906
 20
112.1718187022816
 30
0.0
  0
VERTEX
  5
26A2
  8
0
 10
136.02535204439999
 20
111.7678947701816
 30
0.0
  0
VERTEX
  5
26A3
  8
0
 10
136.3966895492
 20
111.6388442917816
 30
0.0
  0
VERTEX
  5
26A4
  8
0
 10
136.8027793357
 20
111.5788311101816
 30
0.0
  0
SEQEND
  5
26A5
  8
0
  0
POLYLINE
  5
1E50
  8
0
 66
     1
 10
0.0
 20
0.0
 30
0.0
 70
   128
  0
VERTEX
  5
26A6
  8
0
 10
144.22199620390001
 20
111.59021037088161
 30
0.0
  0
VERTEX
  5
26A7
  8
0
 10
144.98467154150001
 20
111.7714344342816
 30
0.0
  0
VERTEX
  5
26A8
  8
0
 10
145.57702385570011
 20
112.1639101608816
 30
0.0
  0
VERTEX
  5
26A9
  8
0
 10
145.95372054219999
 20
112.6500123263816
 30
0.0
  0
VERTEX
  5
26AA
  8
0
 10
146.2296948370001
 20
113.1148239636816
 30
0.0
  0
VERTEX
  5
26AB
  8
0
 10
146.40088062780001
 20
113.41072227338159
 30
0.0
  0
VERTEX
  5
26AC
  8
0
 10
146.5662362985
 20
113.6978386665816
 30
0.0
  0
VERTEX
  5
26AD
  8
0
 10
146.75672337550009
 20
114.02857682458161
 30
0.0
  0
VERTEX
  5
26AE
  8
0
 10
147.1563763529
 20
114.7245039699816
 30
0.0
  0
VERTEX
  5
26AF
  8
0
 10
147.39290625059999
 20
115.16860830748161
 30
0.0
  0
VERTEX
  5
26B0
  8
0
 10
147.51402564579999
 20
115.72183166898159
 30
0.0
  0
SEQEND
  5
26B1
  8
0
  0
POLYLINE
  5
1E51
  8
0
 66
     1
 10
0.0
 20
0.0
 30
0.0
 70
   128
  0
VERTEX
  5
26B2
  8
0
 10
136.8493932303
 20
111.5804251144816
 30
0.0
  0
VERTEX
  5
26B3
  8
0
 10
140.5
 20
111.5850461280816
 30
0.0
  0
VERTEX
  5
26B4
  8
0
 10
144.16921825649999
 20
111.5866080952816
 30
0.0
  0
SEQEND
  5
26B5
  8
0
  0
LINE
  5
1E54
  8
0
 10
131.5
 20
115.13112317158161
 30
0.0
 11
131.5
 21
111.13112317158161
 31
0.0
  0
LINE
  5
1E56
  8
0
 10
148.30000000000001
 20
100.1316092557816
 30
0.0
 11
132.69999999999999
 21
100.1316092557816
 31
0.0
  0
LINE
  5
1E58
  8
0
 10
132.69999999999999
 20
103.1316092557816
 30
0.0
 11
148.30000000000001
 21
103.1316092557816
 31
0.0
  0
LINE
  5
1E59
  8
0
 10
148.5
 20
118.63112317158161
 30
0.0
 11
148.5
 21
107.63112317158161
 31
0.0
  0
LINE
  5
1E5C
  8
0
 10
132.5
 20
107.63112317158161
 30
0.0
 11
132.5
 21
118.63112317158161
 31
0.0
  0
POLYLINE
  5
1E5D
  8
0
 66
     1
 10
0.0
 20
0.0
 30
0.0
 70
   128
  0
VERTEX
  5
26B6
  8
0
 10
147.5
 20
119.8181817225816
 30
0.0
  0
VERTEX
  5
26B7
  8
0
 10
147.44629287859999
 20
119.5579668101816
 30
0.0
  0
VERTEX
  5
26B8
  8
0
 10
147.28125219090009
 20
119.2812306656816
 30
0.0
  0
VERTEX
  5
26B9
  8
0
 10
146.98646305430009
 20
118.9931707270816
 30
0.0
  0
VERTEX
  5
26BA
  8
0
 10
146.58275604100001
 20
118.7014832864816
 30
0.0
  0
VERTEX
  5
26BB
  8
0
 10
146.2359403016001
 20
118.4074844838816
 30
0.0
  0
VERTEX
  5
26BC
  8
0
 10
146.04719523029999
 20
118.1115071869816
 30
0.0
  0
VERTEX
  5
26BD
  8
0
 10
146.0238853050725
 20
117.84665862385209
 30
0.0
  0
SEQEND
  5
26BE
  8
0
  0
POLYLINE
  5
1E5E
  8
0
 66
     1
 10
0.0
 20
0.0
 30
0.0
 70
   128
  0
VERTEX
  5
26BF
  8
0
 10
147.39341411464551
 20
115.9888297451816
 30
0.0
  0
VERTEX
  5
26C0
  8
0
 10
147.45070929939999
 20
115.9068518880816
 30
0.0
  0
VERTEX
  5
26C1
  8
0
 10
147.51402564579999
 20
115.72183166898159
 30
0.0
  0
SEQEND
  5
26C2
  8
0
  0
POLYLINE
  5
1E5F
  8
0
 66
     1
 10
0.0
 20
0.0
 30
0.0
 70
   128
  0
VERTEX
  5
26C3
  8
0
 10
140.5
 20
115.11177161418161
 30
0.0
  0
VERTEX
  5
26C4
  8
0
 10
141.36828670739999
 20
115.11649287198161
 30
0.0
  0
VERTEX
  5
26C5
  8
0
 10
142.18909893009999
 20
115.12948163298159
 30
0.0
  0
VERTEX
  5
26C6
  8
0
 10
142.95578625120001
 20
115.15024028108159
 30
0.0
  0
VERTEX
  5
26C7
  8
0
 10
143.66314244279999
 20
115.1773556490816
 30
0.0
  0
VERTEX
  5
26C8
  8
0
 10
144.3086723401
 20
115.2097979265816
 30
0.0
  0
VERTEX
  5
26C9
  8
0
 10
144.89926565580001
 20
115.2471137933816
 30
0.0
  0
VERTEX
  5
26CA
  8
0
 10
145.41844120729999
 20
115.2874929036816
 30
0.0
  0
VERTEX
  5
26CB
  8
0
 10
145.86959572559999
 20
115.3302490412816
 30
0.0
  0
VERTEX
  5
26CC
  8
0
 10
146.58557579629999
 20
115.4205622130816
 30
0.0
  0
VERTEX
  5
26CD
  8
0
 10
147.09407076580001
 20
115.5182270321816
 30
0.0
  0
VERTEX
  5
26CE
  8
0
 10
147.40586427529999
 20
115.62287739688161
 30
0.0
  0
VERTEX
  5
26CF
  8
0
 10
147.51402564579999
 20
115.72183166898159
 30
0.0
  0
SEQEND
  5
26D0
  8
0
  0
ARC
  5
1E62
  8
0
 10
146.00284854629999
 20
119.8153222952816
 30
0.0
 40
1.497154184314246
 50
0.1094297549001674
 51
90.109013341099285
  0
POLYLINE
  5
1E64
  8
0
 66
     1
 10
0.0
 20
0.0
 30
0.0
 70
   128
  0
VERTEX
  5
26D1
  8
0
 10
133.48597435420001
 20
115.72183166898159
 30
0.0
  0
VERTEX
  5
26D2
  8
0
 10
133.59413572459999
 20
115.62287739688161
 30
0.0
  0
VERTEX
  5
26D3
  8
0
 10
133.90592923400001
 20
115.5182270321816
 30
0.0
  0
VERTEX
  5
26D4
  8
0
 10
134.4144242035
 20
115.4205622130816
 30
0.0
  0
VERTEX
  5
26D5
  8
0
 10
135.13040427409999
 20
115.3302490412816
 30
0.0
  0
VERTEX
  5
26D6
  8
0
 10
135.5815587925
 20
115.2874929036816
 30
0.0
  0
VERTEX
  5
26D7
  8
0
 10
136.10073434399999
 20
115.2471137933816
 30
0.0
  0
VERTEX
  5
26D8
  8
0
 10
136.69132765969999
 20
115.2097979265816
 30
0.0
  0
VERTEX
  5
26D9
  8
0
 10
137.336857557
 20
115.1773556490816
 30
0.0
  0
VERTEX
  5
26DA
  8
0
 10
138.0442137486001
 20
115.15024028108159
 30
0.0
  0
VERTEX
  5
26DB
  8
0
 10
138.8109010698
 20
115.12948163298159
 30
0.0
  0
VERTEX
  5
26DC
  8
0
 10
139.63171329260001
 20
115.11649287198161
 30
0.0
  0
VERTEX
  5
26DD
  8
0
 10
140.5
 20
115.11177161418161
 30
0.0
  0
SEQEND
  5
26DE
  8
0
  0
POLYLINE
  5
1E65
  8
0
 66
     1
 10
0.0
 20
0.0
 30
0.0
 70
   128
  0
VERTEX
  5
26DF
  8
0
 10
133.5
 20
119.8181817225816
 30
0.0
  0
VERTEX
  5
26E0
  8
0
 10
133.59363810310001
 20
119.47028480608159
 30
0.0
  0
VERTEX
  5
26E1
  8
0
 10
133.86400058469999
 20
119.12402848088161
 30
0.0
  0
VERTEX
  5
26E2
  8
0
 10
134.3040232620001
 20
118.7809511738816
 30
0.0
  0
VERTEX
  5
26E3
  8
0
 10
134.73407199159999
 20
118.44122481098159
 30
0.0
  0
VERTEX
  5
26E4
  8
0
 10
134.9599115070001
 20
118.10390708778159
 30
0.0
  0
VERTEX
  5
26E5
  8
0
 10
134.97611469505671
 20
117.8466586238815
 30
0.0
  0
SEQEND
  5
26E6
  8
0
  0
POLYLINE
  5
1E66
  8
0
 66
     1
 10
0.0
 20
0.0
 30
0.0
 70
   128
  0
VERTEX
  5
26E7
  8
0
 10
133.60592509067391
 20
115.9872679671091
 30
0.0
  0
VERTEX
  5
26E8
  8
0
 10
133.5335893049
 20
115.8828379362816
 30
0.0
  0
VERTEX
  5
26E9
  8
0
 10
133.48597435420001
 20
115.72183166898159
 30
0.0
  0
SEQEND
  5
26EA
  8
0
  0
ARC
  5
1E67
  8
0
 10
134.99715145370001
 20
119.8153222952816
 30
0.0
 40
1.4971541843143481
 50
89.890986658900687
 51
179.89057024509981
  0
ARC
  5
1E68
  8
0
 10
144.94058022390001
 20
109.37218038348161
 30
0.0
 40
11.49819946090693
 50
157.10237769749929
 51
185.7383626262997
  0
POLYLINE
  5
1E6D
  8
0
 66
     1
 10
0.0
 20
0.0
 30
0.0
 70
   128
  0
VERTEX
  5
26EB
  8
0
 10
134.89155893809999
 20
106.03229627358159
 30
0.0
  0
VERTEX
  5
26EC
  8
0
 10
134.93335348439999
 20
106.0286297208816
 30
0.0
  0
VERTEX
  5
26ED
  8
0
 10
134.9752543945001
 20
106.0267020788816
 30
0.0
  0
SEQEND
  5
26EE
  8
0
  0
POLYLINE
  5
1E6E
  8
0
 66
     1
 10
0.0
 20
0.0
 30
0.0
 70
   128
  0
VERTEX
  5
26EF
  8
0
 10
134.71666569929999
 20
106.0676566282816
 30
0.0
  0
VERTEX
  5
26F0
  8
0
 10
134.8033375638
 20
106.0459612170816
 30
0.0
  0
VERTEX
  5
26F1
  8
0
 10
134.89155893809999
 20
106.03229627358159
 30
0.0
  0
SEQEND
  5
26F2
  8
0
  0
POLYLINE
  5
1E6F
  8
0
 66
     1
 10
0.0
 20
0.0
 30
0.0
 70
   128
  0
VERTEX
  5
26F3
  8
0
 10
134.63910933330001
 20
106.0941011658816
 30
0.0
  0
VERTEX
  5
26F4
  8
0
 10
134.6776616153
 20
106.08013242148159
 30
0.0
  0
VERTEX
  5
26F5
  8
0
 10
134.71666569929999
 20
106.0676566282816
 30
0.0
  0
SEQEND
  5
26F6
  8
0
  0
POLYLINE
  5
1E70
  8
0
 66
     1
 10
0.0
 20
0.0
 30
0.0
 70
   128
  0
VERTEX
  5
26F7
  8
0
 10
134.45134409319999
 20
106.1856537006816
 30
0.0
  0
VERTEX
  5
26F8
  8
0
 10
134.5434231914
 20
106.1357777350816
 30
0.0
  0
VERTEX
  5
26F9
  8
0
 10
134.63910933330001
 20
106.0941011658816
 30
0.0
  0
SEQEND
  5
26FA
  8
0
  0
POLYLINE
  5
1E71
  8
0
 66
     1
 10
0.0
 20
0.0
 30
0.0
 70
   128
  0
VERTEX
  5
26FB
  8
0
 10
134.34209631249999
 20
106.2586821765816
 30
0.0
  0
VERTEX
  5
26FC
  8
0
 10
134.3958874978
 20
106.22072596388161
 30
0.0
  0
VERTEX
  5
26FD
  8
0
 10
134.45134409319999
 20
106.1856537006816
 30
0.0
  0
SEQEND
  5
26FE
  8
0
  0
ARC
  5
1E72
  8
0
 10
135.7132407485
 20
107.94280089928159
 30
0.0
 40
2.1717027735309711
 50
190.7915136066996
 51
230.8488494442995
  0
POLYLINE
  5
1E73
  8
0
 66
     1
 10
0.0
 20
0.0
 30
0.0
 70
   128
  0
VERTEX
  5
26FF
  8
0
 10
133.5009643519
 20
108.14701187858159
 30
0.0
  0
VERTEX
  5
2700
  8
0
 10
133.52439513709999
 20
107.8413327296816
 30
0.0
  0
VERTEX
  5
2701
  8
0
 10
133.57994455150001
 20
107.53618034848159
 30
0.0
  0
SEQEND
  5
2702
  8
0
  0
POLYLINE
  5
1E74
  8
0
 66
     1
 10
0.0
 20
0.0
 30
0.0
 70
   128
  0
VERTEX
  5
2703
  8
0
 10
133.5
 20
108.2225217455816
 30
0.0
  0
VERTEX
  5
2704
  8
0
 10
133.50024712519999
 20
108.1847676591816
 30
0.0
  0
VERTEX
  5
2705
  8
0
 10
133.5009643519
 20
108.14701187858159
 30
0.0
  0
SEQEND
  5
2706
  8
0
  0
POLYLINE
  5
1E75
  8
0
 66
     1
 10
0.0
 20
0.0
 30
0.0
 70
   128
  0
VERTEX
  5
2707
  8
0
 10
147.4875643302
 20
107.94969006798161
 30
0.0
  0
VERTEX
  5
2708
  8
0
 10
147.45643853799999
 20
107.71404101598161
 30
0.0
  0
VERTEX
  5
2709
  8
0
 10
147.40621524299999
 20
107.4801894174816
 30
0.0
  0
SEQEND
  5
270A
  8
0
  0
POLYLINE
  5
1E76
  8
0
 66
     1
 10
0.0
 20
0.0
 30
0.0
 70
   128
  0
VERTEX
  5
270B
  8
0
 10
147.40621524299999
 20
107.4801894174816
 30
0.0
  0
VERTEX
  5
270C
  8
0
 10
147.3657997816
 20
107.33861900648159
 30
0.0
  0
VERTEX
  5
270D
  8
0
 10
147.3179750984001
 20
107.19923011278161
 30
0.0
  0
SEQEND
  5
270E
  8
0
  0
POLYLINE
  5
1E77
  8
0
 66
     1
 10
0.0
 20
0.0
 30
0.0
 70
   128
  0
VERTEX
  5
270F
  8
0
 10
147.31698789640001
 20
107.1965898904816
 30
0.0
  0
VERTEX
  5
2710
  8
0
 10
147.240372552
 20
107.0130798596816
 30
0.0
  0
VERTEX
  5
2711
  8
0
 10
147.1498474343
 20
106.8362105087816
 30
0.0
  0
SEQEND
  5
2712
  8
0
  0
POLYLINE
  5
1E78
  8
0
 66
     1
 10
0.0
 20
0.0
 30
0.0
 70
   128
  0
VERTEX
  5
2713
  8
0
 10
147.1498474343
 20
106.8362105087816
 30
0.0
  0
VERTEX
  5
2714
  8
0
 10
147.1420690283
 20
106.8225500719816
 30
0.0
  0
VERTEX
  5
2715
  8
0
 10
147.13419948360001
 20
106.8089457037816
 30
0.0
  0
SEQEND
  5
2716
  8
0
  0
ARC
  5
1E79
  8
0
 10
145.7539511322
 20
107.5260387221816
 30
0.0
 40
1.555412456039255
 50
293.12373803880081
 51
332.5463581042988
  0
POLYLINE
  5
1E7A
  8
0
 66
     1
 10
0.0
 20
0.0
 30
0.0
 70
   128
  0
VERTEX
  5
2717
  8
0
 10
146.3647898677001
 20
106.0955898597816
 30
0.0
  0
VERTEX
  5
2718
  8
0
 10
146.3136731173
 20
106.07723081108161
 30
0.0
  0
VERTEX
  5
2719
  8
0
 10
146.26177695850001
 20
106.0615207810816
 30
0.0
  0
SEQEND
  5
271A
  8
0
  0
POLYLINE
  5
1E7B
  8
0
 66
     1
 10
0.0
 20
0.0
 30
0.0
 70
   128
  0
VERTEX
  5
271B
  8
0
 10
146.26177695850001
 20
106.0615207810816
 30
0.0
  0
VERTEX
  5
271C
  8
0
 10
146.1900082022
 20
106.0446915050816
 30
0.0
  0
VERTEX
  5
271D
  8
0
 10
146.11722336810001
 20
106.0333218335816
 30
0.0
  0
SEQEND
  5
271E
  8
0
  0
POLYLINE
  5
1E7C
  8
0
 66
     1
 10
0.0
 20
0.0
 30
0.0
 70
   128
  0
VERTEX
  5
271F
  8
0
 10
146.11722336810001
 20
106.0333218335816
 30
0.0
  0
VERTEX
  5
2720
  8
0
 10
146.07318197710001
 20
106.02910122458159
 30
0.0
  0
VERTEX
  5
2721
  8
0
 10
146.0290083065
 20
106.0268215546816
 30
0.0
  0
SEQEND
  5
2722
  8
0
  0
POLYLINE
  5
1E7D
  8
0
 66
     1
 10
0.0
 20
0.0
 30
0.0
 70
   128
  0
VERTEX
  5
2723
  8
0
 10
146.0290083065
 20
106.0268215546816
 30
0.0
  0
VERTEX
  5
2724
  8
0
 10
146.0253025312
 20
106.0267181966816
 30
0.0
  0
VERTEX
  5
2725
  8
0
 10
146.02159650620001
 20
106.0266283685816
 30
0.0
  0
SEQEND
  5
2726
  8
0
  0
POLYLINE
  5
1E7E
  8
0
 66
     1
 10
0.0
 20
0.0
 30
0.0
 70
   128
  0
VERTEX
  5
2727
  8
0
 10
146.02159650620001
 20
106.0266283685816
 30
0.0
  0
VERTEX
  5
2728
  8
0
 10
146.01072120890001
 20
106.0264428081816
 30
0.0
  0
VERTEX
  5
2729
  8
0
 10
145.99984554400001
 20
106.0263734583816
 30
0.0
  0
SEQEND
  5
272A
  8
0
  0
ARC
  5
1E82
  8
0
 10
136.4169848935
 20
109.4312201811816
 30
0.0
 40
11.14872978235204
 50
353.77599868850052
 51
23.34321952830004
  0
POLYLINE
  5
1E83
  8
0
 66
     1
 10
0.0
 20
0.0
 30
0.0
 70
   128
  0
VERTEX
  5
272B
  8
0
 10
147.5
 20
108.2225217455816
 30
0.0
  0
VERTEX
  5
272C
  8
0
 10
147.49689006560001
 20
108.08611984398161
 30
0.0
  0
VERTEX
  5
272D
  8
0
 10
147.4875643302
 20
107.94969006798161
 30
0.0
  0
SEQEND
  5
272E
  8
0
  0
LINE
  5
1E86
  8
0
 10
135.00015445599999
 20
106.0263734584816
 30
0.0
 11
145.9998455596826
 21
106.0263734584816
 31
0.0
  0
LINE
  5
1E87
  8
0
 10
143.75
 20
122.0968754543816
 30
0.0
 11
147.0
 21
122.0968754543816
 31
0.0
  0
ARC
  5
1E88
  8
0
 10
144.2193805787
 20
124.6121383079816
 30
0.0
 40
3.7494521718037861
 50
298.352918852301
 51
317.86847517030031
  0
ARC
  5
1E89
  8
0
 10
132.2193805787
 20
118.7972109161816
 30
0.0
 40
3.7494521717990801
 50
42.131524829699721
 51
61.647081147698998
  0
LINE
  5
1E8A
  8
0
 10
134.0
 20
122.0968754543816
 30
0.0
 11
137.25
 21
122.0968754543816
 31
0.0
  0
LINE
  5
1E8B
  8
0
 10
137.25
 20
121.4432073837816
 30
0.0
 11
137.25
 21
122.0968754543816
 31
0.0
  0
ARC
  5
1E8C
  8
0
 10
138.37784854629999
 20
125.7131664473816
 30
0.0
 40
4.4164004288778349
 50
255.20405517679961
 51
274.83380603579809
  0
LINE
  5
1E8D
  8
0
 10
142.25
 20
121.3124737696816
 30
0.0
 11
138.75
 21
121.3124737696816
 31
0.0
  0
ARC
  5
1E8E
  8
0
 10
142.62215145370001
 20
125.7131664473816
 30
0.0
 40
4.416400428877794
 50
265.1661939641985
 51
284.79594482319862
  0
LINE
  5
1E8F
  8
0
 10
143.75
 20
121.4432073837816
 30
0.0
 11
143.75
 21
122.0968754543816
 31
0.0
  0
POLYLINE
  5
1E90
  8
0
 66
     1
 10
0.0
 20
0.0
 30
0.0
 70
   128
  0
VERTEX
  5
272F
  8
0
 10
140.5
 20
116.7549690192816
 30
0.0
  0
VERTEX
  5
2730
  8
0
 10
139.8497362877001
 20
116.7584645652816
 30
0.0
  0
VERTEX
  5
2731
  8
0
 10
139.2093299105
 20
116.7688982144816
 30
0.0
  0
VERTEX
  5
2732
  8
0
 10
138.58848877610001
 20
116.7861118034816
 30
0.0
  0
VERTEX
  5
2733
  8
0
 10
137.99662420350001
 20
116.80984439158161
 30
0.0
  0
VERTEX
  5
2734
  8
0
 10
137.44270825609999
 20
116.83973621708159
 30
0.0
  0
VERTEX
  5
2735
  8
0
 10
136.9351377351
 20
116.8753341503816
 30
0.0
  0
VERTEX
  5
2736
  8
0
 10
136.48160689230011
 20
116.9160985630816
 30
0.0
  0
VERTEX
  5
2737
  8
0
 10
136.08899079279999
 20
116.9614115081816
 30
0.0
  0
VERTEX
  5
2738
  8
0
 10
135.76324109660001
 20
117.0105860876816
 30
0.0
  0
VERTEX
  5
2739
  8
0
 10
135.50929583690001
 20
117.06287686508161
 30
0.0
  0
VERTEX
  5
273A
  8
0
 10
135.33100456509999
 20
117.1174911654816
 30
0.0
  0
VERTEX
  5
273B
  8
0
 10
135.23106999519999
 20
117.17360109188159
 30
0.0
  0
VERTEX
  5
273C
  8
0
 10
135.2110070332001
 20
117.2303560747816
 30
0.0
  0
VERTEX
  5
273D
  8
0
 10
135.27111981339999
 20
117.28689576658159
 30
0.0
  0
VERTEX
  5
273E
  8
0
 10
135.4104970871
 20
117.3423630831816
 30
0.0
  0
VERTEX
  5
273F
  8
0
 10
135.62702603709999
 20
117.39591719668159
 30
0.0
  0
VERTEX
  5
2740
  8
0
 10
135.917424305
 20
117.4467462811816
 30
0.0
  0
VERTEX
  5
2741
  8
0
 10
136.2772897493
 20
117.4940798196816
 30
0.0
  0
VERTEX
  5
2742
  8
0
 10
136.70116717659999
 20
117.5372002839816
 30
0.0
  0
VERTEX
  5
2743
  8
0
 10
137.1826310372
 20
117.5754540116816
 30
0.0
  0
VERTEX
  5
2744
  8
0
 10
137.7143828298
 20
117.60826111538159
 30
0.0
  0
VERTEX
  5
2745
  8
0
 10
138.28836173910011
 20
117.6351242727816
 30
0.0
  0
VERTEX
  5
2746
  8
0
 10
138.89586682999999
 20
117.6556362657816
 30
0.0
  0
VERTEX
  5
2747
  8
0
 10
139.5276889447
 20
117.6694861534816
 30
0.0
  0
VERTEX
  5
2748
  8
0
 10
140.17425030379999
 20
117.6764639857816
 30
0.0
  0
VERTEX
  5
2749
  8
0
 10
140.82574969620001
 20
117.6764639857816
 30
0.0
  0
VERTEX
  5
274A
  8
0
 10
141.4723110553
 20
117.6694861534816
 30
0.0
  0
VERTEX
  5
274B
  8
0
 10
142.1041331700001
 20
117.6556362657816
 30
0.0
  0
VERTEX
  5
274C
  8
0
 10
142.7116382609
 20
117.6351242727816
 30
0.0
  0
VERTEX
  5
274D
  8
0
 10
143.2856171702
 20
117.60826111538159
 30
0.0
  0
VERTEX
  5
274E
  8
0
 10
143.8173689628
 20
117.5754540116816
 30
0.0
  0
VERTEX
  5
274F
  8
0
 10
144.29883282329999
 20
117.5372002839816
 30
0.0
  0
VERTEX
  5
2750
  8
0
 10
144.7227102507
 20
117.4940798196816
 30
0.0
  0
VERTEX
  5
2751
  8
0
 10
145.082575695
 20
117.4467462811816
 30
0.0
  0
VERTEX
  5
2752
  8
0
 10
145.37297396290001
 20
117.39591719668159
 30
0.0
  0
VERTEX
  5
2753
  8
0
 10
145.5895029129
 20
117.3423630831816
 30
0.0
  0
VERTEX
  5
2754
  8
0
 10
145.72888018660001
 20
117.28689576658159
 30
0.0
  0
VERTEX
  5
2755
  8
0
 10
145.78899296669999
 20
117.2303560747816
 30
0.0
  0
VERTEX
  5
2756
  8
0
 10
145.76893000480001
 20
117.17360109188159
 30
0.0
  0
VERTEX
  5
2757
  8
0
 10
145.6689954348
 20
117.1174911654816
 30
0.0
  0
VERTEX
  5
2758
  8
0
 10
145.49070416309999
 20
117.06287686508161
 30
0.0
  0
VERTEX
  5
2759
  8
0
 10
145.23675890339999
 20
117.0105860876816
 30
0.0
  0
VERTEX
  5
275A
  8
0
 10
144.91100920720001
 20
116.9614115081816
 30
0.0
  0
VERTEX
  5
275B
  8
0
 10
144.51839310770001
 20
116.9160985630816
 30
0.0
  0
VERTEX
  5
275C
  8
0
 10
144.0648622649
 20
116.8753341503816
 30
0.0
  0
VERTEX
  5
275D
  8
0
 10
143.55729174390001
 20
116.83973621708159
 30
0.0
  0
VERTEX
  5
275E
  8
0
 10
143.00337579649999
 20
116.80984439158161
 30
0.0
  0
VERTEX
  5
275F
  8
0
 10
142.41151122380001
 20
116.7861118034816
 30
0.0
  0
VERTEX
  5
2760
  8
0
 10
141.7906700895
 20
116.7688982144816
 30
0.0
  0
VERTEX
  5
2761
  8
0
 10
141.15026371229999
 20
116.7584645652816
 30
0.0
  0
VERTEX
  5
2762
  8
0
 10
140.5
 20
116.7549690192816
 30
0.0
  0
SEQEND
  5
2763
  8
0
  0
LINE
  5
1E91
  8
0
 10
147.5
 20
110.6399186171017
 30
0.0
 11
147.5
 21
115.6577683131179
 31
0.0
  0
LINE
  5
1E93
  8
0
 10
133.5
 20
110.5218390212124
 30
0.0
 11
133.5
 21
115.65741298140171
 31
0.0
  0
LINE
  5
1E95
  8
0
 10
133.5
 20
115.7692583037577
 30
0.0
 11
133.5
 21
121.5949307130816
 31
0.0
  0
ARC
  5
1E96
  8
0
 10
134.00118676669999
 20
121.5956895183816
 30
0.0
 40
0.5011873410774075
 50
90.135671391898498
 51
180.08674672239999
  0
ARC
  5
1E97
  8
0
 10
146.99881323330001
 20
121.5956895183816
 30
0.0
 40
0.5011873410778917
 50
359.91325327760001
 51
89.86432860800052
  0
LINE
  5
1E98
  8
0
 10
147.5
 20
121.5949307130816
 30
0.0
 11
147.5
 21
115.7628167890412
 31
0.0
  0
ARC
  5
1E99
  8
0
 10
138.8618775068
 20
104.4172051031816
 30
0.0
 40
1.6130528114475391
 50
93.977091980699612
 51
184.6280029160996
  0
LINE
  5
1E9A
  8
0
 10
137.25
 20
104.13810578838159
 30
0.0
 11
137.25408395279999
 21
104.2870541892816
 31
0.0
  0
LINE
  5
1E9B
  8
0
 10
143.74591604720001
 20
104.2870541892816
 30
0.0
 11
143.75
 21
104.13810578838159
 31
0.0
  0
ARC
  5
1E9C
  8
0
 10
142.13715945210001
 20
104.4163768315816
 30
0.0
 40
1.6139461354422591
 50
355.40406373759947
 51
85.990841365599891
  0
LINE
  5
1E9F
  8
0
 10
133.5
 20
104.59448003368161
 30
0.0
 11
133.5
 21
108.2225217455816
 31
0.0
  0
LINE
  5
1EA2
  8
0
 10
147.5
 20
108.2225217455816
 30
0.0
 11
147.5
 21
104.59448003368161
 31
0.0
  0
ARC
  5
1EA5
  8
0
 10
147.0
 20
103.6316092557816
 30
0.0
 40
0.5000000000000285
 50
270.0
 51
0.0
  0
LINE
  5
1EA7
  8
0
 10
147.5
 20
104.59448003368161
 30
0.0
 11
147.5
 21
103.6316092557816
 31
0.0
  0
ARC
  5
1EA9
  8
0
 10
134.0
 20
103.6316092557816
 30
0.0
 40
0.5
 50
180.0
 51
270.0
  0
LINE
  5
1EAA
  8
0
 10
133.5
 20
103.6316092557816
 30
0.0
 11
133.5
 21
104.59448003368161
 31
0.0
  0
LINE
  5
1EAB
  8
0
 10
146.8710281745
 20
103.1316092557816
 30
0.0
 11
147.0
 21
103.1316092557816
 31
0.0
  0
LINE
  5
1EAC
  8
0
 10
143.75
 20
103.1316092557816
 30
0.0
 11
143.75
 21
104.13810578838159
 31
0.0
  0
LINE
  5
1EAD
  8
0
 10
134.0
 20
103.1316092557816
 30
0.0
 11
134.1289718255
 21
103.1316092557816
 31
0.0
  0
LINE
  5
1EAE
  8
0
 10
137.25
 20
103.1316092557816
 30
0.0
 11
137.25
 21
104.13810578838159
 31
0.0
  0
LINE
  5
1EB2
  8
0
 10
28.5
 20
111.13112317158161
 30
0.0
 11
29.5
 21
111.13112317158161
 31
0.0
  0
LINE
  5
1EB3
  8
0
 10
29.5
 20
115.13112317158161
 30
0.0
 11
28.5
 21
115.13112317158161
 31
0.0
  0
LINE
  5
1EB4
  8
0
 10
12.5
 20
100.3316092557816
 30
0.0
 11
12.69999999999999
 21
100.1316092557816
 31
0.0
  0
LINE
  5
1EB5
  8
0
 10
28.300000000000011
 20
100.1316092557816
 30
0.0
 11
28.5
 21
100.3316092557816
 31
0.0
  0
LINE
  5
1EB6
  8
0
 10
28.5
 20
100.3316092557816
 30
0.0
 11
28.5
 21
102.93160925578159
 31
0.0
  0
LINE
  5
1EB7
  8
0
 10
12.5
 20
102.93160925578159
 30
0.0
 11
12.5
 21
100.3316092557816
 31
0.0
  0
LINE
  5
1EB8
  8
0
 10
28.5
 20
102.93160925578159
 30
0.0
 11
28.300000000000011
 21
103.1316092557816
 31
0.0
  0
LINE
  5
1EB9
  8
0
 10
12.69999999999999
 20
103.1316092557816
 30
0.0
 11
12.5
 21
102.93160925578159
 31
0.0
  0
LINE
  5
1EBA
  8
0
 10
28.0
 20
107.13112317158161
 30
0.0
 11
28.5
 21
107.63112317158161
 31
0.0
  0
LINE
  5
1EBB
  8
0
 10
28.5
 20
118.63112317158161
 30
0.0
 11
28.0
 21
119.13112317158161
 31
0.0
  0
LINE
  5
1EBC
  8
0
 10
13.5
 20
119.13112317158161
 30
0.0
 11
13.0
 21
119.13112317158161
 31
0.0
  0
LINE
  5
1EBD
  8
0
 10
28.0
 20
119.13112317158161
 30
0.0
 11
27.5
 21
119.13112317158161
 31
0.0
  0
LINE
  5
1EBE
  8
0
 10
27.5
 20
107.13112317158161
 30
0.0
 11
28.0
 21
107.13112317158161
 31
0.0
  0
LINE
  5
1EBF
  8
0
 10
13.0
 20
107.13112317158161
 30
0.0
 11
13.5
 21
107.13112317158161
 31
0.0
  0
LINE
  5
1EC0
  8
0
 10
13.0
 20
119.13112317158161
 30
0.0
 11
12.5
 21
118.63112317158161
 31
0.0
  0
LINE
  5
1EC1
  8
0
 10
12.5
 20
107.63112317158161
 30
0.0
 11
13.0
 21
107.13112317158161
 31
0.0
  0
LINE
  5
1EC2
  8
0
 10
29.5
 20
111.13112317158161
 30
0.0
 11
29.5
 21
115.13112317158161
 31
0.0
  0
LINE
  5
1EC6
  8
0
 10
28.300000000000011
 20
100.1316092557816
 30
0.0
 11
12.69999999999999
 21
100.1316092557816
 31
0.0
  0
LINE
  5
1EC9
  8
0
 10
12.69999999999999
 20
103.1316092557816
 30
0.0
 11
28.300000000000011
 21
103.1316092557816
 31
0.0
  0
LINE
  5
1ECD
  8
0
 10
28.5
 20
118.63112317158151
 30
0.0
 11
28.5
 21
107.63112317158161
 31
0.0
  0
ARC
  5
1ED1
  8
0
 10
20.499021031200019
 20
98.502067670681654
 30
0.0
 40
9.3038490859130611
 50
69.547971993599305
 51
110.43915982259939
  0
ARC
  5
1ED2
  8
0
 10
20.50096332780004
 20
127.76239533028161
 30
0.0
 40
9.3060046445210283
 50
249.55302402940009
 51
290.43431672379921
  0
LINE
  5
1ED4
  8
0
 10
12.5
 20
107.63112317158161
 30
0.0
 11
12.5
 21
118.63112317158171
 31
0.0
  0
LINE
  5
1EE5
  8
0
 10
13.5
 20
103.6679777673816
 30
0.0
 11
13.5
 21
121.5949307420441
 31
0.0
  0
LINE
  5
1EE8
  8
0
 10
27.5
 20
121.5949306758186
 30
0.0
 11
27.5
 21
103.6679777673816
 31
0.0
  0
LINE
  5
1EEA
  8
0
 10
17.25
 20
122.0968754543816
 30
0.0
 11
17.25
 21
103.1316092557816
 31
0.0
  0
LINE
  5
1EEC
  8
0
 10
23.75
 20
122.0968754543816
 30
0.0
 11
23.75
 21
103.1316092557816
 31
0.0
  0
ARC
  5
1F02
  8
0
 10
14.001186766700011
 20
121.5956895183816
 30
0.0
 40
0.5011873410779345
 50
90.135671391999452
 51
180.08674672239999
  0
ARC
  5
1F05
  8
0
 10
26.998813233400028
 20
121.5956895183816
 30
0.0
 40
0.5011873410781403
 50
359.91325327760001
 51
89.86432860800052
  0
LINE
  5
1F07
  8
0
 10
17.25
 20
122.0968754543816
 30
0.0
 11
14.0
 21
122.0968754543816
 31
0.0
  0
LINE
  5
1F09
  8
0
 10
27.0
 20
122.0968754543816
 30
0.0
 11
23.75
 21
122.0968754543816
 31
0.0
  0
ARC
  5
1F0B
  8
0
 10
26.9991680367973
 20
103.6336177926291
 30
0.0
 40
0.5020092262404369
 50
270.09495443420877
 51
3.9246726941693519
  0
ARC
  5
1F0C
  8
0
 10
14.0008319632027
 20
103.6336177926291
 30
0.0
 40
0.50200922624038
 50
176.0753273058306
 51
269.90504556579123
  0
ARC
  5
1F0D
  8
0
 10
22.138122493299988
 20
104.4172051031816
 30
0.0
 40
1.6130528114475191
 50
355.3719970839004
 51
86.022908019300374
  0
ARC
  5
1F0E
  8
0
 10
22.622151453699988
 20
125.7131664473816
 30
0.0
 40
4.4164004288787986
 50
265.1661939641985
 51
284.79594482319862
  0
ARC
  5
1F0F
  8
0
 10
18.862840548000008
 20
104.4163768315816
 30
0.0
 40
1.6139461354422591
 50
94.009158634400123
 51
184.59593626239959
  0
ARC
  5
1F10
  8
0
 10
18.377848546399999
 20
125.7131664473816
 30
0.0
 40
4.4164004288776386
 50
255.20405517679961
 51
274.83380603579809
  0
LINE
  5
1F11
  8
0
 10
22.25
 20
106.0263734584816
 30
0.0
 11
18.75
 21
106.0263734584816
 31
0.0
  0
LINE
  5
1F12
  8
0
 10
18.75
 20
121.3124737696816
 30
0.0
 11
22.25
 21
121.3124737696816
 31
0.0
  0
LINE
  5
1F17
  8
0
 10
51.402915810895081
 20
163.11424235508159
 30
0.0
 11
51.402915810895081
 21
162.11424235508159
 31
0.0
  0
LINE
  5
1F18
  8
0
 10
55.402915810895081
 20
162.11424235508159
 30
0.0
 11
55.402915810895081
 21
163.11424235508159
 31
0.0
  0
LINE
  5
1F19
  8
0
 10
59.402915810895081
 20
178.61424235508159
 30
0.0
 11
58.902915810895081
 21
179.11424235508159
 31
0.0
  0
LINE
  5
1F1A
  8
0
 10
47.902915810895067
 20
179.11424235508159
 30
0.0
 11
47.402915810895081
 21
178.61424235508159
 31
0.0
  0
LINE
  5
1F1B
  8
0
 10
59.402915810895081
 20
163.61424235508159
 30
0.0
 11
59.402915810895081
 21
164.11424235508159
 31
0.0
  0
LINE
  5
1F1C
  8
0
 10
59.402915810895081
 20
167.86424235508159
 30
0.0
 11
59.402915810895081
 21
174.36424235508159
 31
0.0
  0
LINE
  5
1F1D
  8
0
 10
59.402915810895081
 20
178.11424235508159
 30
0.0
 11
59.402915810895081
 21
178.61424235508159
 31
0.0
  0
LINE
  5
1F1E
  8
0
 10
47.402915810895081
 20
178.61424235508159
 30
0.0
 11
47.402915810895081
 21
178.11424235508159
 31
0.0
  0
LINE
  5
1F1F
  8
0
 10
47.402915810895081
 20
174.36424235508159
 30
0.0
 11
47.402915810895081
 21
167.86424235508159
 31
0.0
  0
LINE
  5
1F20
  8
0
 10
47.402915810895081
 20
164.11424235508159
 30
0.0
 11
47.402915810895081
 21
163.61424235508159
 31
0.0
  0
LINE
  5
1F21
  8
0
 10
47.402915810895081
 20
163.61424235508159
 30
0.0
 11
47.902915810895067
 21
163.11424235508159
 31
0.0
  0
LINE
  5
1F22
  8
0
 10
58.902915810895081
 20
163.11424235508159
 30
0.0
 11
59.402915810895081
 21
163.61424235508159
 31
0.0
  0
LINE
  5
1F31
  8
0
 10
44.190649462595097
 20
177.61424235508159
 30
0.0
 11
44.190649462595097
 21
174.36424235508159
 31
0.0
  0
LINE
  5
1F32
  8
0
 10
44.190649462595097
 20
167.86424235508159
 30
0.0
 11
44.190649462595097
 21
164.61424235508159
 31
0.0
  0
POLYLINE
  5
1F33
  8
0
 66
     1
 10
0.0
 20
0.0
 30
0.0
 70
   128
  0
VERTEX
  5
2764
  8
0
 10
44.923451795395067
 20
178.11424235508159
 30
0.0
  0
VERTEX
  5
2765
  8
0
 10
44.68918831199511
 20
178.10595929448161
 30
0.0
  0
VERTEX
  5
2766
  8
0
 10
44.524433796295057
 20
178.07938834458159
 30
0.0
  0
VERTEX
  5
2767
  8
0
 10
44.417811900795073
 20
178.03323718448161
 30
0.0
  0
VERTEX
  5
2768
  8
0
 10
44.34318852629508
 20
177.96847155828161
 30
0.0
  0
VERTEX
  5
2769
  8
0
 10
44.311484890295098
 20
177.93010145888161
 30
0.0
  0
VERTEX
  5
276A
  8
0
 10
44.296633726995083
 20
177.90967879828159
 30
0.0
  0
VERTEX
  5
276B
  8
0
 10
44.282447374495057
 20
177.88854786838161
 30
0.0
  0
VERTEX
  5
276C
  8
0
 10
44.26897043649506
 20
177.86680208208159
 30
0.0
  0
VERTEX
  5
276D
  8
0
 10
44.256273005995119
 20
177.84453791188159
 30
0.0
  0
VERTEX
  5
276E
  8
0
 10
44.233572162795099
 20
177.79884749628161
 30
0.0
  0
VERTEX
  5
276F
  8
0
 10
44.201538938395061
 20
177.70552096868161
 30
0.0
  0
VERTEX
  5
2770
  8
0
 10
44.190649462695092
 20
177.61424235508159
 30
0.0
  0
SEQEND
  5
2771
  8
0
  0
POLYLINE
  5
1F34
  8
0
 66
     1
 10
0.0
 20
0.0
 30
0.0
 70
   128
  0
VERTEX
  5
2772
  8
0
 10
44.190649462695092
 20
164.61424235508159
 30
0.0
  0
VERTEX
  5
2773
  8
0
 10
44.199292775095103
 20
164.52313498848159
 30
0.0
  0
VERTEX
  5
2774
  8
0
 10
44.21043695409508
 20
164.4764798395816
 30
0.0
  0
VERTEX
  5
2775
  8
0
 10
44.217763258395109
 20
164.4531594458816
 30
0.0
  0
VERTEX
  5
2776
  8
0
 10
44.226265516695094
 20
164.42996456758161
 30
0.0
  0
VERTEX
  5
2777
  8
0
 10
44.235950982795082
 20
164.40699004228159
 30
0.0
  0
VERTEX
  5
2778
  8
0
 10
44.246834769995068
 20
164.3843328797816
 30
0.0
  0
VERTEX
  5
2779
  8
0
 10
44.27233333009508
 20
164.3403623657816
 30
0.0
  0
VERTEX
  5
277A
  8
0
 10
44.340416161895057
 20
164.26044473268161
 30
0.0
  0
VERTEX
  5
277B
  8
0
 10
44.475955955795087
 20
164.17797649558159
 30
0.0
  0
VERTEX
  5
277C
  8
0
 10
44.67148413729506
 20
164.12932569688169
 30
0.0
  0
VERTEX
  5
277D
  8
0
 10
44.923451795395067
 20
164.11424235508159
 30
0.0
  0
SEQEND
  5
277E
  8
0
  0
LINE
  5
1F35
  8
0
 10
51.402915810895081
 20
162.11424235508159
 30
0.0
 11
55.402915810895081
 21
162.11424235508159
 31
0.0
  0
ARC
  5
1F3A
  8
0
 10
53.402915810895081
 20
171.11424235508159
 30
0.0
 40
8.0000000000000266
 50
336.68858400959999
 51
23.24816094359878
  0
ARC
  5
1F3B
  8
0
 10
53.402915810895081
 20
171.11424235508159
 30
0.0
 40
8.0000000000000089
 50
156.0305176822398
 51
203.96948231780021
  0
LINE
  5
1F3C
  8
0
 10
47.902915810895067
 20
179.11424235508159
 30
0.0
 11
58.902915810895081
 21
179.11424235508159
 31
0.0
  0
LINE
  5
1F41
  8
0
 10
58.902915810895081
 20
163.11424235508159
 30
0.0
 11
47.902915810895067
 21
163.11424235508159
 31
0.0
  0
LINE
  5
1F45
  8
0
 10
44.923451795395067
 20
178.11424235508159
 30
0.0
 11
54.186919471995111
 21
178.11424235508159
 31
0.0
  0
LINE
  5
1F47
  8
0
 10
54.186919471995111
 20
164.11424235508159
 30
0.0
 11
44.923451795395067
 21
164.11424235508159
 31
0.0
  0
LINE
  5
1F5D
  8
0
 10
63.022336164295098
 20
164.11424235508159
 30
0.0
 11
54.186919471995111
 21
164.11424235508159
 31
0.0
  0
LINE
  5
1F60
  8
0
 10
54.186919471995111
 20
178.11424235508159
 30
0.0
 11
63.022336164295098
 21
178.11424235508159
 31
0.0
  0
ARC
  5
1F63
  8
0
 10
61.655918303995122
 20
169.36139380868161
 30
0.0
 40
1.497154184314377
 50
270.10942975489849
 51
0.1090133411001293
  0
LINE
  5
1F64
  8
0
 10
63.153069778395093
 20
172.86424235508159
 30
0.0
 11
63.153069778395093
 21
169.36424235508159
 31
0.0
  0
ARC
  5
1F65
  8
0
 10
61.655918303995122
 20
172.8670909013816
 30
0.0
 40
1.497154184314446
 50
359.89098665889992
 51
89.890570245101472
  0
CIRCLE
  5
1F66
  8
0
 10
109.9604214153951
 20
171.11586423158161
 30
0.0
 40
5.2851662792421239
  0
LINE
  5
1F67
  8
0
 10
61.658777731295118
 20
167.86424235508159
 30
0.0
 11
44.190649462595097
 21
167.86424235508159
 31
0.0
  0
LINE
  5
1F68
  8
0
 10
61.658777731295118
 20
174.36424235508159
 30
0.0
 11
44.190649462595097
 21
174.36424235508159
 31
0.0
  0
ARC
  5
1F69
  8
0
 10
60.253770692895102
 20
169.43164592338161
 30
0.0
 40
1.563392281997376
 50
270.55242387999851
 51
357.52900314499999
  0
ARC
  5
1F6C
  8
0
 10
60.249269609895123
 20
172.7921844020816
 30
0.0
 40
1.5680961785348051
 50
2.6338122891999611
 51
89.284760685799966
  0
POLYLINE
  5
1F6D
  8
0
 66
     1
 10
0.0
 20
0.0
 30
0.0
 70
   128
  0
VERTEX
  5
277F
  8
0
 10
63.022336164295098
 20
178.11424235508159
 30
0.0
  0
VERTEX
  5
2780
  8
0
 10
65.996606222195055
 20
178.06053523368161
 30
0.0
  0
VERTEX
  5
2781
  8
0
 10
69.159714827795085
 20
177.89549454598159
 30
0.0
  0
VERTEX
  5
2782
  8
0
 10
72.452254992695075
 20
177.6007054092816
 30
0.0
  0
VERTEX
  5
2783
  8
0
 10
75.78625769509506
 20
177.1969983960816
 30
0.0
  0
VERTEX
  5
2784
  8
0
 10
79.146679385695052
 20
176.85018265658161
 30
0.0
  0
VERTEX
  5
2785
  8
0
 10
82.529715370795074
 20
176.66143758528159
 30
0.0
  0
VERTEX
  5
2786
  8
0
 10
85.92891467299512
 20
176.61053440478159
 30
0.0
  0
VERTEX
  5
2787
  8
0
 10
90.383518706695099
 20
176.68701110018159
 30
0.0
  0
VERTEX
  5
2788
  8
0
 10
94.845977906795099
 20
176.90119987868161
 30
0.0
  0
VERTEX
  5
2789
  8
0
 10
99.310518072795105
 20
177.24148966078161
 30
0.0
  0
VERTEX
  5
278A
  8
0
 10
101.4143866794951
 20
177.4422467084816
 30
0.0
  0
VERTEX
  5
278B
  8
0
 10
103.5170490050951
 20
177.66658221218159
 30
0.0
  0
VERTEX
  5
278C
  8
0
 10
105.619284730895
 20
177.90100572958161
 30
0.0
  0
VERTEX
  5
278D
  8
0
 10
107.7290407449951
 20
178.06495165438159
 30
0.0
  0
VERTEX
  5
278E
  8
0
 10
109.6491612765042
 20
178.1191984860836
 30
0.0
  0
SEQEND
  5
278F
  8
0
  0
POLYLINE
  5
1F73
  8
0
 66
     1
 10
0.0
 20
0.0
 30
0.0
 70
   128
  0
VERTEX
  5
2790
  8
0
 10
63.022336164295098
 20
164.11424235508159
 30
0.0
  0
VERTEX
  5
2791
  8
0
 10
66.998816115595105
 20
164.20788045818159
 30
0.0
  0
VERTEX
  5
2792
  8
0
 10
70.956544022295077
 20
164.47824293968159
 30
0.0
  0
VERTEX
  5
2793
  8
0
 10
74.877935586195122
 20
164.9182656170816
 30
0.0
  0
VERTEX
  5
2794
  8
0
 10
78.761025681795104
 20
165.3483143466816
 30
0.0
  0
VERTEX
  5
2795
  8
0
 10
82.616584901195097
 20
165.5741538620816
 30
0.0
  0
VERTEX
  5
2796
  8
0
 10
86.448513130295098
 20
165.61453071108161
 30
0.0
  0
VERTEX
  5
2797
  8
0
 10
90.719121989195045
 20
165.52430777548159
 30
0.0
  0
VERTEX
  5
2798
  8
0
 10
94.989018170695076
 20
165.3152486586817
 30
0.0
  0
VERTEX
  5
2799
  8
0
 10
99.300533924395111
 20
164.9872747535816
 30
0.0
  0
VERTEX
  5
279A
  8
0
 10
101.0156267973951
 20
164.82612073968161
 30
0.0
  0
VERTEX
  5
279B
  8
0
 10
102.74689152109509
 20
164.6468380078816
 30
0.0
  0
VERTEX
  5
279C
  8
0
 10
104.4965044914951
 20
164.4507665436816
 30
0.0
  0
VERTEX
  5
279D
  8
0
 10
106.2542042171951
 20
164.2669525483816
 30
0.0
  0
VERTEX
  5
279E
  8
0
 10
108.003521470095
 20
164.1478316598816
 30
0.0
  0
VERTEX
  5
279F
  8
0
 10
109.8093639932151
 20
164.1210319340816
 30
0.0
  0
SEQEND
  5
27A0
  8
0
  0
LINE
  5
1F74
  8
0
 10
61.8157092916951
 20
169.36424235508159
 30
0.0
 11
61.8157092916951
 21
172.86424235508159
 31
0.0
  0
LINE
  5
1F89
  8
0
 10
55.402915810895081
 20
59.114242355081643
 30
0.0
 11
55.402915810895081
 21
60.114242355081643
 31
0.0
  0
LINE
  5
1F8A
  8
0
 10
51.402915810895081
 20
60.114242355081643
 30
0.0
 11
51.402915810895081
 21
59.114242355081643
 31
0.0
  0
LINE
  5
1F8B
  8
0
 10
47.402915810895081
 20
43.614242355081643
 30
0.0
 11
47.902915810895067
 21
43.114242355081643
 31
0.0
  0
LINE
  5
1F8C
  8
0
 10
58.902915810895081
 20
43.114242355081643
 30
0.0
 11
59.402915810895081
 21
43.614242355081643
 31
0.0
  0
LINE
  5
1F8D
  8
0
 10
47.402915810895081
 20
58.614242355081643
 30
0.0
 11
47.402915810895081
 21
58.114242355081643
 31
0.0
  0
LINE
  5
1F8E
  8
0
 10
47.402915810895081
 20
44.114242355081643
 30
0.0
 11
47.402915810895081
 21
43.614242355081643
 31
0.0
  0
LINE
  5
1F8F
  8
0
 10
59.402915810895081
 20
43.614242355081643
 30
0.0
 11
59.402915810895081
 21
44.114242355081643
 31
0.0
  0
LINE
  5
1F90
  8
0
 10
59.402915810895081
 20
58.114242355081643
 30
0.0
 11
59.402915810895081
 21
58.614242355081643
 31
0.0
  0
LINE
  5
1F91
  8
0
 10
59.402915810895081
 20
58.614242355081643
 30
0.0
 11
58.902915810895081
 21
59.114242355081643
 31
0.0
  0
LINE
  5
1F92
  8
0
 10
47.902915810895067
 20
59.114242355081643
 30
0.0
 11
47.402915810895081
 21
58.614242355081643
 31
0.0
  0
POLYLINE
  5
1F9D
  8
0
 66
     1
 10
0.0
 20
0.0
 30
0.0
 70
   128
  0
VERTEX
  5
27A1
  8
0
 10
44.190649462695092
 20
44.614242355081643
 30
0.0
  0
VERTEX
  5
27A2
  8
0
 10
44.199508498695081
 20
44.523050535081637
 30
0.0
  0
VERTEX
  5
27A3
  8
0
 10
44.210795094195078
 20
44.476356762081643
 30
0.0
  0
VERTEX
  5
27A4
  8
0
 10
44.218153409395093
 20
44.45301950258164
 30
0.0
  0
VERTEX
  5
27A5
  8
0
 10
44.22664786859508
 20
44.429809955781629
 30
0.0
  0
VERTEX
  5
27A6
  8
0
 10
44.236284148595132
 20
44.406823342281633
 30
0.0
  0
VERTEX
  5
27A7
  8
0
 10
44.247087251795101
 20
44.384157003781638
 30
0.0
  0
VERTEX
  5
27A8
  8
0
 10
44.272453863095052
 20
44.340177864081639
 30
0.0
  0
VERTEX
  5
27A9
  8
0
 10
44.342509508995079
 20
44.260281026281632
 30
0.0
  0
VERTEX
  5
27AA
  8
0
 10
44.496574004395079
 20
44.177885613181637
 30
0.0
  0
VERTEX
  5
27AB
  8
0
 10
44.746379994895108
 20
44.129301841681631
 30
0.0
  0
VERTEX
  5
27AC
  8
0
 10
45.10005255479507
 20
44.114242355081643
 30
0.0
  0
SEQEND
  5
27AD
  8
0
  0
POLYLINE
  5
1F9E
  8
0
 66
     1
 10
0.0
 20
0.0
 30
0.0
 70
   128
  0
VERTEX
  5
27AE
  8
0
 10
45.10005255479507
 20
58.114242355081643
 30
0.0
  0
VERTEX
  5
27AF
  8
0
 10
44.754336494895092
 20
58.106001930481639
 30
0.0
  0
VERTEX
  5
27B0
  8
0
 10
44.536739917595121
 20
58.079555547481633
 30
0.0
  0
VERTEX
  5
27B1
  8
0
 10
44.468244622195073
 20
58.05900748308165
 30
0.0
  0
VERTEX
  5
27B2
  8
0
 10
44.418320218995063
 20
58.033567650381642
 30
0.0
  0
VERTEX
  5
27B3
  8
0
 10
44.379850023195097
 20
58.003421463081636
 30
0.0
  0
VERTEX
  5
27B4
  8
0
 10
44.3472633179951
 20
57.968921561481643
 30
0.0
  0
VERTEX
  5
27B5
  8
0
 10
44.317460883295098
 20
57.930574555181629
 30
0.0
  0
VERTEX
  5
27B6
  8
0
 10
44.303173270895059
 20
57.910152573481632
 30
0.0
  0
VERTEX
  5
27B7
  8
0
 10
44.296163448395077
 20
57.899667461981643
 30
0.0
  0
VERTEX
  5
27B8
  8
0
 10
44.289247442395087
 20
57.889014951481641
 30
0.0
  0
VERTEX
  5
27B9
  8
0
 10
44.282433038995123
 20
57.878206870381632
 30
0.0
  0
VERTEX
  5
27BA
  8
0
 10
44.275730981195117
 20
57.867255249681648
 30
0.0
  0
VERTEX
  5
27BB
  8
0
 10
44.262718951595097
 20
57.844970267781633
 30
0.0
  0
VERTEX
  5
27BC
  8
0
 10
44.250339668195068
 20
57.822258672281627
 30
0.0
  0
VERTEX
  5
27BD
  8
0
 10
44.238741782795103
 20
57.79921963498164
 30
0.0
  0
VERTEX
  5
27BE
  8
0
 10
44.203235594195121
 20
57.705719246381648
 30
0.0
  0
VERTEX
  5
27BF
  8
0
 10
44.190649462695092
 20
57.614242355081643
 30
0.0
  0
SEQEND
  5
27C0
  8
0
  0
LINE
  5
1F9F
  8
0
 10
44.190649462595097
 20
47.864242355081643
 30
0.0
 11
44.190649462595097
 21
44.614242355081643
 31
0.0
  0
LINE
  5
1FA0
  8
0
 10
44.190649462595097
 20
57.614242355081643
 30
0.0
 11
44.190649462595097
 21
54.364242355081643
 31
0.0
  0
LINE
  5
1FA6
  8
0
 10
53.402915810895081
 20
60.114242355081643
 30
0.0
 11
51.402915810895081
 21
60.114242355081643
 31
0.0
  0
LINE
  5
1FA7
  8
0
 10
55.402915810895081
 20
60.114242355081643
 30
0.0
 11
53.402915810895081
 21
60.114242355081643
 31
0.0
  0
CIRCLE
  5
1FA8
  8
0
 10
53.402915810895081
 20
51.114242355081643
 30
0.0
 40
7.9999999999999858
  0
LINE
  5
1FAC
  8
0
 10
58.902915810895081
 20
43.114242355081643
 30
0.0
 11
47.902915810895067
 21
43.114242355081643
 31
0.0
  0
LINE
  5
1FB4
  8
0
 10
47.902915810895067
 20
59.114242355081643
 30
0.0
 11
58.902915810895081
 21
59.114242355081643
 31
0.0
  0
POLYLINE
  5
1FB6
  8
0
 66
     1
 10
0.0
 20
0.0
 30
0.0
 70
   128
  0
VERTEX
  5
27C1
  8
0
 10
107.93196431059501
 20
58.075780319181632
 30
0.0
  0
VERTEX
  5
27C2
  8
0
 10
107.0795986136951
 20
58.025819400581639
 30
0.0
  0
VERTEX
  5
27C3
  8
0
 10
104.32242802119509
 20
57.762475568881641
 30
0.0
  0
VERTEX
  5
27C4
  8
0
 10
101.5673594588951
 20
57.455167427081633
 30
0.0
  0
VERTEX
  5
27C5
  8
0
 10
98.811366541895111
 20
57.194312639981632
 30
0.0
  0
VERTEX
  5
27C6
  8
0
 10
96.05439225489512
 20
56.981679210781628
 30
0.0
  0
VERTEX
  5
27C7
  8
0
 10
92.442612332295084
 20
56.776619091881628
 30
0.0
  0
VERTEX
  5
27C8
  8
0
 10
88.829252597695117
 20
56.654652031981641
 30
0.0
  0
VERTEX
  5
27C9
  8
0
 10
85.214285578995089
 20
56.61424105478163
 30
0.0
  0
VERTEX
  5
27CA
  8
0
 10
82.1412928318951
 20
56.670994866481628
 30
0.0
  0
VERTEX
  5
27CB
  8
0
 10
79.084999462195071
 20
56.838415848481638
 30
0.0
  0
VERTEX
  5
27CC
  8
0
 10
76.045264812495077
 20
57.115435936281642
 30
0.0
  0
VERTEX
  5
27CD
  8
0
 10
73.029048314595116
 20
57.482934761281641
 30
0.0
  0
VERTEX
  5
27CE
  8
0
 10
71.040060549495081
 20
57.693594523481629
 30
0.0
  0
VERTEX
  5
27CF
  8
0
 10
69.087591332195075
 20
57.859228246181651
 30
0.0
  0
VERTEX
  5
27D0
  8
0
 10
67.190334558995119
 20
57.979590443481641
 30
0.0
  0
VERTEX
  5
27D1
  8
0
 10
65.369432547595125
 20
58.058297294581642
 30
0.0
  0
VERTEX
  5
27D2
  8
0
 10
63.643663006395059
 20
58.10122890028164
 30
0.0
  0
VERTEX
  5
27D3
  8
0
 10
62.007847370195122
 20
58.114242355081643
 30
0.0
  0
SEQEND
  5
27D4
  8
0
  0
ARC
  5
1FB7
  8
0
 10
109.80863653679511
 20
51.120140568881631
 30
0.0
 40
7.0082158064556017
 50
359.95177905309993
 51
89.712261594300998
  0
POLYLINE
  5
1FB9
  8
0
 66
     1
 10
0.0
 20
0.0
 30
0.0
 70
   128
  0
VERTEX
  5
27D5
  8
0
 10
61.8157092916951
 20
56.614087899081639
 30
0.0
  0
VERTEX
  5
27D6
  8
0
 10
63.241526618695097
 20
56.505948281781642
 30
0.0
  0
VERTEX
  5
27D7
  8
0
 10
64.791131818095096
 20
56.375853227281631
 30
0.0
  0
VERTEX
  5
27D8
  8
0
 10
66.445983716495107
 20
56.218251697781639
 30
0.0
  0
VERTEX
  5
27D9
  8
0
 10
68.187211190595121
 20
56.027577790781642
 30
0.0
  0
VERTEX
  5
27DA
  8
0
 10
69.995109913695103
 20
55.798224960181628
 30
0.0
  0
VERTEX
  5
27DB
  8
0
 10
71.846972696495072
 20
55.524438948281642
 30
0.0
  0
VERTEX
  5
27DC
  8
0
 10
73.7193416339951
 20
55.200428570081641
 30
0.0
  0
VERTEX
  5
27DD
  8
0
 10
75.587901044895091
 20
54.819154317381631
 30
0.0
  0
VERTEX
  5
27DE
  8
0
 10
78.051487834895056
 20
54.237907429681641
 30
0.0
  0
VERTEX
  5
27DF
  8
0
 10
80.496088627595114
 20
53.650735821481632
 30
0.0
  0
VERTEX
  5
27E0
  8
0
 10
82.956144281795105
 20
53.171608684581642
 30
0.0
  0
VERTEX
  5
27E1
  8
0
 10
84.195059597895124
 20
53.006910283881638
 30
0.0
  0
VERTEX
  5
27E2
  8
0
 10
85.444821920695077
 20
52.912066622481632
 30
0.0
  0
VERTEX
  5
27E3
  8
0
 10
86.728423067695076
 20
52.906997146881629
 30
0.0
  0
VERTEX
  5
27E4
  8
0
 10
87.69160809709507
 20
52.954637680581641
 30
0.0
  0
VERTEX
  5
27E5
  8
0
 10
88.629530628395074
 20
53.032481146981631
 30
0.0
  0
VERTEX
  5
27E6
  8
0
 10
89.552918973195105
 20
53.132413018381641
 30
0.0
  0
VERTEX
  5
27E7
  8
0
 10
90.477745571995115
 20
53.248315618081641
 30
0.0
  0
VERTEX
  5
27E8
  8
0
 10
92.971450971795093
 20
53.618959969781621
 30
0.0
  0
VERTEX
  5
27E9
  8
0
 10
95.513509647395097
 20
54.053235831881629
 30
0.0
  0
VERTEX
  5
27EA
  8
0
 10
98.099749684495123
 20
54.506794320681628
 30
0.0
  0
VERTEX
  5
27EB
  8
0
 10
100.0625577988951
 20
54.830294070181637
 30
0.0
  0
VERTEX
  5
27EC
  8
0
 10
102.0304446554951
 20
55.115502683781642
 30
0.0
  0
VERTEX
  5
27ED
  8
0
 10
103.9817131401951
 20
55.338938030781627
 30
0.0
  0
VERTEX
  5
27EE
  8
0
 10
105.9812924429951
 20
55.474775285781632
 30
0.0
  0
VERTEX
  5
27EF
  8
0
 10
107.3055895759951
 20
55.484188722481633
 30
0.0
  0
VERTEX
  5
27F0
  8
0
 10
108.5216804986951
 20
55.414655547581653
 30
0.0
  0
VERTEX
  5
27F1
  8
0
 10
109.60604509869501
 20
55.271908069181627
 30
0.0
  0
VERTEX
  5
27F2
  8
0
 10
110.371366325295
 20
55.117906067781632
 30
0.0
  0
VERTEX
  5
27F3
  8
0
 10
111.1152280486951
 20
54.917434780781633
 30
0.0
  0
VERTEX
  5
27F4
  8
0
 10
111.844712790895
 20
54.667466821381637
 30
0.0
  0
VERTEX
  5
27F5
  8
0
 10
112.54754213399509
 20
54.369578271081629
 30
0.0
  0
VERTEX
  5
27F6
  8
0
 10
113.2094230230951
 20
54.027522797181639
 30
0.0
  0
VERTEX
  5
27F7
  8
0
 10
113.82736479589499
 20
53.649160941181627
 30
0.0
  0
VERTEX
  5
27F8
  8
0
 10
114.9307707353951
 20
52.819067124081641
 30
0.0
  0
VERTEX
  5
27F9
  8
0
 10
115.85643943809509
 20
51.95039490148163
 30
0.0
  0
VERTEX
  5
27FA
  8
0
 10
116.6030503894951
 20
51.114242355081643
 30
0.0
  0
SEQEND
  5
27FB
  8
0
  0
POLYLINE
  5
1FCC
  8
0
 66
     1
 10
0.0
 20
0.0
 30
0.0
 70
   128
  0
VERTEX
  5
27FC
  8
0
 10
61.8157092916951
 20
45.614396810981638
 30
0.0
  0
VERTEX
  5
27FD
  8
0
 10
63.187217523895072
 20
45.719125428881632
 30
0.0
  0
VERTEX
  5
27FE
  8
0
 10
64.674002986695086
 20
45.845344280781632
 30
0.0
  0
VERTEX
  5
27FF
  8
0
 10
66.259978498195096
 20
45.99723406298164
 30
0.0
  0
VERTEX
  5
2800
  8
0
 10
67.929056876695086
 20
46.178975471581637
 30
0.0
  0
VERTEX
  5
2801
  8
0
 10
69.664558091795129
 20
46.394952468881641
 30
0.0
  0
VERTEX
  5
2802
  8
0
 10
71.447430719095109
 20
46.650362082981637
 30
0.0
  0
VERTEX
  5
2803
  8
0
 10
73.258030485895119
 20
46.950604607881637
 30
0.0
  0
VERTEX
  5
2804
  8
0
 10
75.076713119395095
 20
47.30108033808164
 30
0.0
  0
VERTEX
  5
2805
  8
0
 10
77.488195770395123
 20
47.847430806681643
 30
0.0
  0
VERTEX
  5
2806
  8
0
 10
79.886046333695106
 20
48.431023843481633
 30
0.0
  0
VERTEX
  5
2807
  8
0
 10
82.288731513795085
 20
48.942372419081643
 30
0.0
  0
VERTEX
  5
2808
  8
0
 10
84.103173025495096
 20
49.210947953281632
 30
0.0
  0
VERTEX
  5
2809
  8
0
 10
85.93190666389512
 20
49.330522378081639
 30
0.0
  0
VERTEX
  5
280A
  8
0
 10
86.856202352395087
 20
49.318681354081633
 30
0.0
  0
VERTEX
  5
280B
  8
0
 10
87.766749932495088
 20
49.268632037981646
 30
0.0
  0
VERTEX
  5
280C
  8
0
 10
88.645287357195116
 20
49.193935403281642
 30
0.0
  0
VERTEX
  5
280D
  8
0
 10
89.503552549595042
 20
49.101771919081642
 30
0.0
  0
VERTEX
  5
280E
  8
0
 10
91.80195711169506
 20
48.793421646481633
 30
0.0
  0
VERTEX
  5
280F
  8
0
 10
94.142629594395089
 20
48.415862682481638
 30
0.0
  0
VERTEX
  5
2810
  8
0
 10
96.526311082695102
 20
47.999695781081627
 30
0.0
  0
VERTEX
  5
2811
  8
0
 10
98.939172584595084
 20
47.581686190181628
 30
0.0
  0
VERTEX
  5
2812
  8
0
 10
101.368812555695
 20
47.203151867681633
 30
0.0
  0
VERTEX
  5
2813
  8
0
 10
103.8033503454951
 20
46.906493714781632
 30
0.0
  0
VERTEX
  5
2814
  8
0
 10
105.624220486095
 20
46.768250673681628
 30
0.0
  0
VERTEX
  5
2815
  8
0
 10
107.42954798559509
 20
46.747876636581637
 30
0.0
  0
VERTEX
  5
2816
  8
0
 10
108.3225090322951
 20
46.797020330081637
 30
0.0
  0
VERTEX
  5
2817
  8
0
 10
109.20576134009499
 20
46.894465561381637
 30
0.0
  0
VERTEX
  5
2818
  8
0
 10
110.0828211661951
 20
47.048061296181643
 30
0.0
  0
VERTEX
  5
2819
  8
0
 10
110.9725013594951
 20
47.269299703381627
 30
0.0
  0
VERTEX
  5
281A
  8
0
 10
111.85903382419509
 20
47.566820411581631
 30
0.0
  0
VERTEX
  5
281B
  8
0
 10
112.7192734173951
 20
47.939510999381639
 30
0.0
  0
VERTEX
  5
281C
  8
0
 10
113.5328713614951
 20
48.382425962881641
 30
0.0
  0
VERTEX
  5
281D
  8
0
 10
114.28759543479509
 20
48.884660853681638
 30
0.0
  0
VERTEX
  5
281E
  8
0
 10
114.9746387893951
 20
49.431873461381642
 30
0.0
  0
VERTEX
  5
281F
  8
0
 10
115.5907795161951
 20
50.001929473081638
 30
0.0
  0
VERTEX
  5
2820
  8
0
 10
116.1341919410951
 20
50.570746550481651
 30
0.0
  0
VERTEX
  5
2821
  8
0
 10
116.6030503894951
 20
51.114242355081643
 30
0.0
  0
SEQEND
  5
2822
  8
0
  0
ARC
  5
1FCD
  8
0
 10
109.80863653679511
 20
51.108344141181632
 30
0.0
 40
7.0082158064313171
 50
270.28773841060058
 51
0.0482209469994182
  0
LINE
  5
1FD2
  8
0
 10
61.8157092916951
 20
52.864242355081643
 30
0.0
 11
61.8157092916951
 21
49.364242355081643
 31
0.0
  0
LINE
  5
1FD4
  8
0
 10
57.902915810895081
 20
44.114242355081643
 30
0.0
 11
57.249438124295118
 21
44.114242355081643
 31
0.0
  0
LINE
  5
1FD6
  8
0
 10
57.199711034795079
 20
58.114242355081643
 30
0.0
 11
57.902915810895081
 21
58.114242355081643
 31
0.0
  0
ARC
  5
1FD7
  8
0
 10
59.81460289659509
 20
44.566987030081627
 30
0.0
 40
0.4566925930561319
 50
277.53916175229989
 51
5.9391931805000562
  0
LINE
  5
1FD8
  8
0
 10
59.874522707395101
 20
44.114242355081643
 30
0.0
 11
57.902915810895081
 21
44.114242355081643
 31
0.0
  0
ARC
  5
1FD9
  8
0
 10
59.81460289659509
 20
57.661497679981643
 30
0.0
 40
0.4566925930561947
 50
354.06080681949987
 51
82.460838247700025
  0
LINE
  5
1FDA
  8
0
 10
57.902915810895081
 20
58.114242355081643
 30
0.0
 11
59.874522707395101
 21
58.114242355081643
 31
0.0
  0
LINE
  5
1FE0
  8
0
 10
49.529932464687697
 20
44.114242355081643
 30
0.0
 11
45.083497535695066
 21
44.114242355081643
 31
0.0
  0
LINE
  5
1FE2
  8
0
 10
45.083492082295102
 20
58.114242355081643
 30
0.0
 11
49.529932464687697
 21
58.114242355081643
 31
0.0
  0
ARC
  5
1FE3
  8
0
 10
65.850385348695113
 20
64.550512525781642
 30
0.0
 40
8.9031144405446927
 50
231.1767442312991
 51
243.05237636859951
  0
ARC
  5
1FE4
  8
0
 10
60.322472680495082
 20
52.833119210381639
 30
0.0
 40
1.493560921808464
 50
1.1940282370995119
 51
74.74095781650017
  0
ARC
  5
1FE5
  8
0
 10
60.396976632295093
 20
49.351155636781641
 30
0.0
 40
1.4187930155164881
 50
283.52400809539881
 51
0.5284945364998027
  0
ARC
  5
1FE6
  8
0
 10
66.047289878795084
 20
37.373434455681632
 30
0.0
 40
9.2638941492110511
 50
117.1796533918999
 51
128.5912260083002
  0
LINE
  5
1FE7
  8
0
 10
59.874522707395101
 20
58.114242355081643
 30
0.0
 11
62.007847370195122
 21
58.114242355081643
 31
0.0
  0
LINE
  5
1FEC
  8
0
 10
62.007847370195122
 20
44.114242355081643
 30
0.0
 11
59.874522707395101
 21
44.114242355081643
 31
0.0
  0
POLYLINE
  5
1FF1
  8
0
 66
     1
 10
0.0
 20
0.0
 30
0.0
 70
   128
  0
VERTEX
  5
2823
  8
0
 10
107.93196431059501
 20
58.075780319181632
 30
0.0
  0
VERTEX
  5
2824
  8
0
 10
108.003521470095
 20
58.080653050181638
 30
0.0
  0
VERTEX
  5
2825
  8
0
 10
109.84383152639511
 20
58.128268000881633
 30
0.0
  0
SEQEND
  5
2826
  8
0
  0
LINE
  5
1FF2
  8
0
 10
62.007847370195122
 20
58.114242355081643
 30
0.0
 11
63.022336164295098
 21
58.114242355081643
 31
0.0
  0
LINE
  5
1FF3
  8
0
 10
44.222380864695083
 20
47.864242355081643
 30
0.0
 11
46.092820052288339
 21
47.864242355081643
 31
0.0
  0
LINE
  5
1FF4
  8
0
 10
44.222380864695083
 20
54.364242355081643
 30
0.0
 11
46.092820052288339
 21
54.364242355081643
 31
0.0
  0
LINE
  5
1FF6
  8
0
 10
60.268844086695083
 20
47.00826757298163
 30
0.0
 11
60.268844086695083
 21
44.614242355081643
 31
0.0
  0
LINE
  5
1FF9
  8
0
 10
60.268844086695083
 20
57.614242355081643
 30
0.0
 11
60.268844086695083
 21
55.220217137081633
 31
0.0
  0
LINE
  5
2088
  8
0
 10
52.531400748410192
 20
103.16966042523011
 30
0.0
 11
53.402915810910201
 21
103.1316092558302
 31
0.0
  0
ARC
  5
20D0
  8
0
 10
109.8093639932151
 20
171.1210319340816
 30
0.0
 40
7.0
 50
268.29952119583498
 51
91.925163556263044
  0
POLYLINE
  5
2157
  8
0
 66
     1
 10
0.0
 20
0.0
 30
0.0
 70
   128
  0
VERTEX
  5
2827
  8
0
 10
107.93196431123989
 20
44.152704390951229
 30
0.0
  0
VERTEX
  5
2828
  8
0
 10
107.07959861434
 20
44.202665309551222
 30
0.0
  0
VERTEX
  5
2829
  8
0
 10
104.3224280218399
 20
44.46600914125122
 30
0.0
  0
VERTEX
  5
282A
  8
0
 10
101.56735945954
 20
44.773317283051227
 30
0.0
  0
VERTEX
  5
282B
  8
0
 10
98.81136654254
 20
45.034172070151229
 30
0.0
  0
VERTEX
  5
282C
  8
0
 10
96.054392255539994
 20
45.246805499351218
 30
0.0
  0
VERTEX
  5
282D
  8
0
 10
92.442612332939973
 20
45.451865618251233
 30
0.0
  0
VERTEX
  5
282E
  8
0
 10
88.829252598340005
 20
45.573832678151213
 30
0.0
  0
VERTEX
  5
282F
  8
0
 10
85.214285579639977
 20
45.614243655351231
 30
0.0
  0
VERTEX
  5
2830
  8
0
 10
82.141292832539989
 20
45.557489843651233
 30
0.0
  0
VERTEX
  5
2831
  8
0
 10
79.084999462839946
 20
45.390068861651208
 30
0.0
  0
VERTEX
  5
2832
  8
0
 10
76.045264813139966
 20
45.113048773851212
 30
0.0
  0
VERTEX
  5
2833
  8
0
 10
73.029048315240004
 20
44.74554994885122
 30
0.0
  0
VERTEX
  5
2834
  8
0
 10
71.040060550139955
 20
44.534890186651232
 30
0.0
  0
VERTEX
  5
2835
  8
0
 10
69.087591332839963
 20
44.36925646395121
 30
0.0
  0
VERTEX
  5
2836
  8
0
 10
67.190334559640007
 20
44.24889426665122
 30
0.0
  0
VERTEX
  5
2837
  8
0
 10
65.369432548240013
 20
44.170187415551219
 30
0.0
  0
VERTEX
  5
2838
  8
0
 10
63.643663007039947
 20
44.127255809851221
 30
0.0
  0
VERTEX
  5
2839
  8
0
 10
62.007847370840011
 20
44.114242355051218
 30
0.0
  0
SEQEND
  5
283A
  8
0
  0
POLYLINE
  5
2158
  8
0
 66
     1
 10
0.0
 20
0.0
 30
0.0
 70
   128
  0
VERTEX
  5
283B
  8
0
 10
107.93196431123989
 20
44.152704390951229
 30
0.0
  0
VERTEX
  5
283C
  8
0
 10
108.0035214707399
 20
44.147831659951223
 30
0.0
  0
VERTEX
  5
283D
  8
0
 10
109.84383152704
 20
44.100216709251221
 30
0.0
  0
SEQEND
  5
283E
  8
0
  0
LINE
  5
22EF
  8
1
 10
39.190649462595097
 20
171.11424235508159
 30
0.0
 11
121.809350537405
 21
171.11424235508159
 31
0.0
  0
LINE
  5
22F0
  8
1
 10
53.402915810895081
 20
181.61424235508159
 30
0.0
 11
53.402915810895081
 21
160.61424235508159
 31
0.0
  0
LINE
  5
22F2
  8
1
 10
20.50000000000006
 20
95.131609255781655
 30
0.0
 11
20.50000000000006
 21
127.0968754543817
 31
0.0
  0
LINE
  5
22F5
  8
1
 10
10.0
 20
113.13112317158161
 30
0.0
 11
31.0
 21
113.13112317158161
 31
0.0
  0
LINE
  5
22F6
  8
1
 10
140.5
 20
95.13160925578164
 30
0.0
 11
140.5
 21
127.0968754543816
 31
0.0
  0
LINE
  5
22F7
  8
1
 10
130.0
 20
113.13112317158161
 30
0.0
 11
151.0
 21
113.13112317158161
 31
0.0
  0
LINE
  5
22F8
  8
1
 10
53.402915810895131
 20
95.13160925578164
 30
0.0
 11
53.402915810895131
 21
127.0968754543816
 31
0.0
  0
LINE
  5
22F9
  8
1
 10
44.902915810895081
 20
113.13112317158161
 30
0.0
 11
61.902915810895081
 21
113.13112317158161
 31
0.0
  0
LINE
  5
22FB
  8
1
 10
39.190649462595097
 20
51.114242355081643
 30
0.0
 11
121.809350537405
 21
51.114242355081643
 31
0.0
  0
LINE
  5
22FC
  8
1
 10
53.402915810895081
 20
61.614242355081643
 30
0.0
 11
53.402915810895081
 21
40.614242355081643
 31
0.0
  0
CIRCLE
  5
23D7
  8
3
 10
53.402915810895081
 20
171.11424235508159
 30
0.0
 40
3.0
  0
CIRCLE
  5
23D8
  8
0
 10
53.402915810895081
 20
171.11424235508159
 30
0.0
 40
2.458499999999999
  0
CIRCLE
  5
23DF
  8
0
 10
53.402915810895081
 20
51.114242355081643
 30
0.0
 40
3.1000000000000001
  0
LINE
  5
24AD
  8
2
 10
50.30291581089508
 20
100.1316092557816
 30
0.0
 11
50.30291581089508
 21
103.1316092557816
 31
0.0
  0
LINE
  5
24AE
  8
2
 10
56.50291581089509
 20
100.1316092557816
 30
0.0
 11
56.50291581089509
 21
103.1316092557816
 31
0.0
  0
LINE
  5
24AF
  8
2
 10
17.399999999999942
 20
100.1316092557816
 30
0.0
 11
17.399999999999942
 21
103.1316092557816
 31
0.0
  0
LINE
  5
24B0
  8
2
 10
23.599999999999952
 20
100.1316092557816
 30
0.0
 11
23.599999999999952
 21
103.1316092557816
 31
0.0
  0
LINE
  5
24B1
  8
2
 10
137.40000000000001
 20
100.1316092557816
 30
0.0
 11
137.40000000000001
 21
103.1316092557816
 31
0.0
  0
LINE
  5
24B2
  8
2
 10
143.59999999999999
 20
100.1316092557816
 30
0.0
 11
143.59999999999999
 21
103.1316092557816
 31
0.0
  0
LINE
  5
24C1
  8
2
 10
17.5
 20
107.3093079119754
 30
0.0
 11
17.5
 21
118.9535394710315
 31
0.0
  0
LINE
  5
24C2
  8
2
 10
18.041499999999921
 20
107.4754838648996
 30
0.0
 11
18.041499999999921
 21
118.7872762456648
 31
0.0
  0
LINE
  5
24C3
  8
2
 10
22.9585000000001
 20
107.4749474211004
 30
0.0
 11
22.9585000000001
 21
118.7867485040836
 31
0.0
  0
LINE
  5
24C4
  8
2
 10
23.5
 20
107.3086409567144
 30
0.0
 11
23.5
 21
118.9528833413775
 31
0.0
  0
LINE
  5
24CB
  8
2
 10
50.40291581089501
 20
107.934970748875
 30
0.0
 11
50.402915810895017
 21
118.3272755942882
 31
0.0
  0
LINE
  5
24CC
  8
2
 10
50.944415810894959
 20
107.6579360059532
 30
0.0
 11
50.944415810894938
 21
118.60431033720999
 31
0.0
  0
LINE
  5
24CD
  8
2
 10
55.861415810895117
 20
107.6579360059531
 30
0.0
 11
55.861415810895117
 21
118.60431033720999
 31
0.0
  0
LINE
  5
24CE
  8
2
 10
56.402915810895031
 20
107.9349707488749
 30
0.0
 11
56.402915810895031
 21
118.3272755942883
 31
0.0
  0
ENDSEC
  0
EOF
