  0
SECTION
  2
HEADER
  9
$ACADVER
  1
AC1009
  9
$INSBASE
 10
0.0
 20
0.0
 30
0.0
  9
$EXTMIN
 10
0.0
 20
-2.960436562073669
 30
0.0
  9
$EXTMAX
 10
223.7555061220836
 20
176.11252022135471
 30
0.0
  9
$LIMMIN
 10
0.0
 20
0.0
  9
$LIMMAX
 10
770.0
 20
540.0
  9
$ORTHOMODE
 70
     1
  9
$REGENMODE
 70
     1
  9
$FILLMODE
 70
     1
  9
$QTEXTMODE
 70
     0
  9
$MIRRTEXT
 70
     0
  9
$DRAGMODE
 70
     2
  9
$LTSCALE
 40
5.0
  9
$OSMODE
 70
    37
  9
$ATTMODE
 70
     1
  9
$TEXTSIZE
 40
4.000000000000048
  9
$TRACEWID
 40
0.05
  9
$TEXTSTYLE
  7
STANDARD
  9
$CLAYER
  8
0
  9
$CELTYPE
  6
BYLAYER
  9
$CECOLOR
 62
   256
  9
$DIMSCALE
 40
2.0
  9
$DIMASZ
 40
3.0
  9
$DIMEXO
 40
2.0
  9
$DIMDLI
 40
0.38
  9
$DIMRND
 40
0.0
  9
$DIMDLE
 40
0.0
  9
$DIMEXE
 40
2.0
  9
$DIMTP
 40
0.0
  9
$DIMTM
 40
0.0
  9
$DIMTXT
 40
3.0
  9
$DIMCEN
 40
0.0
  9
$DIMTSZ
 40
0.0
  9
$DIMTOL
 70
     0
  9
$DIMLIM
 70
     0
  9
$DIMTIH
 70
     0
  9
$DIMTOH
 70
     0
  9
$DIMSE1
 70
     0
  9
$DIMSE2
 70
     0
  9
$DIMTAD
 70
     1
  9
$DIMZIN
 70
     0
  9
$DIMBLK
  1

  9
$DIMASO
 70
     0
  9
$DIMSHO
 70
     0
  9
$DIMPOST
  1

  9
$DIMAPOST
  1

  9
$DIMALT
 70
     0
  9
$DIMALTD
 70
     2
  9
$DIMALTF
 40
25.399999999999999
  9
$DIMLFAC
 40
1.0
  9
$DIMTOFL
 70
     0
  9
$DIMTVP
 40
1.6000000000000001
  9
$DIMTIX
 70
     1
  9
$DIMSOXD
 70
     0
  9
$DIMSAH
 70
     0
  9
$DIMBLK1
  1

  9
$DIMBLK2
  1

  9
$DIMSTYLE
  2
STANDARD
  9
$DIMCLRD
 70
     4
  9
$DIMCLRE
 70
     4
  9
$DIMCLRT
 70
     4
  9
$DIMTFAC
 40
1.0
  9
$DIMGAP
 40
0.09
  9
$LUNITS
 70
     2
  9
$LUPREC
 70
     1
  9
$SKETCHINC
 40
0.1
  9
$FILLETRAD
 40
0.0
  9
$AUNITS
 70
     0
  9
$AUPREC
 70
     0
  9
$MENU
  1
E:\r13\win\SUPPORT\ACAD
  9
$ELEVATION
 40
0.0
  9
$PELEVATION
 40
0.0
  9
$THICKNESS
 40
0.0
  9
$LIMCHECK
 70
     0
  9
$BLIPMODE
 70
     0
  9
$CHAMFERA
 40
1.1999999999999991
  9
$CHAMFERB
 40
1.1999999999999991
  9
$SKPOLY
 70
     0
  9
$TDCREATE
 40
2450158.583426042
  9
$TDUPDATE
 40
2457162.4636816899
  9
$TDINDWG
 40
0.1796250347
  9
$TDUSRTIMER
 40
0.1796250347
  9
$USRTIMER
 70
     1
  9
$ANGBASE
 50
0.0
  9
$ANGDIR
 70
     0
  9
$PDMODE
 70
     0
  9
$PDSIZE
 40
0.0
  9
$PLINEWID
 40
0.0
  9
$COORDS
 70
     1
  9
$SPLFRAME
 70
     0
  9
$SPLINETYPE
 70
     6
  9
$SPLINESEGS
 70
     8
  9
$ATTDIA
 70
     0
  9
$ATTREQ
 70
     1
  9
$HANDLING
 70
     1
  9
$HANDSEED
  5
1C5F
  9
$SURFTAB1
 70
     6
  9
$SURFTAB2
 70
     6
  9
$SURFTYPE
 70
     6
  9
$SURFU
 70
     6
  9
$SURFV
 70
     6
  9
$UCSNAME
  2

  9
$UCSORG
 10
0.0
 20
0.0
 30
0.0
  9
$UCSXDIR
 10
1.0
 20
0.0
 30
0.0
  9
$UCSYDIR
 10
0.0
 20
1.0
 30
0.0
  9
$PUCSNAME
  2

  9
$PUCSORG
 10
0.0
 20
0.0
 30
0.0
  9
$PUCSXDIR
 10
1.0
 20
0.0
 30
0.0
  9
$PUCSYDIR
 10
0.0
 20
1.0
 30
0.0
  9
$USERI1
 70
     3
  9
$USERI2
 70
     1
  9
$USERI3
 70
     0
  9
$USERI4
 70
     0
  9
$USERI5
 70
     0
  9
$USERR1
 40
2.0
  9
$USERR2
 40
3.0
  9
$USERR3
 40
3.0
  9
$USERR4
 40
3.0
  9
$USERR5
 40
10.0
  9
$WORLDVIEW
 70
     1
  9
$SHADEDGE
 70
     3
  9
$SHADEDIF
 70
    70
  9
$TILEMODE
 70
     1
  9
$MAXACTVP
 70
    16
  9
$PLIMCHECK
 70
     0
  9
$PEXTMIN
 10
1.0000000000000000E+020
 20
1.0000000000000000E+020
 30
1.0000000000000000E+020
  9
$PEXTMAX
 10
-1.0000000000000000E+020
 20
-1.0000000000000000E+020
 30
-1.0000000000000000E+020
  9
$PLIMMIN
 10
0.0
 20
0.0
  9
$PLIMMAX
 10
12.0
 20
9.0
  9
$UNITMODE
 70
     0
  9
$VISRETAIN
 70
     0
  9
$PLINEGEN
 70
     0
  9
$PSLTSCALE
 70
     0
  0
ENDSEC
  0
SECTION
  2
TABLES
  0
TABLE
  2
VPORT
 70
     1
  0
VPORT
  2
*ACTIVE
 70
     0
 10
0.0
 20
0.0
 11
1.0
 21
1.0
 12
112.97580532072899
 22
86.578100831834931
 13
0.0
 23
0.0
 14
10.0
 24
10.0
 15
10.0
 25
10.0
 16
0.0
 26
0.0
 36
1.0
 17
0.0
 27
0.0
 37
0.0
 40
180.59991777684399
 41
1.368715083798882
 42
50.0
 43
0.0
 44
0.0
 50
0.0
 51
0.0
 71
     0
 72
   500
 73
     1
 74
     0
 75
     0
 76
     0
 77
     0
 78
     2
  0
ENDTAB
  0
TABLE
  2
LTYPE
 70
     4
  0
LTYPE
  2
CONTINUOUS
 70
     0
  3
Solid Line
 72
    65
 73
     0
 40
0.0
  0
LTYPE
  2
CENTER
 70
     0
  3
____ _ ____ _ ____ _ ____ _ ____ _ ____ _ ____
 72
    65
 73
     4
 40
2.0
 49
1.25
 49
-0.25
 49
0.25
 49
-0.25
  0
LTYPE
  2
HIDDEN
 70
     0
  3
_ _ _ _ _ _ _ _ _ _ _ _ _ _ _ _ _ _ _ _ _ _ _
 72
    65
 73
     2
 40
0.375
 49
0.25
 49
-0.125
  0
LTYPE
  2
PHANTOM2
 70
     0
  3
___ _ _ ___ _ _ ___ _ _ ___ _ _
 72
    65
 73
     6
 40
1.25
 49
0.625
 49
-0.125
 49
0.125
 49
-0.125
 49
0.125
 49
-0.125
  0
ENDTAB
  0
TABLE
  2
LAYER
 70
     4
  0
LAYER
  2
0
 70
     0
 62
     7
  6
CONTINUOUS
  0
LAYER
  2
1
 70
     0
 62
     1
  6
CENTER
  0
LAYER
  2
2
 70
     0
 62
     2
  6
HIDDEN
  0
LAYER
  2
3
 70
     0
 62
     3
  6
CONTINUOUS
  0
ENDTAB
  0
TABLE
  2
STYLE
 70
     2
  0
STYLE
  2
STANDARD
 70
     0
 40
0.0
 41
1.0
 50
0.0
 71
     0
 42
4.000000000000048
  3
SIMPLEX
  4
BIGFONT
  0
STYLE
  2
STANDARD1
 70
     0
 40
0.0
 41
1.0
 50
0.0
 71
     0
 42
3.0
  3
txt
  4

  0
ENDTAB
  0
TABLE
  2
VIEW
 70
     1
  0
VIEW
  2
ALL
 70
     0
 40
179.5384664489153
 10
146.94997169852391
 20
89.769233224457665
 41
0.0
 11
0.0
 21
0.0
 31
1.0
 12
0.0
 22
0.0
 32
0.0
 42
50.0
 43
0.0
 44
0.0
 50
0.0
 71
     0
  0
ENDTAB
  0
TABLE
  2
UCS
 70
     0
  0
ENDTAB
  0
TABLE
  2
APPID
 70
     4
  0
APPID
  2
ACAD
 70
     0
  0
APPID
  2
ACAD_MLEADERVER
 70
     0
  0
APPID
  2
ACAD_EXEMPT_FROM_CAD_STANDARDS
 70
     0
  0
APPID
  2
ACAD_NAV_VCDISPLAY
 70
     0
  0
ENDTAB
  0
TABLE
  2
DIMSTYLE
 70
     2
  0
DIMSTYLE
  2
STANDARD
 70
     0
  3

  4

  5

  6

  7

 40
1.0
 41
0.18
 42
0.0625
 43
0.38
 44
0.18
 45
0.0
 46
0.0
 47
0.0
 48
0.0
140
0.18
141
0.09
142
0.0
143
25.399999999999999
144
1.0
145
0.0
146
1.0
147
0.09
 71
     0
 72
     0
 73
     1
 74
     1
 75
     0
 76
     0
 77
     0
 78
     0
170
     0
171
     2
172
     0
173
     0
174
     0
175
     0
176
     0
177
     0
178
     0
  0
DIMSTYLE
  2
ISO-25
 70
     0
  3

  4

  5

  6

  7

 40
1.0
 41
2.5
 42
0.625
 43
3.75
 44
1.25
 45
0.0
 46
0.0
 47
0.0
 48
0.0
140
2.5
141
2.5
142
0.0
143
0.0393700787
144
1.0
145
0.0
146
1.0
147
0.625
 71
     0
 72
     0
 73
     0
 74
     0
 75
     0
 76
     0
 77
     1
 78
     8
170
     0
171
     3
172
     1
173
     0
174
     0
175
     0
176
     0
177
     0
178
     0
  0
ENDTAB
  0
ENDSEC
  0
SECTION
  2
BLOCKS
  0
BLOCK
  8
0
  2
$MODEL_SPACE
 70
     0
 10
0.0
 20
0.0
 30
0.0
  3
$MODEL_SPACE
  1

  0
ENDBLK
  5
644
  8
0
  0
BLOCK
 67
     1
  8
0
  2
$PAPER_SPACE
 70
     0
 10
0.0
 20
0.0
 30
0.0
  3
$PAPER_SPACE
  1

  0
ENDBLK
  5
642
 67
     1
  8
0
  0
ENDSEC
  0
SECTION
  2
ENTITIES
  0
LINE
  5
F16
  8
1
 10
193.75550612208369
 20
165.61252022135471
 30
0.0
 11
112.7555061220836
 21
165.61252022135471
 31
0.0
  0
LINE
  5
F17
  8
1
 10
193.75550612208369
 20
45.612520221354671
 30
0.0
 11
112.7555061220836
 21
45.612520221354693
 31
0.0
  0
LINE
  5
F18
  8
0
 10
121.9620412678949
 20
52.612520221354693
 30
0.0
 11
115.7772421445607
 21
52.612520221354693
 31
0.0
  0
LINE
  5
F19
  8
0
 10
115.7772421445607
 20
48.862520221354693
 30
0.0
 11
118.4880875500877
 21
48.862520221354693
 31
0.0
  0
LINE
  5
F1A
  8
0
 10
121.8942248487553
 20
38.612520221354693
 30
0.0
 11
115.7772421445607
 21
38.612520221354693
 31
0.0
  0
LINE
  5
F1B
  8
0
 10
118.4776153600926
 20
42.362520221354679
 30
0.0
 11
115.7772421445607
 21
42.362520221354679
 31
0.0
  0
LINE
  5
F1C
  8
0
 10
125.7555061220833
 20
158.6125202213546
 30
0.0
 11
115.7670061220834
 21
158.61252022135471
 31
0.0
  0
LINE
  5
F1D
  8
0
 10
125.7555061220833
 20
162.3625202213546
 30
0.0
 11
115.7670061220834
 21
162.36252022135471
 31
0.0
  0
LINE
  5
F1E
  8
0
 10
125.7555061220833
 20
172.61252022135471
 30
0.0
 11
115.7670061220834
 21
172.61252022135471
 31
0.0
  0
LINE
  5
F1F
  8
0
 10
125.7555061220833
 20
168.86252022135471
 30
0.0
 11
115.7670061220834
 21
168.86252022135471
 31
0.0
  0
POLYLINE
  5
F20
  8
0
 66
     1
 10
0.0
 20
0.0
 30
0.0
 70
   128
  0
VERTEX
  5
1B96
  8
0
 10
136.88889648491539
 20
112.94141743907311
 30
0.0
  0
VERTEX
  5
1B97
  8
0
 10
136.0991618023622
 20
111.3377941098514
 30
0.0
  0
VERTEX
  5
1B98
  8
0
 10
135.0824255999033
 20
109.8853254856059
 30
0.0
  0
VERTEX
  5
1B99
  8
0
 10
133.86690478576989
 20
108.6146215576686
 30
0.0
  0
VERTEX
  5
1B9A
  8
0
 10
132.43979022314619
 20
107.5261703220289
 30
0.0
  0
VERTEX
  5
1B9B
  8
0
 10
130.87349080052971
 20
106.6814897542219
 30
0.0
  0
VERTEX
  5
1B9C
  8
0
 10
129.2086790437491
 20
106.0985372568171
 30
0.0
  0
VERTEX
  5
1B9D
  8
0
 10
127.4881730140152
 20
105.78717959246291
 30
0.0
  0
VERTEX
  5
1B9E
  8
0
 10
125.7555061220838
 20
105.7490202213547
 30
0.0
  0
VERTEX
  5
1B9F
  8
0
 10
124.05404494983731
 20
105.98237868046429
 30
0.0
  0
VERTEX
  5
1BA0
  8
0
 10
122.4246411088822
 20
106.47455042330159
 30
0.0
  0
VERTEX
  5
1BA1
  8
0
 10
120.9068809455993
 20
107.2098623784149
 30
0.0
  0
VERTEX
  5
1BA2
  8
0
 10
119.5362552895802
 20
108.1657447038278
 30
0.0
  0
VERTEX
  5
1BA3
  8
0
 10
118.3430825116005
 20
109.3135966108713
 30
0.0
  0
VERTEX
  5
1BA4
  8
0
 10
117.3553229793653
 20
110.6227302116572
 30
0.0
  0
VERTEX
  5
1BA5
  8
0
 10
116.5917144904481
 20
112.0567917532393
 30
0.0
  0
VERTEX
  5
1BA6
  8
0
 10
116.0681181200049
 20
113.5783051432994
 30
0.0
  0
VERTEX
  5
1BA7
  8
0
 10
115.792940141312
 20
115.1479782538761
 30
0.0
  0
VERTEX
  5
1BA8
  8
0
 10
115.7670061220837
 20
116.7260202213546
 30
0.0
  0
VERTEX
  5
1BA9
  8
0
 10
115.9881392293135
 20
118.2728564691481
 30
0.0
  0
VERTEX
  5
1BAA
  8
0
 10
116.44413128648939
 20
119.75142739094601
 30
0.0
  0
VERTEX
  5
1BAB
  8
0
 10
117.12008711464109
 20
121.12588918750841
 30
0.0
  0
VERTEX
  5
1BAC
  8
0
 10
117.99489736116431
 20
122.36427696249299
 30
0.0
  0
VERTEX
  5
1BAD
  8
0
 10
119.0420575648032
 20
123.439468778635
 30
0.0
  0
VERTEX
  5
1BAE
  8
0
 10
120.2332102037514
 20
124.3265366074657
 30
0.0
  0
VERTEX
  5
1BAF
  8
0
 10
121.535033864299
 20
125.0090730174929
 30
0.0
  0
VERTEX
  5
1BB0
  8
0
 10
122.9132488876385
 20
125.47331326097471
 30
0.0
  0
VERTEX
  5
1BB1
  8
0
 10
124.33208907905799
 20
125.71231155400621
 30
0.0
  0
VERTEX
  5
1BB2
  8
0
 10
125.7555061220836
 20
125.7260202213547
 30
0.0
  0
SEQEND
  5
1BB3
  8
0
  0
LINE
  5
F21
  8
0
 10
115.7474373267294
 20
52.612520221354693
 30
0.0
 11
115.7474373267294
 21
48.862520221354693
 31
0.0
  0
LINE
  5
F22
  8
0
 10
115.7474373267294
 20
42.362520221354679
 30
0.0
 11
115.7474373267294
 21
38.612520221354693
 31
0.0
  0
LINE
  5
F27
  8
1
 10
93.255506122083716
 20
77.749020221354698
 30
0.0
 11
93.255506122083645
 21
133.4760202213547
 31
0.0
  0
LINE
  5
F28
  8
0
 10
102.5020376055415
 20
118.7260202213547
 30
0.0
 11
102.5020376055415
 21
127.95499484783301
 31
0.0
  0
LINE
  5
F29
  8
0
 10
84.008974638625858
 20
118.22136441102219
 30
0.0
 11
84.008974638625816
 21
127.95499484783301
 31
0.0
  0
LINE
  5
F2A
  8
0
 10
100.2555061220837
 20
125.72001923511451
 30
0.0
 11
100.2555061220837
 21
105.7490202213547
 31
0.0
  0
LINE
  5
F2B
  8
0
 10
96.505506122083702
 20
125.72001923511451
 30
0.0
 11
96.505506122083702
 21
105.7490202213547
 31
0.0
  0
LINE
  5
F2C
  8
0
 10
86.255506122083688
 20
125.72001923511451
 30
0.0
 11
86.255506122083688
 21
105.7490202213547
 31
0.0
  0
LINE
  5
F2D
  8
0
 10
90.005506122083659
 20
125.72001923511451
 30
0.0
 11
90.005506122083659
 21
105.7490202213547
 31
0.0
  0
LINE
  5
F2E
  8
0
 10
101.2555061220837
 20
122.7260202213547
 30
0.0
 11
101.2555061220837
 21
110.7260202213547
 31
0.0
  0
LINE
  5
F2F
  8
0
 10
85.255506122083673
 20
122.7260202213547
 30
0.0
 11
85.255506122083673
 21
110.7260202213547
 31
0.0
  0
LINE
  5
F30
  8
0
 10
83.755506122083688
 20
117.2572115802616
 30
0.0
 11
83.755506122083688
 21
128.3396605737359
 31
0.0
  0
LINE
  5
F31
  8
0
 10
102.7555061220836
 20
128.3409585294832
 30
0.0
 11
102.7555061220837
 21
118.7260202213547
 31
0.0
  0
LINE
  5
F32
  8
1
 10
103.7555061220837
 20
116.7260202213547
 30
0.0
 11
82.755506122083673
 21
116.7260202213547
 31
0.0
  0
LINE
  5
F33
  8
0
 10
85.255506122083659
 20
102.7490202213547
 30
0.0
 11
101.2555061220837
 21
102.7490202213547
 31
0.0
  0
LINE
  5
F34
  8
0
 10
85.255506122083659
 20
105.7490202213547
 30
0.0
 11
101.2555061220837
 21
105.7490202213547
 31
0.0
  0
LINE
  5
F35
  8
0
 10
85.255506122083673
 20
110.7260202213547
 30
0.0
 11
86.255506122083688
 21
110.7260202213547
 31
0.0
  0
LINE
  5
F36
  8
0
 10
85.255506122083659
 20
105.7490202213547
 30
0.0
 11
85.255506122083659
 21
102.7490202213547
 31
0.0
  0
LINE
  5
F37
  8
0
 10
102.7555061220837
 20
118.7260202213547
 30
0.0
 11
102.7555061220837
 21
114.7260202213547
 31
0.0
  0
LINE
  5
F38
  8
0
 10
102.7555061220837
 20
114.7260202213547
 30
0.0
 11
101.2555061220837
 21
114.7260202213547
 31
0.0
  0
LINE
  5
F39
  8
0
 10
101.3549986981256
 20
119.2260202213547
 30
0.0
 11
101.2555061220837
 21
119.2260202213547
 31
0.0
  0
ARC
  5
F3A
  8
0
 10
101.1555233113789
 20
118.0870980579963
 30
0.0
 40
1.1562586752568409
 50
33.543998878687582
 51
80.065749098695534
  0
LINE
  5
F3B
  8
0
 10
101.2555061220837
 20
118.7260202213547
 30
0.0
 11
102.7555061220837
 21
118.7260202213547
 31
0.0
  0
LINE
  5
F3E
  8
0
 10
101.2555061220837
 20
102.7490202213547
 30
0.0
 11
101.2555061220837
 21
105.7490202213547
 31
0.0
  0
LINE
  5
F42
  8
0
 10
100.2555061220837
 20
110.7260202213547
 30
0.0
 11
101.2555061220837
 21
110.7260202213547
 31
0.0
  0
LINE
  5
F43
  8
0
 10
83.868328752667665
 20
116.3926868880214
 30
0.0
 11
85.255506122083673
 21
116.3926868880214
 31
0.0
  0
LINE
  5
F44
  8
0
 10
85.156013546041706
 20
119.2260202213547
 30
0.0
 11
85.255506122083659
 21
119.2260202213547
 31
0.0
  0
LINE
  5
F45
  8
0
 10
85.255506122083673
 20
115.4760202213547
 30
0.0
 11
84.889443143385236
 21
115.4760202213547
 31
0.0
  0
ARC
  5
F46
  8
0
 10
85.957504738150419
 20
117.1517531254097
 30
0.0
 40
2.2227995526054372
 50
151.2361905870082
 51
199.96774526146999
  0
ARC
  5
F47
  8
0
 10
84.866537739374948
 20
116.47826457981731
 30
0.0
 40
1.0018706116459171
 50
184.90005664019731
 51
271.31004674649478
  0
ARC
  5
F48
  8
0
 10
85.51574934826408
 20
117.658173082544
 30
0.0
 40
1.6085877340320771
 50
102.9225980807186
 51
159.50562670498789
  0
ARC
  5
F49
  8
0
 10
81.093767733825871
 20
122.5409257469214
 30
0.0
 40
6.1490304542457963
 50
32.919031894481833
 51
61.699745279998652
  0
LINE
  5
F4A
  8
0
 10
102.7553978871686
 20
128.33436331067361
 30
0.0
 11
83.755614356998777
 21
128.33436331067361
 31
0.0
  0
LINE
  5
F4B
  8
0
 10
102.63311148721181
 20
128.4760202213547
 30
0.0
 11
83.879883572640296
 21
128.4760202213547
 31
0.0
  0
LINE
  5
F4C
  8
0
 10
86.255506122083688
 20
122.7260202213547
 30
0.0
 11
85.255506122083673
 21
122.7260202213547
 31
0.0
  0
POLYLINE
  5
F4D
  8
0
 66
     1
 10
0.0
 20
0.0
 30
0.0
 70
   128
  0
VERTEX
  5
1BB4
  8
0
 10
83.879883572640296
 20
128.47041798525251
 30
0.0
  0
VERTEX
  5
1BB5
  8
0
 10
83.83567488613437
 20
128.4717808444818
 30
0.0
  0
VERTEX
  5
1BB6
  8
0
 10
83.774363741641665
 20
128.42805555896081
 30
0.0
  0
VERTEX
  5
1BB7
  8
0
 10
83.755614356998777
 20
128.33436331067361
 30
0.0
  0
SEQEND
  5
1BB8
  8
0
  0
POLYLINE
  5
F4E
  8
0
 66
     1
 10
0.0
 20
0.0
 30
0.0
 70
   128
  0
VERTEX
  5
1BB9
  8
0
 10
84.008974638625816
 20
127.95499484783301
 30
0.0
  0
VERTEX
  5
1BBA
  8
0
 10
83.822431252754924
 20
128.13854490408929
 30
0.0
  0
VERTEX
  5
1BBB
  8
0
 10
83.755614356998777
 20
128.33436331067361
 30
0.0
  0
SEQEND
  5
1BBC
  8
0
  0
LINE
  5
F4F
  8
0
 10
90.005506122083659
 20
125.7260202213547
 30
0.0
 11
96.505506122083702
 21
125.7260202213547
 31
0.0
  0
LINE
  5
F53
  8
0
 10
90.005506122083688
 20
125.7477276122417
 30
0.0
 11
86.255506122083688
 21
125.7477276122417
 31
0.0
  0
LINE
  5
F54
  8
0
 10
86.255506122083659
 20
125.7260202213547
 30
0.0
 11
86.255506122083659
 21
125.88263673658339
 31
0.0
  0
ARC
  5
F55
  8
0
 10
106.4442292678595
 20
121.4276270471106
 30
0.0
 40
7.6254446105363751
 50
121.1297991533872
 51
144.25142367212769
  0
LINE
  5
F56
  8
0
 10
101.2555061220837
 20
122.7260202213547
 30
0.0
 11
100.2555061220837
 21
122.7260202213547
 31
0.0
  0
LINE
  5
F57
  8
0
 10
100.2555061220837
 20
125.7477276122417
 30
0.0
 11
96.505506122083702
 21
125.7477276122417
 31
0.0
  0
LINE
  5
F58
  8
0
 10
100.2555061220837
 20
125.7260202213547
 30
0.0
 11
100.2555061220836
 21
125.88263673658339
 31
0.0
  0
POLYLINE
  5
F59
  8
0
 66
     1
 10
0.0
 20
0.0
 30
0.0
 70
   128
  0
VERTEX
  5
1BBD
  8
0
 10
102.7553978871686
 20
128.33436331067361
 30
0.0
  0
VERTEX
  5
1BBE
  8
0
 10
102.69490813323721
 20
128.46520267337709
 30
0.0
  0
VERTEX
  5
1BBF
  8
0
 10
102.63311148721181
 20
128.47254137056939
 30
0.0
  0
SEQEND
  5
1BC0
  8
0
  0
POLYLINE
  5
F5A
  8
0
 66
     1
 10
0.0
 20
0.0
 30
0.0
 70
   128
  0
VERTEX
  5
1BC1
  8
0
 10
102.5020376055415
 20
127.95499484783301
 30
0.0
  0
VERTEX
  5
1BC2
  8
0
 10
102.68858099141239
 20
128.13854490408929
 30
0.0
  0
VERTEX
  5
1BC3
  8
0
 10
102.7553978871686
 20
128.33436331067361
 30
0.0
  0
SEQEND
  5
1BC4
  8
0
  0
LINE
  5
F5B
  8
0
 10
115.7474373267292
 20
172.61252022135471
 30
0.0
 11
115.7474373267292
 21
168.86252022135471
 31
0.0
  0
LINE
  5
F5C
  8
0
 10
115.7474373267292
 20
162.36252022135471
 30
0.0
 11
115.7474373267292
 21
158.61252022135471
 31
0.0
  0
LINE
  5
F5D
  8
0
 10
157.75550612208369
 20
38.612520221354671
 30
0.0
 11
129.62848946829101
 21
38.612520221354671
 31
0.0
  0
LINE
  5
F5E
  8
0
 10
157.75550612208369
 20
52.612520221354693
 30
0.0
 11
129.62848946829101
 21
52.612520221354693
 31
0.0
  0
LINE
  5
F5F
  8
1
 10
125.7555061220836
 20
56.112520221354679
 30
0.0
 11
125.7555061220836
 21
35.112520221354693
 31
0.0
  0
LINE
  5
F60
  8
0
 10
136.88889648491531
 20
48.862520221354693
 30
0.0
 11
136.88889648491531
 21
52.612520221354693
 31
0.0
  0
CIRCLE
  5
F61
  8
0
 10
125.7555061220836
 20
45.612520221354693
 30
0.0
 40
8.0
  0
LINE
  5
F62
  8
0
 10
133.02745588858161
 20
48.862520221354693
 30
0.0
 11
136.88889648491531
 21
48.862520221354693
 31
0.0
  0
LINE
  5
F63
  8
0
 10
136.88889648491531
 20
42.362520221354671
 30
0.0
 11
133.0423293081528
 21
42.362520221354671
 31
0.0
  0
LINE
  5
F65
  8
0
 10
123.7555061220836
 20
55.112520221354693
 30
0.0
 11
127.7555061220836
 21
55.112520221354693
 31
0.0
  0
LINE
  5
F66
  8
0
 10
119.7555061220837
 20
37.612520221354693
 30
0.0
 11
131.7555061220836
 21
37.612520221354693
 31
0.0
  0
LINE
  5
F69
  8
0
 10
119.7555061220837
 20
38.612520221354693
 30
0.0
 11
119.7555061220837
 21
37.612520221354693
 31
0.0
  0
LINE
  5
F6A
  8
0
 10
123.7555061220836
 20
53.612520221354679
 30
0.0
 11
123.7555061220836
 21
55.112520221354693
 31
0.0
  0
LINE
  5
F6B
  8
0
 10
127.7555061220836
 20
55.112520221354693
 30
0.0
 11
127.7555061220836
 21
53.612520221354679
 31
0.0
  0
LINE
  5
F6C
  8
0
 10
131.7555061220836
 20
37.612520221354693
 30
0.0
 11
131.7555061220836
 21
38.612520221354671
 31
0.0
  0
LINE
  5
F6D
  8
0
 10
135.7555061220836
 20
48.862520221354693
 30
0.0
 11
135.7555061220836
 21
42.362520221354671
 31
0.0
  0
LINE
  5
F6E
  8
0
 10
136.88889648491531
 20
38.612520221354693
 30
0.0
 11
136.88889648491531
 21
42.362520221354671
 31
0.0
  0
LINE
  5
F6F
  8
0
 10
136.88889648491531
 20
48.862520221354693
 30
0.0
 11
146.17306707331861
 21
48.862520221354693
 31
0.0
  0
LINE
  5
F70
  8
0
 10
146.17306707331861
 20
42.362520221354671
 30
0.0
 11
136.88889648491531
 21
42.362520221354671
 31
0.0
  0
LINE
  5
F71
  8
0
 10
119.7555061220837
 20
53.612520221354679
 30
0.0
 11
131.7555061220836
 21
53.612520221354679
 31
0.0
  0
LINE
  5
F72
  8
0
 10
119.7555061220837
 20
53.612520221354679
 30
0.0
 11
119.7555061220837
 21
52.612520221354693
 31
0.0
  0
LINE
  5
F73
  8
0
 10
131.7555061220836
 20
52.612520221354693
 30
0.0
 11
131.7555061220836
 21
53.612520221354679
 31
0.0
  0
ARC
  5
F74
  8
0
 10
179.25550612208369
 20
45.612520221354671
 30
0.0
 40
9.499999999999984
 50
278.83903159825792
 51
81.160968401742906
  0
ARC
  5
F75
  8
0
 10
157.75550612208181
 20
-45.587479778652153
 30
0.0
 40
84.200000000007051
 50
76.734970769722864
 51
80.730603507445949
  0
ARC
  5
F76
  8
0
 10
157.7555061220836
 20
-45.587479778645331
 30
0.0
 40
84.199999999999989
 50
80.730603507446347
 51
90.0
  0
ARC
  5
F77
  8
0
 10
179.255506122084
 20
45.612520221354458
 30
0.0
 40
9.4999999999998952
 50
256.7349707697212
 51
278.83903159825633
  0
ARC
  5
F78
  8
0
 10
157.755506122084
 20
136.8125202213518
 30
0.0
 40
84.199999999997132
 50
279.26939649255451
 51
283.26502923027789
  0
ARC
  5
F79
  8
0
 10
157.75550612208369
 20
136.8125202213547
 30
0.0
 40
84.199999999999989
 50
270.0000000000008
 51
279.26939649255451
  0
ARC
  5
F7A
  8
0
 10
179.2555061220838
 20
45.612520221361372
 30
0.0
 40
9.4999999999935252
 50
81.160968401737136
 51
103.2650292302871
  0
ARC
  5
F7B
  8
0
 10
150.75550612208369
 20
282.2373838577177
 30
0.0
 40
156.511363636363
 50
270.0000000000008
 51
272.56341955505678
  0
LINE
  5
F7C
  8
0
 10
171.318163158251
 20
119.2260202213547
 30
0.0
 11
146.17306707331861
 21
119.2260202213547
 31
0.0
  0
LINE
  5
F81
  8
1
 10
125.7555061220837
 20
77.749020221354698
 30
0.0
 11
125.7555061220837
 21
130.7260202213547
 31
0.0
  0
CIRCLE
  5
F83
  8
0
 10
125.7555061220837
 20
116.7260202213547
 30
0.0
 40
6.0
  0
ARC
  5
F84
  8
0
 10
146.17306707331861
 20
109.2260202213549
 30
0.0
 40
9.9999999999999822
 50
90.0
 51
158.18939270857859
  0
LINE
  5
F87
  8
0
 10
117.7555061220837
 20
105.7490202213547
 30
0.0
 11
117.7555061220837
 21
102.7490202213547
 31
0.0
  0
LINE
  5
F88
  8
0
 10
133.75550612208369
 20
102.7490202213547
 30
0.0
 11
133.75550612208369
 21
105.7490202213547
 31
0.0
  0
LINE
  5
F89
  8
0
 10
117.7555061220837
 20
102.7490202213547
 30
0.0
 11
133.75550612208369
 21
102.7490202213547
 31
0.0
  0
LINE
  5
F8A
  8
1
 10
134.25550612208369
 20
116.7260202213547
 30
0.0
 11
117.2555061220837
 21
116.7260202213547
 31
0.0
  0
LINE
  5
F8B
  8
0
 10
117.7555061220837
 20
105.7490202213547
 30
0.0
 11
133.75550612208369
 21
105.7490202213547
 31
0.0
  0
LINE
  5
F8C
  8
0
 10
125.7555061220836
 20
125.7260202213547
 30
0.0
 11
150.75550612208369
 21
125.7260202213547
 31
0.0
  0
LINE
  5
F8D
  8
0
 10
188.75550612208369
 20
118.6847323738768
 30
0.0
 11
188.75550612208369
 21
122.84830154462379
 31
0.0
  0
ARC
  5
F8E
  8
0
 10
171.31816315825159
 20
102.22602022135889
 30
0.0
 40
16.999999999995811
 50
70.203692837018124
 51
90.000000000002018
  0
ARC
  5
F8F
  8
0
 10
183.7554671565097
 20
120.9761569082328
 30
0.0
 40
5.5000923677613258
 50
236.4438155898219
 51
335.37889731960388
  0
ARC
  5
F90
  8
0
 10
171.31816315826001
 20
102.2260202213708
 30
0.0
 40
16.999999999981711
 50
56.442690238075031
 51
70.203692837031596
  0
ARC
  5
F91
  8
0
 10
150.75550612208659
 20
282.2373838576932
 30
0.0
 40
156.5113636363383
 50
272.56341955505587
 51
279.68130778359841
  0
ARC
  5
F92
  8
0
 10
180.7537480095516
 20
119.9729612335297
 30
0.0
 40
8.5026886804163624
 50
19.765320068886599
 51
100.45955486038849
  0
POLYLINE
  5
F93
  8
0
 66
     1
 10
0.0
 20
0.0
 30
0.0
 70
   128
  0
VERTEX
  5
1BC5
  8
0
 10
177.07567687982109
 20
127.95499484783301
 30
0.0
  0
VERTEX
  5
1BC6
  8
0
 10
178.12985141941579
 20
128.13854490408929
 30
0.0
  0
VERTEX
  5
1BC7
  8
0
 10
179.21015800556279
 20
128.33436331067361
 30
0.0
  0
SEQEND
  5
1BC8
  8
0
  0
LINE
  5
F94
  8
0
 10
150.7555061220834
 20
172.61252022135471
 30
0.0
 11
157.7555061220834
 21
172.61252022135471
 31
0.0
  0
LINE
  5
F95
  8
0
 10
150.7555061220834
 20
158.6125202213546
 30
0.0
 11
157.7555061220834
 21
158.6125202213546
 31
0.0
  0
LINE
  5
F96
  8
1
 10
125.7555061220836
 20
176.11252022135471
 30
0.0
 11
125.7555061220836
 21
155.11252022135471
 31
0.0
  0
LINE
  5
F98
  8
0
 10
125.7555061220833
 20
158.6125202213546
 30
0.0
 11
150.7555061220834
 21
158.6125202213546
 31
0.0
  0
LINE
  5
F9A
  8
0
 10
125.7555061220833
 20
168.86252022135471
 30
0.0
 11
135.7555061220834
 21
168.86252022135471
 31
0.0
  0
LINE
  5
F9B
  8
0
 10
135.7555061220834
 20
162.3625202213546
 30
0.0
 11
125.7555061220833
 21
162.3625202213546
 31
0.0
  0
LINE
  5
F9D
  8
0
 10
131.7555061220834
 20
157.61252022135471
 30
0.0
 11
119.7555061220834
 21
157.61252022135471
 31
0.0
  0
LINE
  5
F9F
  8
0
 10
119.7555061220834
 20
158.6125202213546
 30
0.0
 11
119.7555061220834
 21
157.61252022135471
 31
0.0
  0
ARC
  5
FA0
  8
0
 10
125.7555061220834
 20
165.61252022135471
 30
0.0
 40
7.9999999999999929
 50
155.9439961754216
 51
204.09827580527269
  0
LINE
  5
FA1
  8
0
 10
119.7555061220834
 20
168.86252022135471
 30
0.0
 11
119.7555061220834
 21
162.3625202213546
 31
0.0
  0
LINE
  5
FA2
  8
0
 10
131.7555061220834
 20
157.61252022135471
 30
0.0
 11
131.7555061220834
 21
158.6125202213546
 31
0.0
  0
LINE
  5
FA3
  8
0
 10
135.7555061220834
 20
168.86252022135471
 30
0.0
 11
135.7555061220834
 21
162.3625202213546
 31
0.0
  0
ARC
  5
FA4
  8
0
 10
125.7555061220834
 20
165.61252022135471
 30
0.0
 40
8.0000000000000142
 50
336.03051768224032
 51
23.96948231775924
  0
LINE
  5
FA5
  8
0
 10
131.7555061220834
 20
162.3625202213546
 30
0.0
 11
131.7555061220834
 21
168.86252022135471
 31
0.0
  0
LINE
  5
FA6
  8
0
 10
125.7555061220833
 20
172.61252022135471
 30
0.0
 11
150.7555061220834
 21
172.61252022135471
 31
0.0
  0
LINE
  5
FA7
  8
0
 10
127.7555061220834
 20
156.1125202213546
 30
0.0
 11
123.7555061220834
 21
156.1125202213546
 31
0.0
  0
LINE
  5
FA8
  8
0
 10
131.7555061220834
 20
173.61252022135471
 30
0.0
 11
119.7555061220834
 21
173.61252022135471
 31
0.0
  0
LINE
  5
FA9
  8
0
 10
119.7555061220834
 20
173.61252022135471
 30
0.0
 11
119.7555061220834
 21
172.61252022135471
 31
0.0
  0
LINE
  5
FAA
  8
0
 10
123.7555061220834
 20
156.1125202213546
 30
0.0
 11
123.7555061220834
 21
157.6125202213546
 31
0.0
  0
LINE
  5
FAB
  8
0
 10
127.7555061220834
 20
157.6125202213546
 30
0.0
 11
127.7555061220834
 21
156.1125202213546
 31
0.0
  0
LINE
  5
FAC
  8
0
 10
131.7555061220834
 20
172.61252022135471
 30
0.0
 11
131.7555061220834
 21
173.61252022135471
 31
0.0
  0
ARC
  5
FAD
  8
0
 10
179.25550612208369
 20
165.61252022135471
 30
0.0
 40
9.5000000000000213
 50
269.72649836284143
 51
90.273501637159427
  0
ARC
  5
FAE
  8
0
 10
157.75550612208389
 20
74.412520221359529
 30
0.0
 40
84.199999999995143
 50
76.734970769722494
 51
90.000000000000384
  0
POLYLINE
  5
FAF
  8
0
 66
     1
 10
0.0
 20
0.0
 30
0.0
 70
   128
  0
VERTEX
  5
1BC9
  8
0
 10
177.0756768798208
 20
156.3659887378968
 30
0.0
  0
VERTEX
  5
1BCA
  8
0
 10
178.1298514194155
 20
156.17944535202591
 30
0.0
  0
VERTEX
  5
1BCB
  8
0
 10
179.2101580055625
 20
156.1126284562697
 30
0.0
  0
SEQEND
  5
1BCC
  8
0
  0
ARC
  5
FB0
  8
0
 10
157.75550612208431
 20
256.81252022134748
 30
0.0
 40
84.199999999992826
 50
270.0
 51
283.26502923027829
  0
POLYLINE
  5
FB1
  8
0
 66
     1
 10
0.0
 20
0.0
 30
0.0
 70
   128
  0
VERTEX
  5
1BCD
  8
0
 10
177.0756768798208
 20
174.85905170481249
 30
0.0
  0
VERTEX
  5
1BCE
  8
0
 10
178.1298514194155
 20
175.04559509068341
 30
0.0
  0
VERTEX
  5
1BCF
  8
0
 10
179.2101580055625
 20
175.1124119864395
 30
0.0
  0
SEQEND
  5
1BD0
  8
0
  0
LINE
  5
FB2
  8
1
 10
202.7555061220836
 20
116.7260202213546
 30
0.0
 11
223.7555061220836
 21
116.7260202213547
 31
0.0
  0
POLYLINE
  5
FB3
  8
0
 66
     1
 10
0.0
 20
0.0
 30
0.0
 70
   128
  0
VERTEX
  5
1BD1
  8
0
 10
203.86832875266779
 20
116.3926868880213
 30
0.0
  0
VERTEX
  5
1BD2
  8
0
 10
203.93004149490801
 20
116.1772532954094
 30
0.0
  0
VERTEX
  5
1BD3
  8
0
 10
204.10890838174899
 20
115.826873945984
 30
0.0
  0
VERTEX
  5
1BD4
  8
0
 10
204.22926083402251
 20
115.69526763166211
 30
0.0
  0
VERTEX
  5
1BD5
  8
0
 10
204.36431659231809
 20
115.59841479225641
 30
0.0
  0
VERTEX
  5
1BD6
  8
0
 10
204.69576622727561
 20
115.4891090225349
 30
0.0
  0
VERTEX
  5
1BD7
  8
0
 10
204.8919398558896
 20
115.47602310944021
 30
0.0
  0
VERTEX
  5
1BD8
  8
0
 10
205.1076926151118
 20
115.4895111227855
 30
0.0
  0
VERTEX
  5
1BD9
  8
0
 10
205.59374266731641
 20
115.5905797743268
 30
0.0
  0
VERTEX
  5
1BDA
  8
0
 10
205.8619043977786
 20
115.6748002777952
 30
0.0
  0
VERTEX
  5
1BDB
  8
0
 10
206.29335824163689
 20
115.838495326111
 30
0.0
  0
VERTEX
  5
1BDC
  8
0
 10
207.2491401733389
 20
116.2782699078909
 30
0.0
  0
VERTEX
  5
1BDD
  8
0
 10
207.767713866945
 20
116.5423483082982
 30
0.0
  0
VERTEX
  5
1BDE
  8
0
 10
208.48732082864521
 20
116.9218830785051
 30
0.0
  0
VERTEX
  5
1BDF
  8
0
 10
209.24364459461989
 20
117.32266786606399
 30
0.0
  0
VERTEX
  5
1BE0
  8
0
 10
210.04845037203901
 20
117.7331913862436
 30
0.0
  0
VERTEX
  5
1BE1
  8
0
 10
210.89676905302619
 20
118.1235978702029
 30
0.0
  0
VERTEX
  5
1BE2
  8
0
 10
211.30218917546989
 20
118.2855530586442
 30
0.0
  0
VERTEX
  5
1BE3
  8
0
 10
212.1538369358023
 20
118.5497410929073
 30
0.0
  0
VERTEX
  5
1BE4
  8
0
 10
212.60197498812431
 20
118.6362443566146
 30
0.0
  0
VERTEX
  5
1BE5
  8
0
 10
212.92661785471441
 20
118.67234600445791
 30
0.0
  0
VERTEX
  5
1BE6
  8
0
 10
213.25550612208369
 20
118.6847323738768
 30
0.0
  0
VERTEX
  5
1BE7
  8
0
 10
213.7261334910331
 20
118.65944747321019
 30
0.0
  0
VERTEX
  5
1BE8
  8
0
 10
214.67209285983211
 20
118.4658760243145
 30
0.0
  0
VERTEX
  5
1BE9
  8
0
 10
215.13801559788101
 20
118.3117437202993
 30
0.0
  0
VERTEX
  5
1BEA
  8
0
 10
215.86030286375291
 20
118.0165868445366
 30
0.0
  0
VERTEX
  5
1BEB
  8
0
 10
216.55880395471399
 20
117.68564297460929
 30
0.0
  0
VERTEX
  5
1BEC
  8
0
 10
217.2435042827405
 20
117.33517200541461
 30
0.0
  0
VERTEX
  5
1BED
  8
0
 10
217.90748697483161
 20
116.9837199992085
 30
0.0
  0
VERTEX
  5
1BEE
  8
0
 10
218.58597989675849
 20
116.6244387150078
 30
0.0
  0
VERTEX
  5
1BEF
  8
0
 10
219.24008300057099
 20
116.2891093703623
 30
0.0
  0
VERTEX
  5
1BF0
  8
0
 10
219.87671172905729
 20
115.9857777179916
 30
0.0
  0
VERTEX
  5
1BF1
  8
0
 10
220.47836117590671
 20
115.7359824126379
 30
0.0
  0
VERTEX
  5
1BF2
  8
0
 10
220.7863133114945
 20
115.629709565071
 30
0.0
  0
VERTEX
  5
1BF3
  8
0
 10
221.35614129655659
 20
115.4955288414874
 30
0.0
  0
VERTEX
  5
1BF4
  8
0
 10
221.61334121892381
 20
115.4760442527509
 30
0.0
  0
VERTEX
  5
1BF5
  8
0
 10
221.8395139841405
 20
115.4928559535106
 30
0.0
  0
VERTEX
  5
1BF6
  8
0
 10
222.22350773826579
 20
115.6482301213473
 30
0.0
  0
VERTEX
  5
1BF7
  8
0
 10
222.37716245398931
 20
115.79495418798921
 30
0.0
  0
VERTEX
  5
1BF8
  8
0
 10
222.4603448527167
 20
115.913799743788
 30
0.0
  0
VERTEX
  5
1BF9
  8
0
 10
222.59283911270589
 20
116.2125980641236
 30
0.0
  0
VERTEX
  5
1BFA
  8
0
 10
222.64268349149981
 20
116.3926868880214
 30
0.0
  0
SEQEND
  5
1BFB
  8
0
  0
POLYLINE
  5
FB4
  8
0
 66
     1
 10
0.0
 20
0.0
 30
0.0
 70
   128
  0
VERTEX
  5
1BFC
  8
0
 10
222.75294885247041
 20
128.3396605737359
 30
0.0
  0
VERTEX
  5
1BFD
  8
0
 10
222.69490813323719
 20
128.46520267337721
 30
0.0
  0
VERTEX
  5
1BFE
  8
0
 10
222.613240860812
 20
128.47490111854191
 30
0.0
  0
VERTEX
  5
1BFF
  8
0
 10
222.49557750474941
 20
128.44656192353941
 30
0.0
  0
VERTEX
  5
1C00
  8
0
 10
222.17385295611459
 20
128.28903214464449
 30
0.0
  0
VERTEX
  5
1C01
  8
0
 10
221.73074949502021
 20
128.00443200481629
 30
0.0
  0
VERTEX
  5
1C02
  8
0
 10
221.39307933470201
 20
127.76551244111771
 30
0.0
  0
VERTEX
  5
1C03
  8
0
 10
221.01648308372799
 20
127.4872890811433
 30
0.0
  0
VERTEX
  5
1C04
  8
0
 10
220.59877296032761
 20
127.1701144472331
 30
0.0
  0
VERTEX
  5
1C05
  8
0
 10
220.148920656299
 20
126.822903613392
 30
0.0
  0
VERTEX
  5
1C06
  8
0
 10
219.83829593553449
 20
126.5814642379105
 30
0.0
  0
VERTEX
  5
1C07
  8
0
 10
218.83908104401959
 20
125.8056113138886
 30
0.0
  0
VERTEX
  5
1C08
  8
0
 10
218.1099110610094
 20
125.249867690521
 30
0.0
  0
VERTEX
  5
1C09
  8
0
 10
217.3391600986954
 20
124.6833311266474
 30
0.0
  0
VERTEX
  5
1C0A
  8
0
 10
216.4698684362001
 20
124.0871228087685
 30
0.0
  0
VERTEX
  5
1C0B
  8
0
 10
215.53814327679351
 20
123.529258542854
 30
0.0
  0
VERTEX
  5
1C0C
  8
0
 10
215.0368817626408
 20
123.2802248763867
 30
0.0
  0
VERTEX
  5
1C0D
  8
0
 10
214.13910258614061
 20
122.96051344080389
 30
0.0
  0
VERTEX
  5
1C0E
  8
0
 10
213.25550612208369
 20
122.84830154462379
 30
0.0
  0
VERTEX
  5
1C0F
  8
0
 10
212.5377150026718
 20
122.9228416412458
 30
0.0
  0
VERTEX
  5
1C10
  8
0
 10
211.82744676205141
 20
123.1328398939184
 30
0.0
  0
VERTEX
  5
1C11
  8
0
 10
211.2907593231422
 20
123.36630917234589
 30
0.0
  0
VERTEX
  5
1C12
  8
0
 10
210.7704113470393
 20
123.64116801680311
 30
0.0
  0
VERTEX
  5
1C13
  8
0
 10
210.26810979914339
 20
123.9419660453613
 30
0.0
  0
VERTEX
  5
1C14
  8
0
 10
209.77898796656589
 20
124.26079211625751
 30
0.0
  0
VERTEX
  5
1C15
  8
0
 10
209.35156591396341
 20
124.5556614198738
 30
0.0
  0
VERTEX
  5
1C16
  8
0
 10
208.3229088081037
 20
125.3087269111068
 30
0.0
  0
VERTEX
  5
1C17
  8
0
 10
207.73263411594169
 20
125.75885187904581
 30
0.0
  0
VERTEX
  5
1C18
  8
0
 10
207.34676058501049
 20
126.0571279808309
 30
0.0
  0
VERTEX
  5
1C19
  8
0
 10
206.60827085879001
 20
126.6316144327353
 30
0.0
  0
VERTEX
  5
1C1A
  8
0
 10
206.15968882083121
 20
126.9796199547425
 30
0.0
  0
VERTEX
  5
1C1B
  8
0
 10
205.73489136629539
 20
127.3055948299391
 30
0.0
  0
VERTEX
  5
1C1C
  8
0
 10
205.3329256078099
 20
127.6078267327387
 30
0.0
  0
VERTEX
  5
1C1D
  8
0
 10
204.96334412611171
 20
127.8764733062291
 30
0.0
  0
VERTEX
  5
1C1E
  8
0
 10
204.7011198578783
 20
128.058295895909
 30
0.0
  0
VERTEX
  5
1C1F
  8
0
 10
204.46349180476301
 20
128.21286124990351
 30
0.0
  0
VERTEX
  5
1C20
  8
0
 10
204.2552972841647
 20
128.33520970022181
 30
0.0
  0
VERTEX
  5
1C21
  8
0
 10
204.078584742788
 20
128.4220379866901
 30
0.0
  0
VERTEX
  5
1C22
  8
0
 10
203.9383104964775
 20
128.4686168081833
 30
0.0
  0
VERTEX
  5
1C23
  8
0
 10
203.8356748861344
 20
128.4717808444818
 30
0.0
  0
VERTEX
  5
1C24
  8
0
 10
203.77436374164171
 20
128.42805555896069
 30
0.0
  0
VERTEX
  5
1C25
  8
0
 10
203.75693417050019
 20
128.34095852948309
 30
0.0
  0
SEQEND
  5
1C26
  8
0
  0
LINE
  5
FB6
  8
0
 10
221.2555061220836
 20
105.7490202213547
 30
0.0
 11
205.2555061220836
 21
105.7490202213546
 31
0.0
  0
LINE
  5
FB7
  8
0
 10
221.2555061220836
 20
102.7490202213547
 30
0.0
 11
205.2555061220836
 21
102.7490202213547
 31
0.0
  0
LINE
  5
FB8
  8
0
 10
221.62156910078221
 20
115.4760202213547
 30
0.0
 11
204.889070150723
 21
115.4760202213547
 31
0.0
  0
LINE
  5
FB9
  8
0
 10
203.8798835726403
 20
128.47602022135459
 30
0.0
 11
222.63311148721189
 21
128.4760202213547
 31
0.0
  0
LINE
  5
FBA
  8
1
 10
213.25550612208369
 20
77.749020221354684
 30
0.0
 11
213.2555061220836
 21
133.4760202213547
 31
0.0
  0
LINE
  5
FBB
  8
0
 10
222.75550612208369
 20
128.3396605737359
 30
0.0
 11
222.75550612208369
 21
117.2572115802616
 31
0.0
  0
LINE
  5
FBC
  8
0
 10
221.2555061220836
 20
105.7490202213547
 30
0.0
 11
221.2555061220836
 21
102.7490202213547
 31
0.0
  0
LINE
  5
FBD
  8
0
 10
221.2555061220836
 20
110.7260202213547
 30
0.0
 11
220.2555061220836
 21
110.7260202213547
 31
0.0
  0
LINE
  5
FBE
  8
0
 10
221.2555061220836
 20
110.7260202213547
 30
0.0
 11
221.2555061220836
 21
115.4760202213547
 31
0.0
  0
ARC
  5
FBF
  8
0
 10
220.53598696027831
 20
117.10070245862779
 30
0.0
 40
2.222488767774518
 50
341.42360621010351
 51
4.0381487773172253
  0
LINE
  5
FC0
  8
0
 10
220.2555061220836
 20
115.4760202213547
 30
0.0
 11
220.2555061220836
 21
105.76273173864691
 31
0.0
  0
LINE
  5
FC1
  8
0
 10
216.5055061220836
 20
105.76273173864691
 30
0.0
 11
216.50550612208369
 21
115.4760202213547
 31
0.0
  0
LINE
  5
FC3
  8
0
 10
216.5055061220836
 20
112.94141743907311
 30
0.0
 11
220.2555061220836
 21
112.94141743907311
 31
0.0
  0
LINE
  5
FC4
  8
0
 10
203.7555061220836
 20
117.2572115802616
 30
0.0
 11
203.75550612208369
 21
128.34095852948309
 31
0.0
  0
LINE
  5
FC5
  8
0
 10
205.2555061220836
 20
102.7490202213547
 30
0.0
 11
205.2555061220836
 21
105.7490202213546
 31
0.0
  0
LINE
  5
FC6
  8
0
 10
206.2555061220836
 20
115.4760202213547
 30
0.0
 11
206.2555061220836
 21
105.76273173864691
 31
0.0
  0
LINE
  5
FC7
  8
0
 10
210.00550612208369
 20
115.4760202213547
 30
0.0
 11
210.0055061220836
 21
105.76273173864691
 31
0.0
  0
LINE
  5
FC8
  8
0
 10
205.2555061220836
 20
110.7260202213546
 30
0.0
 11
205.2555061220836
 21
115.4760202213547
 31
0.0
  0
LINE
  5
FC9
  8
0
 10
206.2555061220836
 20
110.7260202213546
 30
0.0
 11
205.2555061220836
 21
110.7260202213546
 31
0.0
  0
LINE
  5
FCB
  8
0
 10
206.2555061220836
 20
112.94141743907301
 30
0.0
 11
210.0055061220836
 21
112.94141743907301
 31
0.0
  0
ARC
  5
FCC
  8
0
 10
205.975025283462
 20
117.1007024585769
 30
0.0
 40
2.222488767352917
 50
175.9618512202787
 51
198.576393792121
  0
LINE
  5
FCD
  8
0
 10
203.7555061220836
 20
116.7260202213546
 30
0.0
 11
203.7555061220836
 21
117.2572115802616
 31
0.0
  0
LINE
  5
FCE
  8
0
 10
203.7555061220836
 20
114.7260202213546
 30
0.0
 11
203.7555061220836
 21
116.7260202213546
 31
0.0
  0
LINE
  5
FCF
  8
0
 10
205.2555061220836
 20
114.7260202213546
 30
0.0
 11
203.7555061220836
 21
114.7260202213546
 31
0.0
  0
TEXT
  5
1099
  8
0
 62
     3
 10
0.0
 20
0.0
 30
0.0
 40
10.0
  1
QLCA-06X20
  7
STANDARD1
  0
LINE
  5
1601
  8
0
 10
125.7555061220837
 20
115.5713193511546
 30
0.0
 11
126.7555061694836
 21
116.14866949835471
 31
0.0
  0
LINE
  5
1602
  8
0
 10
126.7555061694836
 20
117.3033707237546
 30
0.0
 11
125.7555061220837
 21
117.8807208707546
 31
0.0
  0
LINE
  5
1603
  8
0
 10
124.75550607448361
 20
116.14866949835471
 30
0.0
 11
125.7555061220837
 21
115.5713193511546
 31
0.0
  0
LINE
  5
1604
  8
0
 10
126.7555061694836
 20
116.14866949835471
 30
0.0
 11
126.7555061694836
 21
117.3033707237546
 31
0.0
  0
LINE
  5
1605
  8
0
 10
125.7555061220837
 20
117.8807208707546
 30
0.0
 11
124.75550607448361
 21
117.3033707237546
 31
0.0
  0
CIRCLE
  5
1606
  8
0
 10
125.7555061220837
 20
116.7260202213547
 30
0.0
 40
2.0
  0
LINE
  5
1607
  8
0
 10
124.75550607448361
 20
117.3033707237546
 30
0.0
 11
124.75550607448361
 21
116.14866949835471
 31
0.0
  0
LINE
  5
1770
  8
0
 10
90.255506096083636
 20
102.7490202213547
 30
0.0
 11
90.255506096083636
 21
83.749020385154694
 31
0.0
  0
LINE
  5
1771
  8
0
 10
96.255506148083768
 20
83.749020385154694
 30
0.0
 11
96.255506148083768
 21
102.7490202213547
 31
0.0
  0
LINE
  5
1773
  8
0
 10
90.255506096083636
 20
124.2490205043547
 30
0.0
 11
90.255506096083622
 21
122.29777133313191
 31
0.0
  0
LINE
  5
1774
  8
0
 10
90.255506096083636
 20
111.18918414492479
 30
0.0
 11
90.255506096083636
 21
110.74902015415471
 31
0.0
  0
LINE
  5
1775
  8
0
 10
96.255506148083768
 20
110.74902015415471
 30
0.0
 11
96.255506148083768
 21
111.1904482092252
 31
0.0
  0
LINE
  5
1776
  8
0
 10
96.255506148083768
 20
122.2969575456242
 30
0.0
 11
96.255506148083768
 21
124.2490205043547
 31
0.0
  0
LINE
  5
1777
  8
0
 10
90.255506096083636
 20
83.749020385154694
 30
0.0
 11
91.255506027083683
 21
82.749020221354684
 31
0.0
  0
LINE
  5
1778
  8
0
 10
95.25550621708372
 20
82.749020221354684
 30
0.0
 11
96.255506148083768
 21
83.749020385154694
 31
0.0
  0
LINE
  5
1779
  8
0
 10
90.755506177883717
 20
124.74901965495469
 30
0.0
 11
90.255506096083636
 21
124.2490205043547
 31
0.0
  0
LINE
  5
177A
  8
0
 10
96.255506148083768
 20
124.2490205043547
 30
0.0
 11
95.755506066283701
 21
124.74901965495469
 31
0.0
  0
LINE
  5
177B
  8
0
 10
90.455506221883738
 20
110.74902015415471
 30
0.0
 11
90.455506221883738
 21
108.2490202101547
 31
0.0
  0
LINE
  5
177C
  8
0
 10
96.055506022283666
 20
108.2490202101547
 30
0.0
 11
96.055506022283666
 21
110.74902015415471
 31
0.0
  0
LINE
  5
177D
  8
0
 10
90.60550619988372
 20
108.2490202101547
 30
0.0
 11
90.60550619988372
 21
105.74902003315469
 31
0.0
  0
LINE
  5
177E
  8
0
 10
95.905506044283683
 20
105.74902003315469
 30
0.0
 11
95.905506044283683
 21
108.2490202101547
 31
0.0
  0
LINE
  5
17F4
  8
0
 10
90.255506096083636
 20
83.749020385154694
 30
0.0
 11
96.255506148083768
 21
83.749020385154694
 31
0.0
  0
LINE
  5
17F5
  8
0
 10
90.255506096083636
 20
110.74902015415471
 30
0.0
 11
96.255506148083768
 21
110.74902015415471
 31
0.0
  0
LINE
  5
17F6
  8
0
 10
96.255506148083825
 20
124.2490205043547
 30
0.0
 11
90.255506096083636
 21
124.2490205043547
 31
0.0
  0
LINE
  5
17FB
  8
0
 10
95.25550621708372
 20
82.749020221354684
 30
0.0
 11
91.255506027083683
 21
82.749020221354684
 31
0.0
  0
LINE
  5
17FC
  8
0
 10
90.755506177883717
 20
124.74901965495469
 30
0.0
 11
95.755506066283701
 21
124.74901965495469
 31
0.0
  0
LINE
  5
1800
  8
0
 10
90.455506221883738
 20
108.2490202101547
 30
0.0
 11
96.055506022283666
 21
108.2490202101547
 31
0.0
  0
ARC
  5
1807
  8
0
 10
93.257387825683679
 20
102.25813311835471
 30
0.0
 40
9.4220468242152737
 50
69.834321336700057
 51
110.1900604674981
  0
ARC
  5
1808
  8
0
 10
93.256718999683642
 20
131.2398286505547
 30
0.0
 40
9.4322673817491491
 50
249.8370962120008
 51
290.14720748829927
  0
ARC
  5
18BE
  8
0
 10
125.7555061220837
 20
165.61252022135471
 30
0.0
 40
2.5000000000000151
 50
102.7090329944004
 51
257.29096700559961
  0
LINE
  5
18C1
  8
0
 10
125.2055061250836
 20
168.5616725959546
 30
0.0
 11
125.2055061250836
 21
162.66336780018349
 31
0.0
  0
ARC
  5
18C3
  8
0
 10
125.7555061220837
 20
165.61252022135471
 30
0.0
 40
2.5000000000000391
 50
282.70903299440039
 51
77.290967005599612
  0
LINE
  5
18C4
  8
0
 10
126.30550611928371
 20
162.66336780022081
 30
0.0
 11
126.30550611928371
 21
168.5616725959546
 31
0.0
  0
CIRCLE
  5
198C
  8
0
 10
125.7555061220836
 20
45.612520221354693
 30
0.0
 40
3.0
  0
CIRCLE
  5
198D
  8
0
 10
125.7555061220836
 20
45.612520221354693
 30
0.0
 40
2.0000000000000551
  0
CIRCLE
  5
1A38
  8
0
 10
125.7555061220837
 20
165.61252022135471
 30
0.0
 40
2.9999999542181199
  0
LINE
  5
1A42
  8
3
 10
95.714006148083854
 20
83.207520259093599
 30
0.0
 11
95.714006148083868
 21
102.7490202213547
 31
0.0
  0
LINE
  5
1A43
  8
3
 10
90.797006148083696
 20
83.207520207093438
 30
0.0
 11
90.797006148083682
 21
102.7490202213547
 31
0.0
  0
LINE
  5
1A46
  8
3
 10
95.71400614808384
 20
110.74902015415471
 30
0.0
 11
95.71400614808384
 21
111.3542857542636
 31
0.0
  0
LINE
  5
1A47
  8
3
 10
90.797006148083653
 20
110.74902015415471
 30
0.0
 11
90.797006148083653
 21
111.3532685411087
 31
0.0
  0
LINE
  5
1A48
  8
3
 10
90.797006148083639
 20
122.1339250354002
 30
0.0
 11
90.797006148083639
 21
124.74901965495469
 31
0.0
  0
LINE
  5
1A49
  8
3
 10
95.71400614808384
 20
122.13327014412
 30
0.0
 11
95.71400614808384
 21
124.74901965495469
 31
0.0
  0
CIRCLE
  5
1A4E
  8
3
 10
125.7555061220836
 20
45.612520221354693
 30
0.0
 40
2.4585000260001522
  0
ARC
  5
1A53
  8
3
 10
125.7555061220837
 20
165.61252022135471
 30
0.0
 40
2.4585000260001522
 50
102.92724727311101
 51
257.07275272688901
  0
ARC
  5
1A54
  8
3
 10
125.7555061220837
 20
165.61252022135471
 30
0.0
 40
2.4585000260001522
 50
282.92724727789232
 51
77.07275272210768
  0
LINE
  5
1A55
  8
0
 10
122.75550609608359
 20
102.7490202213547
 30
0.0
 11
122.75550609608359
 21
83.74902038515468
 31
0.0
  0
LINE
  5
1A56
  8
0
 10
128.7555061480837
 20
83.74902038515468
 30
0.0
 11
128.7555061480837
 21
102.7490202213547
 31
0.0
  0
LINE
  5
1A57
  8
0
 10
122.75550609608359
 20
83.74902038515468
 30
0.0
 11
123.7555060270837
 21
82.749020221354684
 31
0.0
  0
LINE
  5
1A58
  8
0
 10
127.75550621708371
 20
82.749020221354684
 30
0.0
 11
128.7555061480837
 21
83.74902038515468
 31
0.0
  0
LINE
  5
1A59
  8
0
 10
122.75550609608359
 20
83.74902038515468
 30
0.0
 11
128.7555061480837
 21
83.74902038515468
 31
0.0
  0
LINE
  5
1A5A
  8
0
 10
127.75550621708371
 20
82.749020221354684
 30
0.0
 11
123.7555060270837
 21
82.749020221354684
 31
0.0
  0
LINE
  5
1A5B
  8
3
 10
128.2140061480838
 20
83.207520259093585
 30
0.0
 11
128.21400614808391
 21
102.7490202213547
 31
0.0
  0
LINE
  5
1A5C
  8
3
 10
123.2970061480837
 20
83.207520207093424
 30
0.0
 11
123.2970061480837
 21
102.7490202213547
 31
0.0
  0
LINE
  5
1A5D
  8
0
 10
210.25550609608359
 20
102.7490202213547
 30
0.0
 11
210.25550609608351
 21
83.74902038515468
 31
0.0
  0
LINE
  5
1A5E
  8
0
 10
216.2555061480837
 20
83.74902038515468
 30
0.0
 11
216.2555061480837
 21
102.7490202213547
 31
0.0
  0
LINE
  5
1A5F
  8
0
 10
210.25550609608351
 20
111.18918414492479
 30
0.0
 11
210.25550609608351
 21
110.74902015415471
 31
0.0
  0
LINE
  5
1A60
  8
0
 10
216.2555061480837
 20
110.74902015415471
 30
0.0
 11
216.2555061480837
 21
111.1904482092252
 31
0.0
  0
LINE
  5
1A61
  8
0
 10
210.25550609608351
 20
83.74902038515468
 30
0.0
 11
211.25550602708361
 21
82.749020221354684
 31
0.0
  0
LINE
  5
1A62
  8
0
 10
215.25550621708359
 20
82.749020221354684
 30
0.0
 11
216.2555061480837
 21
83.74902038515468
 31
0.0
  0
LINE
  5
1A63
  8
0
 10
210.45550622188361
 20
110.74902015415471
 30
0.0
 11
210.45550622188361
 21
108.2490202101547
 31
0.0
  0
LINE
  5
1A64
  8
0
 10
216.05550602228359
 20
108.2490202101547
 30
0.0
 11
216.05550602228359
 21
110.74902015415471
 31
0.0
  0
LINE
  5
1A65
  8
0
 10
210.60550619988359
 20
108.2490202101547
 30
0.0
 11
210.60550619988359
 21
105.74902003315469
 31
0.0
  0
LINE
  5
1A66
  8
0
 10
215.90550604428361
 20
105.74902003315469
 30
0.0
 11
215.90550604428361
 21
108.2490202101547
 31
0.0
  0
LINE
  5
1A67
  8
0
 10
210.25550609608351
 20
83.74902038515468
 30
0.0
 11
216.2555061480837
 21
83.74902038515468
 31
0.0
  0
LINE
  5
1A68
  8
0
 10
210.25550609608351
 20
110.74902015415471
 30
0.0
 11
216.2555061480837
 21
110.74902015415471
 31
0.0
  0
LINE
  5
1A69
  8
0
 10
215.25550621708359
 20
82.749020221354684
 30
0.0
 11
211.25550602708361
 21
82.749020221354684
 31
0.0
  0
LINE
  5
1A6A
  8
0
 10
210.45550622188361
 20
108.2490202101547
 30
0.0
 11
216.05550602228359
 21
108.2490202101547
 31
0.0
  0
ARC
  5
1A6B
  8
0
 10
213.25738782568359
 20
102.25813311835461
 30
0.0
 40
9.4220468242152737
 50
69.834321336700015
 51
110.190060467498
  0
LINE
  5
1A6C
  8
3
 10
215.7140061480838
 20
83.207520259093585
 30
0.0
 11
215.7140061480838
 21
102.7490202213547
 31
0.0
  0
LINE
  5
1A6D
  8
3
 10
215.71400614808371
 20
110.74902015415471
 30
0.0
 11
215.71400614808371
 21
111.3542857542636
 31
0.0
  0
LINE
  5
1A6E
  8
3
 10
210.7970061480836
 20
83.207520207093424
 30
0.0
 11
210.7970061480836
 21
102.7490202213547
 31
0.0
  0
LINE
  5
1A6F
  8
3
 10
210.7970061480836
 20
110.74902015415471
 30
0.0
 11
210.7970061480836
 21
111.3532685411087
 31
0.0
  0
ENDSEC
  0
EOF
