  0
SECTION
  2
HEADER
  9
$ACADVER
  1
AC1009
  9
$INSBASE
 10
0.0
 20
0.0
 30
0.0
  9
$EXTMIN
 10
0.0
 20
-2.960436562073669
 30
0.0
  9
$EXTMAX
 10
185.82310139142879
 20
169.14726476226991
 30
0.0
  9
$LIMMIN
 10
0.0
 20
0.0
  9
$LIMMAX
 10
770.0
 20
540.0
  9
$ORTHOMODE
 70
     1
  9
$REGENMODE
 70
     1
  9
$FILLMODE
 70
     1
  9
$QTEXTMODE
 70
     0
  9
$MIRRTEXT
 70
     0
  9
$DRAGMODE
 70
     2
  9
$LTSCALE
 40
5.0
  9
$OSMODE
 70
    37
  9
$ATTMODE
 70
     1
  9
$TEXTSIZE
 40
4.000000000000048
  9
$TRACEWID
 40
0.05
  9
$TEXTSTYLE
  7
STANDARD
  9
$CLAYER
  8
0
  9
$CELTYPE
  6
BYLAYER
  9
$CECOLOR
 62
   256
  9
$DIMSCALE
 40
1.0
  9
$DIMASZ
 40
3.0
  9
$DIMEXO
 40
2.0
  9
$DIMDLI
 40
0.38
  9
$DIMRND
 40
0.0
  9
$DIMDLE
 40
0.0
  9
$DIMEXE
 40
2.0
  9
$DIMTP
 40
0.0
  9
$DIMTM
 40
0.0
  9
$DIMTXT
 40
3.0
  9
$DIMCEN
 40
0.0
  9
$DIMTSZ
 40
0.0
  9
$DIMTOL
 70
     0
  9
$DIMLIM
 70
     0
  9
$DIMTIH
 70
     0
  9
$DIMTOH
 70
     0
  9
$DIMSE1
 70
     0
  9
$DIMSE2
 70
     0
  9
$DIMTAD
 70
     1
  9
$DIMZIN
 70
     0
  9
$DIMBLK
  1

  9
$DIMASO
 70
     0
  9
$DIMSHO
 70
     0
  9
$DIMPOST
  1

  9
$DIMAPOST
  1

  9
$DIMALT
 70
     0
  9
$DIMALTD
 70
     2
  9
$DIMALTF
 40
25.399999999999999
  9
$DIMLFAC
 40
1.0
  9
$DIMTOFL
 70
     0
  9
$DIMTVP
 40
1.6000000000000001
  9
$DIMTIX
 70
     1
  9
$DIMSOXD
 70
     0
  9
$DIMSAH
 70
     0
  9
$DIMBLK1
  1

  9
$DIMBLK2
  1

  9
$DIMSTYLE
  2
STANDARD
  9
$DIMCLRD
 70
     4
  9
$DIMCLRE
 70
     4
  9
$DIMCLRT
 70
     4
  9
$DIMTFAC
 40
1.0
  9
$DIMGAP
 40
0.09
  9
$LUNITS
 70
     2
  9
$LUPREC
 70
     1
  9
$SKETCHINC
 40
0.1
  9
$FILLETRAD
 40
0.0
  9
$AUNITS
 70
     0
  9
$AUPREC
 70
     2
  9
$MENU
  1
E:\r13\win\SUPPORT\ACAD
  9
$ELEVATION
 40
0.0
  9
$PELEVATION
 40
0.0
  9
$THICKNESS
 40
0.0
  9
$LIMCHECK
 70
     0
  9
$BLIPMODE
 70
     0
  9
$CHAMFERA
 40
1.1999999999999991
  9
$CHAMFERB
 40
1.1999999999999991
  9
$SKPOLY
 70
     0
  9
$TDCREATE
 40
2450158.583426042
  9
$TDUPDATE
 40
2457170.4613008681
  9
$TDINDWG
 40
0.1963884722
  9
$TDUSRTIMER
 40
0.1963884722
  9
$USRTIMER
 70
     1
  9
$ANGBASE
 50
0.0
  9
$ANGDIR
 70
     0
  9
$PDMODE
 70
     0
  9
$PDSIZE
 40
0.0
  9
$PLINEWID
 40
0.0
  9
$COORDS
 70
     1
  9
$SPLFRAME
 70
     0
  9
$SPLINETYPE
 70
     6
  9
$SPLINESEGS
 70
     8
  9
$ATTDIA
 70
     0
  9
$ATTREQ
 70
     1
  9
$HANDLING
 70
     1
  9
$HANDSEED
  5
1D60
  9
$SURFTAB1
 70
     6
  9
$SURFTAB2
 70
     6
  9
$SURFTYPE
 70
     6
  9
$SURFU
 70
     6
  9
$SURFV
 70
     6
  9
$UCSNAME
  2

  9
$UCSORG
 10
0.0
 20
0.0
 30
0.0
  9
$UCSXDIR
 10
1.0
 20
0.0
 30
0.0
  9
$UCSYDIR
 10
0.0
 20
1.0
 30
0.0
  9
$PUCSNAME
  2

  9
$PUCSORG
 10
0.0
 20
0.0
 30
0.0
  9
$PUCSXDIR
 10
1.0
 20
0.0
 30
0.0
  9
$PUCSYDIR
 10
0.0
 20
1.0
 30
0.0
  9
$USERI1
 70
     3
  9
$USERI2
 70
     1
  9
$USERI3
 70
     0
  9
$USERI4
 70
     0
  9
$USERI5
 70
     0
  9
$USERR1
 40
2.0
  9
$USERR2
 40
3.0
  9
$USERR3
 40
3.0
  9
$USERR4
 40
3.0
  9
$USERR5
 40
10.0
  9
$WORLDVIEW
 70
     1
  9
$SHADEDGE
 70
     3
  9
$SHADEDIF
 70
    70
  9
$TILEMODE
 70
     1
  9
$MAXACTVP
 70
    16
  9
$PLIMCHECK
 70
     0
  9
$PEXTMIN
 10
1.0000000000000000E+020
 20
1.0000000000000000E+020
 30
1.0000000000000000E+020
  9
$PEXTMAX
 10
-1.0000000000000000E+020
 20
-1.0000000000000000E+020
 30
-1.0000000000000000E+020
  9
$PLIMMIN
 10
0.0
 20
0.0
  9
$PLIMMAX
 10
12.0
 20
9.0
  9
$UNITMODE
 70
     0
  9
$VISRETAIN
 70
     0
  9
$PLINEGEN
 70
     0
  9
$PSLTSCALE
 70
     0
  0
ENDSEC
  0
SECTION
  2
TABLES
  0
TABLE
  2
VPORT
 70
     1
  0
VPORT
  2
*ACTIVE
 70
     0
 10
0.0
 20
0.0
 11
1.0
 21
1.0
 12
245.20271919707079
 22
135.0
 13
0.0
 23
0.0
 14
10.0
 24
10.0
 15
10.0
 25
10.0
 16
0.0
 26
0.0
 36
1.0
 17
0.0
 27
0.0
 37
0.0
 40
270.08960434733228
 41
1.816239316239316
 42
50.0
 43
0.0
 44
0.0
 50
0.0
 51
0.0
 71
     0
 72
   500
 73
     1
 74
     0
 75
     0
 76
     0
 77
     0
 78
     2
  0
ENDTAB
  0
TABLE
  2
LTYPE
 70
     3
  0
LTYPE
  2
CONTINUOUS
 70
     0
  3
Solid Line
 72
    65
 73
     0
 40
0.0
  0
LTYPE
  2
CENTER
 70
     0
  3
____ _ ____ _ ____ _ ____ _ ____ _ ____ _ ____
 72
    65
 73
     4
 40
2.0
 49
1.25
 49
-0.25
 49
0.25
 49
-0.25
  0
LTYPE
  2
PHANTOM2
 70
     0
  3
___ _ _ ___ _ _ ___ _ _ ___ _ _
 72
    65
 73
     6
 40
1.25
 49
0.625
 49
-0.125
 49
0.125
 49
-0.125
 49
0.125
 49
-0.125
  0
ENDTAB
  0
TABLE
  2
LAYER
 70
     3
  0
LAYER
  2
0
 70
     0
 62
     7
  6
CONTINUOUS
  0
LAYER
  2
1
 70
     0
 62
     1
  6
CENTER
  0
LAYER
  2
3
 70
     0
 62
     3
  6
CONTINUOUS
  0
ENDTAB
  0
TABLE
  2
STYLE
 70
     2
  0
STYLE
  2
STANDARD
 70
     0
 40
0.0
 41
1.0
 50
0.0
 71
     0
 42
4.000000000000048
  3
SIMPLEX
  4
BIGFONT
  0
STYLE
  2
STANDARD1
 70
     0
 40
0.0
 41
1.0
 50
0.0
 71
     0
 42
3.0
  3
txt
  4

  0
ENDTAB
  0
TABLE
  2
VIEW
 70
     2
  0
VIEW
  2
ALL
 70
     0
 40
179.5384664489153
 10
146.94997169852391
 20
89.769233224457665
 41
0.0
 11
0.0
 21
0.0
 31
1.0
 12
0.0
 22
0.0
 32
0.0
 42
50.0
 43
0.0
 44
0.0
 50
0.0
 71
     0
  0
VIEW
  2
OLE1
 70
     0
 40
188.9339568015381
 10
152.11711233011641
 20
121.14099651325741
 41
299.24322350554178
 11
0.0
 21
0.0
 31
1.0
 12
0.0
 22
0.0
 32
0.0
 42
50.0
 43
0.0
 44
0.0
 50
0.0
 71
     0
  0
ENDTAB
  0
TABLE
  2
UCS
 70
     0
  0
ENDTAB
  0
TABLE
  2
APPID
 70
     6
  0
APPID
  2
ACAD
 70
     0
  0
APPID
  2
ACAD_MLEADERVER
 70
     0
  0
APPID
  2
ACAD_NAV_VCDISPLAY
 70
     0
  0
APPID
  2
ACAD_EXEMPT_FROM_CAD_STANDARDS
 70
     0
  0
APPID
  2
ACAD_DSTYLE_DIMJAG
 70
     0
  0
APPID
  2
ACAD_DSTYLE_DIMTALN
 70
     0
  0
ENDTAB
  0
TABLE
  2
DIMSTYLE
 70
     1
  0
DIMSTYLE
  2
STANDARD
 70
     0
  3

  4

  5

  6

  7

 40
1.0
 41
0.18
 42
0.0625
 43
0.38
 44
0.18
 45
0.0
 46
0.0
 47
0.0
 48
0.0
140
0.18
141
0.09
142
0.0
143
25.399999999999999
144
1.0
145
0.0
146
1.0
147
0.09
 71
     0
 72
     0
 73
     1
 74
     1
 75
     0
 76
     0
 77
     0
 78
     0
170
     0
171
     2
172
     0
173
     0
174
     0
175
     0
176
     0
177
     0
178
     0
  0
ENDTAB
  0
ENDSEC
  0
SECTION
  2
BLOCKS
  0
BLOCK
  8
0
  2
$MODEL_SPACE
 70
     0
 10
0.0
 20
0.0
 30
0.0
  3
$MODEL_SPACE
  1

  0
ENDBLK
  5
644
  8
0
  0
BLOCK
 67
     1
  8
0
  2
$PAPER_SPACE
 70
     0
 10
0.0
 20
0.0
 30
0.0
  3
$PAPER_SPACE
  1

  0
ENDBLK
  5
642
 67
     1
  8
0
  0
ENDSEC
  0
SECTION
  2
ENTITIES
  0
LINE
  5
D93
  8
1
 10
74.323749999999521
 20
38.000000000000341
 30
0.0
 11
141.32374999999979
 21
38.000000000000369
 31
0.0
  0
LINE
  5
D94
  8
1
 10
74.323749999999549
 20
159.14726476226991
 30
0.0
 11
141.32374999999979
 21
159.14726476226991
 31
0.0
  0
LINE
  5
D95
  8
0
 10
111.3237499999999
 20
32.000000000000199
 30
0.0
 11
89.929301275463885
 21
32.000000000000199
 31
0.0
  0
LINE
  5
D96
  8
0
 10
111.3237499999999
 20
44.000000000000213
 30
0.0
 11
89.929301275463914
 21
44.000000000000213
 31
0.0
  0
LINE
  5
D97
  8
0
 10
92.758489779892173
 20
40.750000000000213
 30
0.0
 11
95.732035449765178
 21
40.750000000000213
 31
0.0
  0
LINE
  5
D98
  8
0
 10
95.732035449765206
 20
35.25000000000022
 30
0.0
 11
92.739043689049097
 21
35.25000000000022
 31
0.0
  0
LINE
  5
D99
  8
0
 10
86.323749999999492
 20
161.8972647622698
 30
0.0
 11
94.823749999999578
 21
161.8972647622698
 31
0.0
  0
LINE
  5
D9A
  8
0
 10
94.823749999999578
 20
156.3972647622698
 30
0.0
 11
86.323749999999492
 21
156.3972647622698
 31
0.0
  0
LINE
  5
D9B
  8
0
 10
77.983692670537707
 20
165.1472647622698
 30
0.0
 11
111.32374999999961
 21
165.1472647622698
 31
0.0
  0
LINE
  5
D9C
  8
0
 10
77.983692670537707
 20
153.1472647622698
 30
0.0
 11
111.32374999999961
 21
153.1472647622698
 31
0.0
  0
LINE
  5
D9D
  8
0
 10
86.323749999999905
 20
126.64750000000031
 30
0.0
 11
106.32375
 21
126.64750000000031
 31
0.0
  0
POLYLINE
  5
D9E
  8
0
 66
     1
 10
0.0
 20
0.0
 30
0.0
 70
   128
  0
VERTEX
  5
1CB7
  8
0
 10
95.732035449765249
 20
116.33834118140059
 30
0.0
  0
VERTEX
  5
1CB8
  8
0
 10
95.253962493954788
 20
115.2239279136641
 30
0.0
  0
VERTEX
  5
1CB9
  8
0
 10
94.644952624911383
 20
114.1847576917534
 30
0.0
  0
VERTEX
  5
1CBA
  8
0
 10
93.917176359193377
 20
113.2349353546167
 30
0.0
  0
VERTEX
  5
1CBB
  8
0
 10
93.083248886405187
 20
112.38800111359519
 30
0.0
  0
VERTEX
  5
1CBC
  8
0
 10
91.893986750885446
 20
111.48095841722881
 30
0.0
  0
VERTEX
  5
1CBD
  8
0
 10
90.588737232038284
 20
110.7770579440563
 30
0.0
  0
VERTEX
  5
1CBE
  8
0
 10
89.201394101387777
 20
110.291264196219
 30
0.0
  0
VERTEX
  5
1CBF
  8
0
 10
87.767639076609584
 20
110.0317994759238
 30
0.0
  0
VERTEX
  5
1CC0
  8
0
 10
86.323750000000075
 20
110.0000000000003
 30
0.0
  0
VERTEX
  5
1CC1
  8
0
 10
84.905865689794638
 20
110.1944653825917
 30
0.0
  0
VERTEX
  5
1CC2
  8
0
 10
83.548029155665418
 20
110.60460850162271
 30
0.0
  0
VERTEX
  5
1CC3
  8
0
 10
82.28322901959632
 20
111.2173684642171
 30
0.0
  0
VERTEX
  5
1CC4
  8
0
 10
81.141040972913714
 20
112.0139370687279
 30
0.0
  0
VERTEX
  5
1CC5
  8
0
 10
80.146730324597314
 20
112.9704803245975
 30
0.0
  0
VERTEX
  5
1CC6
  8
0
 10
79.323597381067955
 20
114.0614249919191
 30
0.0
  0
VERTEX
  5
1CC7
  8
0
 10
78.687256973637034
 20
115.25647627657079
 30
0.0
  0
VERTEX
  5
1CC8
  8
0
 10
78.250926664934283
 20
116.5244041016209
 30
0.0
  0
VERTEX
  5
1CC9
  8
0
 10
78.021611682690263
 20
117.83246502710151
 30
0.0
  0
VERTEX
  5
1CCA
  8
0
 10
77.999999999999972
 20
119.14750000000021
 30
0.0
  0
VERTEX
  5
1CCB
  8
0
 10
78.184277589358103
 20
120.43653020649479
 30
0.0
  0
VERTEX
  5
1CCC
  8
0
 10
78.5642709703381
 20
121.6686726413264
 30
0.0
  0
VERTEX
  5
1CCD
  8
0
 10
79.127567493797841
 20
122.8140574717951
 30
0.0
  0
VERTEX
  5
1CCE
  8
0
 10
79.856576032567105
 20
123.84604728428231
 30
0.0
  0
VERTEX
  5
1CCF
  8
0
 10
80.729209535599608
 20
124.7420404644006
 30
0.0
  0
VERTEX
  5
1CD0
  8
0
 10
81.721836734723041
 20
125.4812636550928
 30
0.0
  0
VERTEX
  5
1CD1
  8
0
 10
82.806689785179401
 20
126.05004399678219
 30
0.0
  0
VERTEX
  5
1CD2
  8
0
 10
83.955202304628969
 20
126.4369108663503
 30
0.0
  0
VERTEX
  5
1CD3
  8
0
 10
85.137569130811926
 20
126.6360761105432
 30
0.0
  0
VERTEX
  5
1CD4
  8
0
 10
86.323749999999905
 20
126.64750000000031
 30
0.0
  0
SEQEND
  5
1CD5
  8
0
  0
LINE
  5
D9F
  8
1
 10
37.999999999999972
 20
73.000000000000341
 30
0.0
 11
37.999999999999972
 21
134.14750000000029
 31
0.0
  0
LINE
  5
DA0
  8
1
 10
86.323749999999578
 20
73.000000000000341
 30
0.0
 11
86.323749999999578
 21
131.64726813459731
 31
0.0
  0
LINE
  5
DA1
  8
1
 10
86.323749999999578
 20
28.500000000000309
 30
0.0
 11
86.323749999999578
 21
48.000000000000313
 31
0.0
  0
LINE
  5
DA2
  8
0
 10
82.776873826434397
 20
44.000000000000213
 30
0.0
 11
78.008530018730823
 21
44.000000000000213
 31
0.0
  0
LINE
  5
DA3
  8
0
 10
78.008530018730823
 20
40.750000000000213
 30
0.0
 11
79.920661028820106
 21
40.750000000000213
 31
0.0
  0
LINE
  5
DA4
  8
0
 10
82.721098972932168
 20
32.000000000000213
 30
0.0
 11
78.008530018730823
 21
32.000000000000213
 31
0.0
  0
LINE
  5
DA5
  8
0
 10
79.910427525825398
 20
35.25000000000022
 30
0.0
 11
78.008530018730823
 21
35.25000000000022
 31
0.0
  0
CIRCLE
  5
DA6
  8
0
 10
86.323749999999919
 20
38.00000000000022
 30
0.0
 40
7.0
  0
LINE
  5
DA7
  8
0
 10
77.983692670538034
 20
35.25000000000022
 30
0.0
 11
77.983692670538034
 21
32.000000000000199
 31
0.0
  0
LINE
  5
DA8
  8
0
 10
77.983692670538034
 20
44.000000000000213
 30
0.0
 11
77.983692670538034
 21
40.750000000000213
 31
0.0
  0
LINE
  5
DAC
  8
0
 10
84.823750000000061
 20
45.500000000000369
 30
0.0
 11
87.823750000000075
 21
45.500000000000313
 31
0.0
  0
LINE
  5
DAD
  8
0
 10
81.323749999999933
 20
31.00000000000021
 30
0.0
 11
91.323749999999919
 21
31.00000000000021
 31
0.0
  0
LINE
  5
DAE
  8
0
 10
81.323749999999919
 20
32.000000000000213
 30
0.0
 11
81.323749999999933
 21
31.00000000000021
 31
0.0
  0
LINE
  5
DAF
  8
0
 10
84.823750000000061
 20
45.000000000000369
 30
0.0
 11
84.823750000000061
 21
45.500000000000369
 31
0.0
  0
LINE
  5
DB0
  8
0
 10
87.823750000000075
 20
45.500000000000313
 30
0.0
 11
87.823750000000075
 21
45.000000000000313
 31
0.0
  0
LINE
  5
DB1
  8
0
 10
91.323749999999919
 20
31.00000000000021
 30
0.0
 11
91.323749999999919
 21
32.000000000000199
 31
0.0
  0
LINE
  5
DB2
  8
0
 10
81.323749999999933
 20
45.000000000000213
 30
0.0
 11
91.323749999999919
 21
45.000000000000213
 31
0.0
  0
LINE
  5
DB3
  8
0
 10
81.323749999999933
 20
45.000000000000213
 30
0.0
 11
81.323749999999919
 21
44.000000000000213
 31
0.0
  0
LINE
  5
DB4
  8
0
 10
91.323749999999919
 20
44.000000000000213
 30
0.0
 11
91.323749999999919
 21
45.000000000000213
 31
0.0
  0
LINE
  5
DB5
  8
1
 10
47.5
 20
119.14750000000031
 30
0.0
 11
28.5
 21
119.14750000000031
 31
0.0
  0
LINE
  5
DB6
  8
0
 10
45.9766029277122
 20
128.97234820177519
 30
0.0
 11
30.023397072287789
 21
128.97234820177519
 31
0.0
  0
LINE
  5
DB7
  8
0
 10
35.249999999999972
 20
126.64750000000031
 30
0.0
 11
40.75
 21
126.64750000000031
 31
0.0
  0
LINE
  5
DB8
  8
0
 10
30.999999999999972
 20
108.0000000000003
 30
0.0
 11
44.999999999999972
 21
108.0000000000003
 31
0.0
  0
LINE
  5
DB9
  8
0
 10
30.999999999999972
 20
110.0000000000003
 30
0.0
 11
44.999999999999972
 21
110.0000000000003
 31
0.0
  0
LINE
  5
DBA
  8
0
 10
45.933674448184348
 20
129.14750000000029
 30
0.0
 11
30.079424696184589
 21
129.14750000000029
 31
0.0
  0
LINE
  5
DBD
  8
0
 10
45.781569965870297
 20
120.6837001566591
 30
0.0
 11
45.781569965870233
 21
128.7067406230305
 31
0.0
  0
LINE
  5
DBE
  8
0
 10
32.0
 20
126.64249917813351
 30
0.0
 11
32.0
 21
110.0000000000003
 31
0.0
  0
LINE
  5
DBF
  8
0
 10
35.249999999999972
 20
126.6655894924061
 30
0.0
 11
35.249999999999972
 21
110.0000000000003
 31
0.0
  0
LINE
  5
DC0
  8
0
 10
45.999999999999943
 20
129.07668450346461
 30
0.0
 11
46.000000000000007
 21
119.9704438478924
 31
0.0
  0
LINE
  5
DC4
  8
0
 10
31.0
 20
124.14750000000031
 30
0.0
 11
31.0
 21
114.14750000000031
 31
0.0
  0
LINE
  5
DC5
  8
0
 10
30.999999999999972
 20
110.0000000000003
 30
0.0
 11
30.999999999999972
 21
108.0000000000003
 31
0.0
  0
LINE
  5
DC6
  8
0
 10
31.0
 20
114.14750000000031
 30
0.0
 11
32.0
 21
114.14750000000031
 31
0.0
  0
ARC
  5
DCA
  8
0
 10
43.906753390801342
 20
119.7194754299673
 30
0.0
 40
2.1082377744736291
 50
338.7448223352277
 51
27.216917453434259
  0
LINE
  5
DCB
  8
0
 10
45.499999999999979
 20
120.64750000000041
 30
0.0
 11
45.500000000000007
 21
117.64750000000041
 31
0.0
  0
LINE
  5
DCC
  8
0
 10
45.499999999999993
 20
118.9551923076927
 30
0.0
 11
45.871578528752217
 21
118.9551923076927
 31
0.0
  0
ARC
  5
DCD
  8
0
 10
44.878182112822763
 20
119.1090910180566
 30
0.0
 40
1.0052468613396119
 50
308.2119527976439
 51
351.19364532121898
  0
LINE
  5
DCE
  8
0
 10
45.500000000000007
 20
117.64750000000041
 30
0.0
 11
45.000000000000007
 21
117.64750000000041
 31
0.0
  0
ARC
  5
DCF
  8
0
 10
43.775221565846792
 20
119.6910980470925
 30
0.0
 40
2.2384576945283778
 50
26.32301465900423
 51
56.828097238639181
  0
LINE
  5
DD0
  8
0
 10
44.999999999999993
 20
120.64750000000031
 30
0.0
 11
45.499999999999979
 21
120.64750000000041
 31
0.0
  0
LINE
  5
DD1
  8
0
 10
32.0
 20
124.14750000000031
 30
0.0
 11
31.0
 21
124.14750000000031
 31
0.0
  0
LINE
  5
DD4
  8
0
 10
35.249999999999972
 20
126.6655894924061
 30
0.0
 11
32.0
 21
126.6655894924061
 31
0.0
  0
ARC
  5
DD5
  8
0
 10
27.05608552831637
 20
124.0054846703747
 30
0.0
 40
5.665883012014028
 50
29.240599260038721
 51
56.072875703141882
  0
LINE
  5
DD6
  8
0
 10
31.999999999999972
 20
126.64750000000031
 30
0.0
 11
31.999999999999972
 21
126.77314433198499
 31
0.0
  0
POLYLINE
  5
DD7
  8
0
 66
     1
 10
0.0
 20
0.0
 30
0.0
 70
   128
  0
VERTEX
  5
1CD6
  8
0
 10
30.079424696184589
 20
129.14750000000029
 30
0.0
  0
VERTEX
  5
1CD7
  8
0
 10
30.009295982529931
 20
129.1222877560929
 30
0.0
  0
VERTEX
  5
1CD8
  8
0
 10
29.99999999999994
 20
129.072476366487
 30
0.0
  0
VERTEX
  5
1CD9
  8
0
 10
30.023397072287761
 20
128.97234820177519
 30
0.0
  0
SEQEND
  5
1CDA
  8
0
  0
LINE
  5
DD8
  8
0
 10
30.218430034129678
 20
128.70674062303041
 30
0.0
 11
30.023397072287789
 21
128.97234820177519
 31
0.0
  0
LINE
  5
DD9
  8
0
 10
30.218430034129689
 20
120.683700156659
 30
0.0
 11
30.218430034129621
 21
128.70674062303041
 31
0.0
  0
LINE
  5
DDA
  8
0
 10
44.0
 20
126.64249917813351
 30
0.0
 11
44.0
 21
110.0000000000003
 31
0.0
  0
LINE
  5
DDB
  8
0
 10
40.75
 20
126.6655894924061
 30
0.0
 11
40.75
 21
110.0000000000003
 31
0.0
  0
LINE
  5
DDC
  8
0
 10
30.000000000000011
 20
119.9704438478937
 30
0.0
 11
29.99999999999994
 21
129.072476366487
 31
0.0
  0
LINE
  5
DDE
  8
0
 10
45.0
 20
124.14750000000031
 30
0.0
 11
45.0
 21
114.14750000000031
 31
0.0
  0
LINE
  5
DE0
  8
0
 10
44.999999999999972
 20
108.0000000000003
 30
0.0
 11
44.999999999999972
 21
110.0000000000003
 31
0.0
  0
LINE
  5
DE1
  8
0
 10
44.0
 20
114.14750000000031
 30
0.0
 11
45.0
 21
114.14750000000031
 31
0.0
  0
ARC
  5
DE2
  8
0
 10
32.093246609198829
 20
119.71947542996649
 30
0.0
 40
2.108237774474031
 50
152.78308254655661
 51
201.255177664786
  0
ARC
  5
DE3
  8
0
 10
31.01870076716369
 20
119.0471811387745
 30
0.0
 40
0.8950190890600913
 50
185.89919865418719
 51
268.80275960264009
  0
LINE
  5
DE4
  8
0
 10
30.128421471247801
 20
118.9551923076926
 30
0.0
 11
31.0
 21
118.9551923076926
 31
0.0
  0
LINE
  5
DE5
  8
0
 10
45.0
 20
124.14750000000031
 30
0.0
 11
44.0
 21
124.14750000000031
 31
0.0
  0
ARC
  5
DE6
  8
0
 10
32.224778434142351
 20
119.6910980471032
 30
0.0
 40
2.2384576945137789
 50
123.17190276127489
 51
153.67698534112611
  0
ARC
  5
DE7
  8
0
 10
48.943914471688601
 20
124.00548467037039
 30
0.0
 40
5.6658830120203536
 50
123.9271242968758
 51
150.75940073995031
  0
LINE
  5
DE8
  8
0
 10
44.0
 20
126.6655894924061
 30
0.0
 11
40.75
 21
126.6655894924061
 31
0.0
  0
LINE
  5
DE9
  8
0
 10
44.0
 20
126.64750000000031
 30
0.0
 11
43.999999999999972
 21
126.77314433198499
 31
0.0
  0
POLYLINE
  5
DEA
  8
0
 66
     1
 10
0.0
 20
0.0
 30
0.0
 70
   128
  0
VERTEX
  5
1CDB
  8
0
 10
45.9766029277122
 20
128.97234820177519
 30
0.0
  0
VERTEX
  5
1CDC
  8
0
 10
45.999999999999943
 20
129.07668450346461
 30
0.0
  0
VERTEX
  5
1CDD
  8
0
 10
45.957935379669159
 20
129.14532302786961
 30
0.0
  0
VERTEX
  5
1CDE
  8
0
 10
45.933674448184348
 20
129.14750000000029
 30
0.0
  0
SEQEND
  5
1CDF
  8
0
  0
LINE
  5
DEB
  8
0
 10
45.781569965870283
 20
128.70674062303041
 30
0.0
 11
45.9766029277122
 21
128.97234820177519
 31
0.0
  0
LINE
  5
DEC
  8
1
 10
93.823749999999961
 20
119.14750000000031
 30
0.0
 11
78.823749999999961
 21
119.14750000000031
 31
0.0
  0
LINE
  5
DED
  8
0
 10
79.32374999999999
 20
108.0000000000003
 30
0.0
 11
93.323749999999976
 21
108.0000000000003
 31
0.0
  0
LINE
  5
DEE
  8
0
 10
79.32374999999999
 20
110.0000000000003
 30
0.0
 11
93.323749999999976
 21
110.0000000000003
 31
0.0
  0
LINE
  5
DEF
  8
0
 10
79.32374999999999
 20
110.0000000000003
 30
0.0
 11
79.32374999999999
 21
108.0000000000003
 31
0.0
  0
CIRCLE
  5
DF2
  8
0
 10
86.323749999999961
 20
119.14750000000031
 30
0.0
 40
5.0
  0
LINE
  5
DF5
  8
0
 10
93.323749999999976
 20
108.0000000000003
 30
0.0
 11
93.323749999999976
 21
110.0000000000003
 31
0.0
  0
LINE
  5
DF8
  8
1
 10
86.323749999999578
 20
149.64726476226991
 30
0.0
 11
86.323749999999578
 21
169.14726476226991
 31
0.0
  0
LINE
  5
DFA
  8
0
 10
77.983692670537707
 20
165.14726476226991
 30
0.0
 11
77.983692670537707
 21
161.89726476226991
 31
0.0
  0
LINE
  5
DFB
  8
0
 10
86.323749999999492
 20
156.3972647622698
 30
0.0
 11
77.999999999999574
 21
156.39726476226991
 31
0.0
  0
LINE
  5
DFC
  8
0
 10
86.323749999999492
 20
161.8972647622698
 30
0.0
 11
77.999999999999574
 21
161.89726476226991
 31
0.0
  0
ARC
  5
DFD
  8
0
 10
86.323749999999578
 20
159.14726476226991
 30
0.0
 40
7.0000000000000231
 50
156.79730682716271
 51
203.2461528215276
  0
LINE
  5
DFE
  8
0
 10
77.983692670537707
 20
156.39726476226991
 30
0.0
 11
77.983692670537707
 21
153.14726476226991
 31
0.0
  0
LINE
  5
E00
  8
0
 10
91.323749999999578
 20
152.14726476226991
 30
0.0
 11
81.323749999999606
 21
152.14726476226991
 31
0.0
  0
LINE
  5
E01
  8
0
 10
81.323749999999578
 20
153.1472647622698
 30
0.0
 11
81.323749999999606
 21
152.14726476226991
 31
0.0
  0
LINE
  5
E02
  8
0
 10
91.323749999999578
 20
152.14726476226991
 30
0.0
 11
91.323749999999578
 21
153.1472647622698
 31
0.0
  0
CIRCLE
  5
E03
  8
0
 10
86.323750000013575
 20
159.1472647622694
 30
0.0
 40
2.5
  0
LINE
  5
E05
  8
0
 10
81.323749999999578
 20
161.8972647622698
 30
0.0
 11
81.323749999999578
 21
156.3972647622698
 31
0.0
  0
ARC
  5
E06
  8
0
 10
86.323749999999578
 20
159.14726476226991
 30
0.0
 40
7.0000000000000133
 50
336.86760360070241
 51
23.132396399297839
  0
LINE
  5
E07
  8
0
 10
91.323749999999578
 20
156.3972647622698
 30
0.0
 11
91.323749999999578
 21
161.8972647622698
 31
0.0
  0
LINE
  5
E08
  8
0
 10
87.823749999999563
 20
151.6472647622698
 30
0.0
 11
84.823749999999578
 21
151.6472647622698
 31
0.0
  0
LINE
  5
E09
  8
0
 10
91.323749999999578
 20
166.14726476226991
 30
0.0
 11
81.323749999999606
 21
166.14726476226991
 31
0.0
  0
LINE
  5
E0A
  8
0
 10
81.323749999999606
 20
166.14726476226991
 30
0.0
 11
81.323749999999578
 21
165.1472647622698
 31
0.0
  0
LINE
  5
E0B
  8
0
 10
84.823749999999578
 20
151.6472647622698
 30
0.0
 11
84.823749999999578
 21
152.1472647622698
 31
0.0
  0
LINE
  5
E0C
  8
0
 10
87.823749999999563
 20
152.1472647622698
 30
0.0
 11
87.823749999999563
 21
151.6472647622698
 31
0.0
  0
LINE
  5
E0D
  8
0
 10
91.323749999999578
 20
165.1472647622698
 30
0.0
 11
91.323749999999578
 21
166.14726476226991
 31
0.0
  0
LINE
  5
E0E
  8
1
 10
176.32310139142871
 20
73.000000000000341
 30
0.0
 11
176.32310139142871
 21
134.14750000000029
 31
0.0
  0
ARC
  5
E0F
  8
0
 10
111.3237500000061
 20
109.24999999996621
 30
0.0
 40
65.249999999965553
 50
278.68532801596211
 51
283.41967361551627
  0
ARC
  5
E10
  8
0
 10
111.32375000001311
 20
-33.249999999931831
 30
0.0
 40
65.249999999930836
 50
76.580326384483584
 51
81.314671984040217
  0
LINE
  5
E11
  8
0
 10
94.823749999999919
 20
40.750000000000213
 30
0.0
 11
94.823749999999919
 21
35.25000000000022
 31
0.0
  0
LINE
  5
E12
  8
0
 10
103.2659171674775
 20
35.25000000000022
 30
0.0
 11
95.732035449765206
 21
35.25000000000022
 31
0.0
  0
LINE
  5
E13
  8
0
 10
95.732035449765178
 20
32.000000000000199
 30
0.0
 11
95.732035449765206
 21
35.25000000000022
 31
0.0
  0
LINE
  5
E14
  8
0
 10
95.732035449765178
 20
40.750000000000213
 30
0.0
 11
103.2659171674775
 21
40.750000000000213
 31
0.0
  0
LINE
  5
E15
  8
0
 10
95.732035449765178
 20
40.750000000000213
 30
0.0
 11
95.732035449765178
 21
44.000000000000213
 31
0.0
  0
ARC
  5
E16
  8
0
 10
111.3237499999999
 20
-33.249999999999787
 30
0.0
 40
65.250000000000014
 50
81.314671984037744
 51
90.0
  0
ARC
  5
E17
  8
0
 10
111.3237499999999
 20
109.2500000000002
 30
0.0
 40
65.249999999999972
 50
270.0000000000008
 51
278.68532801596291
  0
ARC
  5
E18
  8
0
 10
128.32374999999979
 20
38.000000000000227
 30
0.0
 40
8.0000000000000266
 50
280.28002428609631
 51
79.719975713904375
  0
ARC
  5
E19
  8
0
 10
128.32374999999979
 20
37.999999999991971
 30
0.0
 40
7.9999999999919682
 50
256.58032638447361
 51
280.2800242861066
  0
ARC
  5
E1A
  8
0
 10
128.3237500000001
 20
37.99999999999784
 30
0.0
 40
8.0000000000023661
 50
79.719975713909975
 51
103.4196736155117
  0
ARC
  5
E1B
  8
0
 10
106.3237500000007
 20
226.1974999999924
 30
0.0
 40
99.549999999992025
 50
272.87895009845471
 51
281.6740630577799
  0
ARC
  5
E1C
  8
0
 10
121.1770015951944
 20
106.647499999993
 30
0.0
 40
15.000000000007381
 50
69.349112538540595
 51
89.999999999993875
  0
LINE
  5
E1D
  8
0
 10
121.177001595196
 20
121.64750000000031
 30
0.0
 11
103.2659171674776
 21
121.64750000000031
 31
0.0
  0
ARC
  5
E1E
  8
0
 10
103.2659171674776
 20
113.64750000000041
 30
0.0
 40
7.9999999999999849
 50
90.0
 51
160.34503514269571
  0
ARC
  5
E1F
  8
0
 10
106.32375
 20
226.1975000000003
 30
0.0
 40
99.550000000000011
 50
270.0000000000008
 51
272.87895009845488
  0
ARC
  5
E20
  8
0
 10
129.32283876351329
 20
121.645806008534
 30
0.0
 40
7.5014587537358466
 50
21.049047121953841
 51
102.3973184627489
  0
ARC
  5
E21
  8
0
 10
132.3237499999999
 20
122.6475000000007
 30
0.0
 40
4.5000000000003171
 50
235.1361620457013
 51
332.73395554926168
  0
ARC
  5
E22
  8
0
 10
121.17343645022321
 20
106.640725886659
 30
0.0
 40
15.007596213854571
 50
55.139777589655303
 51
69.345496994580017
  0
LINE
  5
E23
  8
0
 10
136.3237499999999
 20
120.58594718719149
 30
0.0
 11
136.3237499999999
 21
124.34008240356761
 31
0.0
  0
LINE
  5
E24
  8
0
 10
126.46709470989749
 20
128.70674062303041
 30
0.0
 11
127.7123534563287
 21
128.97234820177519
 31
0.0
  0
ARC
  5
E25
  8
0
 10
128.32374999999979
 20
159.1472647622698
 30
0.0
 40
8.0000000000000195
 50
265.61692100380031
 51
94.383078996200538
  0
ARC
  5
E26
  8
0
 10
111.32374999999951
 20
230.39726476227099
 30
0.0
 40
65.250000000001108
 50
270.00000000000091
 51
283.41967361551451
  0
ARC
  5
E27
  8
0
 10
111.32374999999981
 20
87.897264762272812
 30
0.0
 40
65.249999999997073
 50
76.580326384485659
 51
90.000000000000185
  0
LINE
  5
E28
  8
0
 10
94.823749999999578
 20
161.8972647622698
 30
0.0
 11
94.823749999999578
 21
156.3972647622698
 31
0.0
  0
LINE
  5
E29
  8
0
 10
126.4670947098971
 20
151.36569479639951
 30
0.0
 11
127.7123534563283
 21
151.17066183455759
 31
0.0
  0
LINE
  5
E2A
  8
0
 10
126.4670947098971
 20
166.92883472814009
 30
0.0
 11
127.7123534563283
 21
167.12386768998201
 31
0.0
  0
LINE
  5
E2B
  8
1
 10
185.82310139142879
 20
119.14750000000031
 30
0.0
 11
166.82310139142879
 21
119.14750000000031
 31
0.0
  0
LINE
  5
E2C
  8
0
 10
182.32310139142871
 20
116.33834118140059
 30
0.0
 11
179.07310139142859
 21
116.33834118140049
 31
0.0
  0
POLYLINE
  5
E2D
  8
0
 66
     1
 10
0.0
 20
0.0
 30
0.0
 70
   128
  0
VERTEX
  5
1CE0
  8
0
 10
184.19467992018079
 20
118.9551923076926
 30
0.0
  0
VERTEX
  5
1CE1
  8
0
 10
184.06524546261991
 20
118.6090881540897
 30
0.0
  0
VERTEX
  5
1CE2
  8
0
 10
183.87032425882691
 20
118.35377110712329
 30
0.0
  0
VERTEX
  5
1CE3
  8
0
 10
183.61879388787631
 20
118.20511655977531
 30
0.0
  0
VERTEX
  5
1CE4
  8
0
 10
183.29909630067419
 20
118.1482830221136
 30
0.0
  0
VERTEX
  5
1CE5
  8
0
 10
182.9149326661736
 20
118.1791726137161
 30
0.0
  0
VERTEX
  5
1CE6
  8
0
 10
182.4716438332153
 20
118.288629972821
 30
0.0
  0
VERTEX
  5
1CE7
  8
0
 10
181.7079662980176
 20
118.5759410708971
 30
0.0
  0
VERTEX
  5
1CE8
  8
0
 10
180.8425534353301
 20
118.9754071123365
 30
0.0
  0
VERTEX
  5
1CE9
  8
0
 10
180.2344644811221
 20
119.2745206116704
 30
0.0
  0
VERTEX
  5
1CEA
  8
0
 10
179.59980928443949
 20
119.5861081879308
 30
0.0
  0
VERTEX
  5
1CEB
  8
0
 10
178.9191233711438
 20
119.904608232307
 30
0.0
  0
VERTEX
  5
1CEC
  8
0
 10
178.20697078930689
 20
120.1981785833535
 30
0.0
  0
VERTEX
  5
1CED
  8
0
 10
177.48110626932771
 20
120.4300829830723
 30
0.0
  0
VERTEX
  5
1CEE
  8
0
 10
176.70440814761201
 20
120.56840017416449
 30
0.0
  0
VERTEX
  5
1CEF
  8
0
 10
176.32310139142859
 20
120.58594718719149
 30
0.0
  0
VERTEX
  5
1CF0
  8
0
 10
175.50377898184269
 20
120.5062947730418
 30
0.0
  0
VERTEX
  5
1CF1
  8
0
 10
174.68445657225669
 20
120.28568017936399
 30
0.0
  0
VERTEX
  5
1CF2
  8
0
 10
174.06814731144249
 20
120.05166484840031
 30
0.0
  0
VERTEX
  5
1CF3
  8
0
 10
173.47595629765371
 20
119.7898888785011
 30
0.0
  0
VERTEX
  5
1CF4
  8
0
 10
172.3281385393559
 20
119.2330307736791
 30
0.0
  0
VERTEX
  5
1CF5
  8
0
 10
171.7586098751834
 20
118.9536327880371
 30
0.0
  0
VERTEX
  5
1CF6
  8
0
 10
171.21447425529499
 20
118.69785379817
 30
0.0
  0
VERTEX
  5
1CF7
  8
0
 10
170.68032479254131
 20
118.46921050166119
 30
0.0
  0
VERTEX
  5
1CF8
  8
0
 10
170.1831781433859
 20
118.2912946443476
 30
0.0
  0
VERTEX
  5
1CF9
  8
0
 10
169.69782044715811
 20
118.17359687776791
 30
0.0
  0
VERTEX
  5
1CFA
  8
0
 10
169.26654057306831
 20
118.1534357179589
 30
0.0
  0
VERTEX
  5
1CFB
  8
0
 10
168.92132301430351
 20
118.2520984972758
 30
0.0
  0
VERTEX
  5
1CFC
  8
0
 10
168.6515895212554
 20
118.4937918276202
 30
0.0
  0
VERTEX
  5
1CFD
  8
0
 10
168.4515228626764
 20
118.9551923076926
 30
0.0
  0
SEQEND
  5
1CFE
  8
0
  0
POLYLINE
  5
E2E
  8
0
 66
     1
 10
0.0
 20
0.0
 30
0.0
 70
   128
  0
VERTEX
  5
1CFF
  8
0
 10
168.32310139142859
 20
129.06661882385779
 30
0.0
  0
VERTEX
  5
1D00
  8
0
 10
168.32995216320211
 20
129.1176036086421
 30
0.0
  0
VERTEX
  5
1D01
  8
0
 10
168.39906210523571
 20
129.14750000000029
 30
0.0
  0
VERTEX
  5
1D02
  8
0
 10
168.64143920796619
 20
129.04523751216351
 30
0.0
  0
VERTEX
  5
1D03
  8
0
 10
168.9634808877791
 20
128.83683161571881
 30
0.0
  0
VERTEX
  5
1D04
  8
0
 10
169.482487866837
 20
128.45485030164701
 30
0.0
  0
VERTEX
  5
1D05
  8
0
 10
170.13246667507431
 20
127.9489494080279
 30
0.0
  0
VERTEX
  5
1D06
  8
0
 10
170.6109564414644
 20
127.5703643601851
 30
0.0
  0
VERTEX
  5
1D07
  8
0
 10
171.1240914448523
 20
127.16477696670761
 30
0.0
  0
VERTEX
  5
1D08
  8
0
 10
171.68347634548149
 20
126.72780526259891
 30
0.0
  0
VERTEX
  5
1D09
  8
0
 10
172.27309321153689
 20
126.27899489261409
 30
0.0
  0
VERTEX
  5
1D0A
  8
0
 10
172.89435161150189
 20
125.8259367189186
 30
0.0
  0
VERTEX
  5
1D0B
  8
0
 10
173.548255264749
 20
125.38333547935
 30
0.0
  0
VERTEX
  5
1D0C
  8
0
 10
174.2637798132188
 20
124.9556822074387
 30
0.0
  0
VERTEX
  5
1D0D
  8
0
 10
175.03117515193989
 20
124.5986118148324
 30
0.0
  0
VERTEX
  5
1D0E
  8
0
 10
175.6513980465522
 20
124.41240279396951
 30
0.0
  0
VERTEX
  5
1D0F
  8
0
 10
176.32310139142859
 20
124.34008240356761
 30
0.0
  0
VERTEX
  5
1D10
  8
0
 10
176.94917059334631
 20
124.40302028977131
 30
0.0
  0
VERTEX
  5
1D11
  8
0
 10
177.57523979526411
 20
124.58359503548439
 30
0.0
  0
VERTEX
  5
1D12
  8
0
 10
178.47783964398471
 20
125.00928660181719
 30
0.0
  0
VERTEX
  5
1D13
  8
0
 10
179.32850245112499
 20
125.5347172891268
 30
0.0
  0
VERTEX
  5
1D14
  8
0
 10
180.03810994721701
 20
126.031331709632
 30
0.0
  0
VERTEX
  5
1D15
  8
0
 10
180.7093695423124
 20
126.5331963320627
 30
0.0
  0
VERTEX
  5
1D16
  8
0
 10
181.36240350364281
 20
127.0391614083366
 30
0.0
  0
VERTEX
  5
1D17
  8
0
 10
181.9738013057445
 20
127.5217159744432
 30
0.0
  0
VERTEX
  5
1D18
  8
0
 10
182.71367245967349
 20
128.1061756445157
 30
0.0
  0
VERTEX
  5
1D19
  8
0
 10
183.3619599772918
 20
128.60446320836931
 30
0.0
  0
VERTEX
  5
1D1A
  8
0
 10
183.7748928273449
 20
128.90009435483469
 30
0.0
  0
VERTEX
  5
1D1B
  8
0
 10
184.0885389409116
 20
129.09048640880999
 30
0.0
  0
VERTEX
  5
1D1C
  8
0
 10
184.25522169181161
 20
129.14750000000029
 30
0.0
  0
VERTEX
  5
1D1D
  8
0
 10
184.32310139142871
 20
129.07145411343561
 30
0.0
  0
SEQEND
  5
1D1E
  8
0
  0
LINE
  5
E2F
  8
0
 10
169.32310139142859
 20
110.0000000000003
 30
0.0
 11
183.32310139142871
 21
110.0000000000003
 31
0.0
  0
LINE
  5
E30
  8
0
 10
169.32310139142859
 20
108.0000000000003
 30
0.0
 11
183.32310139142871
 21
108.0000000000003
 31
0.0
  0
LINE
  5
E31
  8
0
 10
169.32310139142859
 20
118.14750000000031
 30
0.0
 11
183.32310139142871
 21
118.14750000000031
 31
0.0
  0
LINE
  5
E32
  8
0
 10
184.25522169181161
 20
129.14750000000029
 30
0.0
 11
168.39906210523571
 21
129.14750000000029
 31
0.0
  0
LINE
  5
E33
  8
0
 10
168.32310139142859
 20
129.06661882385779
 30
0.0
 11
168.32310139142859
 21
119.83086038267859
 31
0.0
  0
LINE
  5
E34
  8
0
 10
170.32310139142871
 20
118.14750000000031
 30
0.0
 11
170.32310139142871
 21
110.0114262644106
 31
0.0
  0
LINE
  5
E35
  8
0
 10
173.57310139142859
 20
110.0114262644106
 30
0.0
 11
173.57310139142859
 21
118.14750000000031
 31
0.0
  0
LINE
  5
E36
  8
0
 10
179.07310139142871
 20
118.14750000000031
 30
0.0
 11
179.07310139142871
 21
110.0114262644106
 31
0.0
  0
LINE
  5
E38
  8
0
 10
169.32310139142859
 20
114.14750000000031
 30
0.0
 11
169.32310139142859
 21
118.15607978221141
 31
0.0
  0
LINE
  5
E39
  8
0
 10
169.32310139142859
 20
110.0000000000003
 30
0.0
 11
169.32310139142859
 21
108.0000000000003
 31
0.0
  0
LINE
  5
E3A
  8
0
 10
169.32310139142859
 20
114.14750000000031
 30
0.0
 11
170.32310139142871
 21
114.14750000000031
 31
0.0
  0
LINE
  5
E3F
  8
0
 10
173.57310139142859
 20
116.33834118140059
 30
0.0
 11
170.32310139142871
 21
116.33834118140059
 31
0.0
  0
POLYLINE
  5
E40
  8
0
 66
     1
 10
0.0
 20
0.0
 30
0.0
 70
   128
  0
VERTEX
  5
1D1F
  8
0
 10
168.4515228626764
 20
118.9551923076926
 30
0.0
  0
VERTEX
  5
1D20
  8
0
 10
168.32676834665699
 20
119.70137042542839
 30
0.0
  0
VERTEX
  5
1D21
  8
0
 10
168.3290430635148
 20
119.83086038267859
 30
0.0
  0
SEQEND
  5
1D22
  8
0
  0
LINE
  5
E41
  8
0
 10
184.32310139142871
 20
119.83086038267859
 30
0.0
 11
184.32310139142871
 21
129.07145411343561
 31
0.0
  0
LINE
  5
E42
  8
0
 10
182.32310139142871
 20
118.14750000000031
 30
0.0
 11
182.32310139142871
 21
110.0114262644106
 31
0.0
  0
LINE
  5
E43
  8
0
 10
183.32310139142871
 20
114.14750000000031
 30
0.0
 11
183.32310139142871
 21
118.15255047449391
 31
0.0
  0
LINE
  5
E44
  8
0
 10
183.32310139142871
 20
108.0000000000003
 30
0.0
 11
183.32310139142871
 21
110.0000000000003
 31
0.0
  0
LINE
  5
E45
  8
0
 10
182.32310139142871
 20
114.14750000000031
 30
0.0
 11
183.32310139142871
 21
114.14750000000031
 31
0.0
  0
POLYLINE
  5
E47
  8
0
 66
     1
 10
0.0
 20
0.0
 30
0.0
 70
   128
  0
VERTEX
  5
1D23
  8
0
 10
184.19467992018079
 20
118.9551923076926
 30
0.0
  0
VERTEX
  5
1D24
  8
0
 10
184.3194344362004
 20
119.70137042542839
 30
0.0
  0
VERTEX
  5
1D25
  8
0
 10
184.31715971934241
 20
119.83086038267859
 30
0.0
  0
SEQEND
  5
1D26
  8
0
  0
TEXT
  5
F15
  8
0
 62
     3
 10
0.0
 20
0.0
 30
0.0
 40
10.0
  1
QLCA-05X30
  7
STANDARD1
  0
LINE
  5
137F
  8
0
 10
85.573749999999961
 20
119.5805127019003
 30
0.0
 11
85.573749999999961
 21
118.71448729810029
 31
0.0
  0
LINE
  5
1380
  8
0
 10
85.573749999999961
 20
118.71448729810029
 30
0.0
 11
86.323749999999961
 21
118.2814745963003
 31
0.0
  0
LINE
  5
1381
  8
0
 10
86.323749999999961
 20
118.2814745963003
 30
0.0
 11
87.073749999999976
 21
118.71448729810029
 31
0.0
  0
LINE
  5
1382
  8
0
 10
87.073749999999976
 20
118.71448729810029
 30
0.0
 11
87.073749999999976
 21
119.5805127019003
 31
0.0
  0
LINE
  5
1383
  8
0
 10
86.323749999999961
 20
120.0135254038003
 30
0.0
 11
85.573749999999961
 21
119.5805127019003
 31
0.0
  0
LINE
  5
1384
  8
0
 10
87.073749999999976
 20
119.5805127019003
 30
0.0
 11
86.323749999999961
 21
120.0135254038003
 31
0.0
  0
CIRCLE
  5
1385
  8
0
 10
86.323749999999961
 20
119.14750000000031
 30
0.0
 40
1.5
  0
LINE
  5
14BC
  8
0
 10
35.499999999999972
 20
110.9623438400003
 30
0.0
 11
35.499999999999972
 21
110.0000000000003
 31
0.0
  0
LINE
  5
14BD
  8
0
 10
35.499999999999972
 20
108.0000000000003
 30
0.0
 11
35.499999999999972
 21
78.800000000000338
 31
0.0
  0
LINE
  5
14BE
  8
0
 10
40.499999999999972
 20
78.800000000000338
 30
0.0
 11
40.499999999999972
 21
108.0000000000003
 31
0.0
  0
LINE
  5
14BF
  8
0
 10
40.499999999999972
 20
110.0000000000003
 30
0.0
 11
40.499999999999972
 21
110.9623438400003
 31
0.0
  0
LINE
  5
14C0
  8
0
 10
35.499999999999972
 20
125.4623438400003
 30
0.0
 11
35.499999999999972
 21
123.7531893741003
 31
0.0
  0
LINE
  5
14C1
  8
0
 10
35.499999999999972
 20
114.5713585333003
 30
0.0
 11
35.499999999999972
 21
113.9623438400003
 31
0.0
  0
LINE
  5
14C2
  8
0
 10
40.499999999999972
 20
113.9623438400003
 30
0.0
 11
40.499999999999972
 21
114.57108511300029
 31
0.0
  0
LINE
  5
14C3
  8
0
 10
40.499999999999972
 20
123.7534630856003
 30
0.0
 11
40.499999999999972
 21
125.4623438400003
 31
0.0
  0
LINE
  5
14C4
  8
0
 10
35.499999999999972
 20
78.800000000000338
 30
0.0
 11
36.29999999999999
 21
78.000000000000341
 31
0.0
  0
LINE
  5
14C5
  8
0
 10
39.69999999999996
 20
78.000000000000341
 30
0.0
 11
40.499999999999972
 21
78.800000000000338
 31
0.0
  0
LINE
  5
14C6
  8
0
 10
35.999999999999972
 20
125.9623438400003
 30
0.0
 11
35.499999999999972
 21
125.4623438400003
 31
0.0
  0
LINE
  5
14C7
  8
0
 10
40.499999999999972
 20
125.4623438400003
 30
0.0
 11
39.999999999999972
 21
125.9623438400003
 31
0.0
  0
LINE
  5
14C8
  8
0
 10
35.69999999999996
 20
113.9623438400003
 30
0.0
 11
35.69999999999996
 21
112.4623438400003
 31
0.0
  0
LINE
  5
14C9
  8
0
 10
40.299999999999983
 20
112.4623438400003
 30
0.0
 11
40.299999999999983
 21
113.9623438400003
 31
0.0
  0
LINE
  5
14CA
  8
0
 10
35.799999999999983
 20
112.4623438400003
 30
0.0
 11
35.799999999999983
 21
110.9623438400003
 31
0.0
  0
LINE
  5
14CB
  8
0
 10
40.19999999999996
 20
110.9623438400003
 30
0.0
 11
40.19999999999996
 21
112.4623438400003
 31
0.0
  0
LINE
  5
1542
  8
0
 10
35.499999999999972
 20
110.9623438400003
 30
0.0
 11
40.499999999999972
 21
110.9623438400003
 31
0.0
  0
LINE
  5
1543
  8
0
 10
35.499999999999972
 20
78.800000000000338
 30
0.0
 11
40.499999999999972
 21
78.800000000000338
 31
0.0
  0
LINE
  5
1544
  8
0
 10
35.499999999999972
 20
113.9623438400003
 30
0.0
 11
40.499999999999972
 21
113.9623438400003
 31
0.0
  0
LINE
  5
1545
  8
0
 10
40.499999999999972
 20
125.4623438400003
 30
0.0
 11
35.499999999999972
 21
125.4623438400003
 31
0.0
  0
LINE
  5
154A
  8
0
 10
39.69999999999996
 20
78.000000000000341
 30
0.0
 11
36.29999999999999
 21
78.000000000000341
 31
0.0
  0
LINE
  5
154B
  8
0
 10
35.999999999999972
 20
125.9623438400003
 30
0.0
 11
39.999999999999972
 21
125.9623438400003
 31
0.0
  0
LINE
  5
154F
  8
0
 10
35.69999999999996
 20
112.4623438400003
 30
0.0
 11
40.299999999999983
 21
112.4623438400003
 31
0.0
  0
ARC
  5
1556
  8
0
 10
37.998999611799981
 20
107.1423121892003
 30
0.0
 40
7.8432763334779949
 50
69.46702922850001
 51
110.51736420429999
  0
ARC
  5
1557
  8
0
 10
38.000158503599977
 20
131.19229298380029
 30
0.0
 40
7.852955446025347
 50
249.5000347269
 51
290.49749600900032
  0
ARC
  5
1600
  8
0
 10
86.323749999999578
 20
159.14726476226991
 30
0.0
 40
2.0000000000000151
 50
103.0028781628985
 51
256.99712183710142
  0
LINE
  5
1604
  8
0
 10
85.873749999999575
 20
161.60643128774149
 30
0.0
 11
85.873749999999575
 21
156.68809823679831
 31
0.0
  0
ARC
  5
1605
  8
0
 10
86.323749999999578
 20
159.14726476226991
 30
0.0
 40
2.0000000000000102
 50
283.00287816289858
 51
76.997121837101417
  0
LINE
  5
1609
  8
0
 10
86.773749999999623
 20
156.68809823679831
 30
0.0
 11
86.773749999999666
 21
161.60643128774149
 31
0.0
  0
CIRCLE
  5
16C8
  8
0
 10
86.323749999999578
 20
38.000000000000341
 30
0.0
 40
2.500000000000028
  0
CIRCLE
  5
16C9
  8
0
 10
86.323749999999578
 20
38.000000000000341
 30
0.0
 40
1.700000000000073
  0
LINE
  5
1756
  8
0
 10
83.823749999999578
 20
110.523863836925
 30
0.0
 11
83.823749999999578
 21
110.0000000000003
 31
0.0
  0
LINE
  5
1757
  8
0
 10
83.823749999999578
 20
108.0000000000003
 30
0.0
 11
83.823749999999578
 21
78.800000000000338
 31
0.0
  0
LINE
  5
1758
  8
0
 10
88.823749999999578
 20
78.800000000000338
 30
0.0
 11
88.823749999999578
 21
108.0000000000003
 31
0.0
  0
LINE
  5
1759
  8
0
 10
88.823749999999578
 20
110.0000000000003
 30
0.0
 11
88.823749999999578
 21
110.2214015421077
 31
0.0
  0
LINE
  5
175C
  8
0
 10
83.823749999999578
 20
78.800000000000338
 30
0.0
 11
84.623749999999575
 21
78.000000000000341
 31
0.0
  0
LINE
  5
175D
  8
0
 10
88.023749999999566
 20
78.000000000000341
 30
0.0
 11
88.823749999999578
 21
78.800000000000338
 31
0.0
  0
LINE
  5
1763
  8
0
 10
83.823749999999578
 20
78.800000000000338
 30
0.0
 11
88.823749999999578
 21
78.800000000000338
 31
0.0
  0
LINE
  5
1765
  8
0
 10
88.023749999999566
 20
78.000000000000341
 30
0.0
 11
84.623749999999575
 21
78.000000000000341
 31
0.0
  0
LINE
  5
1768
  8
0
 10
173.8237499999999
 20
110.9623438400003
 30
0.0
 11
173.8237499999999
 21
110.0000000000003
 31
0.0
  0
LINE
  5
1769
  8
0
 10
173.8237499999999
 20
108.0000000000003
 30
0.0
 11
173.8237499999999
 21
78.800000000000338
 31
0.0
  0
LINE
  5
176A
  8
0
 10
178.8237499999999
 20
78.800000000000338
 30
0.0
 11
178.8237499999999
 21
108.0000000000003
 31
0.0
  0
LINE
  5
176B
  8
0
 10
178.8237499999999
 20
110.0000000000003
 30
0.0
 11
178.8237499999999
 21
110.9623438400003
 31
0.0
  0
LINE
  5
176C
  8
0
 10
173.8237499999999
 20
114.5713585333003
 30
0.0
 11
173.8237499999999
 21
113.9623438400003
 31
0.0
  0
LINE
  5
176D
  8
0
 10
178.8237499999999
 20
113.9623438400003
 30
0.0
 11
178.8237499999999
 21
114.57108511300029
 31
0.0
  0
LINE
  5
176E
  8
0
 10
173.8237499999999
 20
78.800000000000338
 30
0.0
 11
174.62374999999989
 21
78.000000000000341
 31
0.0
  0
LINE
  5
176F
  8
0
 10
178.02374999999989
 20
78.000000000000341
 30
0.0
 11
178.8237499999999
 21
78.800000000000338
 31
0.0
  0
LINE
  5
1770
  8
0
 10
174.02374999999989
 20
113.9623438400003
 30
0.0
 11
174.02374999999989
 21
112.4623438400003
 31
0.0
  0
LINE
  5
1771
  8
0
 10
178.62374999999989
 20
112.4623438400003
 30
0.0
 11
178.62374999999989
 21
113.9623438400003
 31
0.0
  0
LINE
  5
1772
  8
0
 10
174.12374999999989
 20
112.4623438400003
 30
0.0
 11
174.12374999999989
 21
110.9623438400003
 31
0.0
  0
LINE
  5
1773
  8
0
 10
178.52374999999989
 20
110.9623438400003
 30
0.0
 11
178.52374999999989
 21
112.4623438400003
 31
0.0
  0
LINE
  5
1774
  8
0
 10
173.8237499999999
 20
110.9623438400003
 30
0.0
 11
178.8237499999999
 21
110.9623438400003
 31
0.0
  0
LINE
  5
1775
  8
0
 10
173.8237499999999
 20
78.800000000000338
 30
0.0
 11
178.8237499999999
 21
78.800000000000338
 31
0.0
  0
LINE
  5
1776
  8
0
 10
173.8237499999999
 20
113.9623438400003
 30
0.0
 11
178.8237499999999
 21
113.9623438400003
 31
0.0
  0
LINE
  5
1777
  8
0
 10
178.02374999999989
 20
78.000000000000341
 30
0.0
 11
174.62374999999989
 21
78.000000000000341
 31
0.0
  0
LINE
  5
1778
  8
0
 10
174.02374999999989
 20
112.4623438400003
 30
0.0
 11
178.62374999999989
 21
112.4623438400003
 31
0.0
  0
ARC
  5
1779
  8
0
 10
176.32274961179991
 20
107.1423121892003
 30
0.0
 40
7.8432763334779949
 50
69.46702922850001
 51
110.51736420429999
  0
LINE
  5
180E
  8
3
 10
40.067000000000178
 20
78.367000000000544
 30
0.0
 11
40.067000000000156
 21
108.0000000000003
 31
0.0
  0
LINE
  5
180F
  8
3
 10
35.932999999999772
 20
78.367000000000544
 30
0.0
 11
35.932999999999772
 21
108.0000000000003
 31
0.0
  0
LINE
  5
1811
  8
3
 10
40.067000000000156
 20
110.0000000000003
 30
0.0
 11
40.067000000000178
 21
110.9623438400003
 31
0.0
  0
LINE
  5
1812
  8
3
 10
35.932999999999772
 20
110.0000000000003
 30
0.0
 11
35.932999999999772
 21
110.9623438400003
 31
0.0
  0
LINE
  5
1813
  8
3
 10
35.932999999999772
 20
113.9623438400003
 30
0.0
 11
35.932999999999772
 21
114.70859458198331
 31
0.0
  0
LINE
  5
1814
  8
3
 10
40.067000000000178
 20
113.9623438400003
 30
0.0
 11
40.067000000000178
 21
114.7080479787782
 31
0.0
  0
LINE
  5
1815
  8
3
 10
40.067000000000178
 20
123.616207222273
 30
0.0
 11
40.067000000000178
 21
125.89534384000009
 31
0.0
  0
LINE
  5
1816
  8
3
 10
35.932999999999772
 20
123.6162937125324
 30
0.0
 11
35.932999999999772
 21
125.89534384000009
 31
0.0
  0
LINE
  5
1817
  8
3
 10
88.399154264888637
 20
78.367000000000544
 30
0.0
 11
88.399154264888637
 21
108.0000000000003
 31
0.0
  0
LINE
  5
1818
  8
3
 10
88.399154264888637
 20
110.0000000000003
 30
0.0
 11
88.399154264888637
 21
110.1445630224547
 31
0.0
  0
LINE
  5
181A
  8
3
 10
84.26515426488821
 20
78.367000000000544
 30
0.0
 11
84.26515426488821
 21
108.0000000000003
 31
0.0
  0
LINE
  5
181B
  8
3
 10
84.26515426488821
 20
110.0000000000003
 30
0.0
 11
84.26515426488821
 21
110.39053488501909
 31
0.0
  0
LINE
  5
181D
  8
3
 10
178.39010139142891
 20
78.367000000000544
 30
0.0
 11
178.39010139142891
 21
108.0000000000003
 31
0.0
  0
LINE
  5
181E
  8
3
 10
178.39010139142891
 20
110.0000000000003
 30
0.0
 11
178.39010139142891
 21
110.9623438400003
 31
0.0
  0
LINE
  5
181F
  8
3
 10
178.39010139142891
 20
113.9623438400003
 30
0.0
 11
178.39010139142891
 21
114.7080479787782
 31
0.0
  0
LINE
  5
1820
  8
3
 10
174.2561013914285
 20
78.367000000000544
 30
0.0
 11
174.2561013914285
 21
108.0000000000003
 31
0.0
  0
LINE
  5
1821
  8
3
 10
174.2561013914285
 20
110.0000000000003
 30
0.0
 11
174.2561013914285
 21
110.9623438400003
 31
0.0
  0
LINE
  5
1822
  8
3
 10
174.2561013914285
 20
113.9623438400003
 30
0.0
 11
174.2561013914285
 21
114.70859458198331
 31
0.0
  0
CIRCLE
  5
1885
  8
3
 10
86.323749999999578
 20
38.000000000000341
 30
0.0
 40
2.0754042648890438
  0
ARC
  5
1886
  8
3
 10
86.323749999999578
 20
159.14726476226991
 30
0.0
 40
2.0754042648890438
 50
102.52263139998929
 51
257.47736860001061
  0
ARC
  5
1887
  8
3
 10
86.323749999999578
 20
159.14726476226991
 30
0.0
 40
2.0754042648890438
 50
282.52263139999138
 51
77.477368600007054
  0
LINE
  5
19B0
  8
0
 10
168.8208557110259
 20
117.6475371789537
 30
0.0
 11
169.32310139142859
 21
117.6475371789537
 31
0.0
  0
LINE
  5
19D6
  8
0
 10
168.82310139142859
 20
118.3364890090776
 30
0.0
 11
168.82310139142859
 21
117.6475371789537
 31
0.0
  0
ENDSEC
  0
EOF
