  0
SECTION
  2
HEADER
  9
$ACADVER
  1
AC1009
  9
$INSBASE
 10
0.0
 20
0.0
 30
0.0
  9
$EXTMIN
 10
0.0
 20
-308.14510668029988
 30
0.0
  9
$EXTMAX
 10
482.50000093132252
 20
215.30000001192099
 30
0.0
  9
$LIMMIN
 10
0.0
 20
0.0
  9
$LIMMAX
 10
187.5
 20
135.0
  9
$ORTHOMODE
 70
     1
  9
$REGENMODE
 70
     1
  9
$FILLMODE
 70
     1
  9
$QTEXTMODE
 70
     0
  9
$MIRRTEXT
 70
     0
  9
$DRAGMODE
 70
     2
  9
$LTSCALE
 40
5.0
  9
$OSMODE
 70
    37
  9
$ATTMODE
 70
     1
  9
$TEXTSIZE
 40
0.2
  9
$TRACEWID
 40
0.05
  9
$TEXTSTYLE
  7
STANDARD
  9
$CLAYER
  8
0
  9
$CELTYPE
  6
BYLAYER
  9
$CECOLOR
 62
   256
  9
$DIMSCALE
 40
1.0
  9
$DIMASZ
 40
3.0
  9
$DIMEXO
 40
2.0
  9
$DIMDLI
 40
0.3799999999999999
  9
$DIMRND
 40
0.0
  9
$DIMDLE
 40
0.0
  9
$DIMEXE
 40
2.0
  9
$DIMTP
 40
0.0
  9
$DIMTM
 40
0.0
  9
$DIMTXT
 40
3.2000000000000002
  9
$DIMCEN
 40
0.0
  9
$DIMTSZ
 40
0.0
  9
$DIMTOL
 70
     0
  9
$DIMLIM
 70
     0
  9
$DIMTIH
 70
     0
  9
$DIMTOH
 70
     0
  9
$DIMSE1
 70
     0
  9
$DIMSE2
 70
     0
  9
$DIMTAD
 70
     1
  9
$DIMZIN
 70
     8
  9
$DIMBLK
  1

  9
$DIMASO
 70
     0
  9
$DIMSHO
 70
     0
  9
$DIMPOST
  1

  9
$DIMAPOST
  1

  9
$DIMALT
 70
     0
  9
$DIMALTD
 70
     2
  9
$DIMALTF
 40
25.399999999999999
  9
$DIMLFAC
 40
1.0
  9
$DIMTOFL
 70
     0
  9
$DIMTVP
 40
1.6000000000000001
  9
$DIMTIX
 70
     1
  9
$DIMSOXD
 70
     0
  9
$DIMSAH
 70
     0
  9
$DIMBLK1
  1

  9
$DIMBLK2
  1

  9
$DIMSTYLE
  2
STANDARD
  9
$DIMCLRD
 70
     0
  9
$DIMCLRE
 70
     0
  9
$DIMCLRT
 70
     0
  9
$DIMTFAC
 40
1.0
  9
$DIMGAP
 40
1.0
  9
$LUNITS
 70
     2
  9
$LUPREC
 70
     1
  9
$SKETCHINC
 40
0.1
  9
$FILLETRAD
 40
0.4
  9
$AUNITS
 70
     0
  9
$AUPREC
 70
     1
  9
$MENU
  1
E:\r13\win\SUPPORT\ACAD
  9
$ELEVATION
 40
0.0
  9
$PELEVATION
 40
0.0
  9
$THICKNESS
 40
0.0
  9
$LIMCHECK
 70
     0
  9
$BLIPMODE
 70
     0
  9
$CHAMFERA
 40
0.5
  9
$CHAMFERB
 40
0.5
  9
$SKPOLY
 70
     0
  9
$TDCREATE
 40
2451824.7531229062
  9
$TDUPDATE
 40
2459191.655812419
  9
$TDINDWG
 40
1.7454324537000001
  9
$TDUSRTIMER
 40
1.7454322685000001
  9
$USRTIMER
 70
     1
  9
$ANGBASE
 50
0.0
  9
$ANGDIR
 70
     0
  9
$PDMODE
 70
     0
  9
$PDSIZE
 40
0.0
  9
$PLINEWID
 40
0.0
  9
$COORDS
 70
     1
  9
$SPLFRAME
 70
     0
  9
$SPLINETYPE
 70
     6
  9
$SPLINESEGS
 70
     8
  9
$ATTDIA
 70
     0
  9
$ATTREQ
 70
     1
  9
$HANDLING
 70
     1
  9
$HANDSEED
  5
13CB4
  9
$SURFTAB1
 70
     6
  9
$SURFTAB2
 70
     6
  9
$SURFTYPE
 70
     6
  9
$SURFU
 70
     6
  9
$SURFV
 70
     6
  9
$UCSNAME
  2

  9
$UCSORG
 10
0.0
 20
0.0
 30
0.0
  9
$UCSXDIR
 10
1.0
 20
0.0
 30
0.0
  9
$UCSYDIR
 10
0.0
 20
1.0
 30
0.0
  9
$PUCSNAME
  2

  9
$PUCSORG
 10
0.0
 20
0.0
 30
0.0
  9
$PUCSXDIR
 10
1.0
 20
0.0
 30
0.0
  9
$PUCSYDIR
 10
0.0
 20
1.0
 30
0.0
  9
$USERI1
 70
     0
  9
$USERI2
 70
     1
  9
$USERI3
 70
     0
  9
$USERI4
 70
     0
  9
$USERI5
 70
     0
  9
$USERR1
 40
0.0
  9
$USERR2
 40
0.0
  9
$USERR3
 40
0.0
  9
$USERR4
 40
0.0
  9
$USERR5
 40
0.0
  9
$WORLDVIEW
 70
     1
  9
$SHADEDGE
 70
     3
  9
$SHADEDIF
 70
    70
  9
$TILEMODE
 70
     1
  9
$MAXACTVP
 70
    16
  9
$PLIMCHECK
 70
     0
  9
$PEXTMIN
 10
1.0000000000000000E+020
 20
1.0000000000000000E+020
 30
1.0000000000000000E+020
  9
$PEXTMAX
 10
-1.0000000000000000E+020
 20
-1.0000000000000000E+020
 30
-1.0000000000000000E+020
  9
$PLIMMIN
 10
0.0
 20
0.0
  9
$PLIMMAX
 10
12.0
 20
9.0
  9
$UNITMODE
 70
     0
  9
$VISRETAIN
 70
     0
  9
$PLINEGEN
 70
     0
  9
$PSLTSCALE
 70
     0
  0
ENDSEC
  0
SECTION
  2
TABLES
  0
TABLE
  2
VPORT
 70
     1
  0
VPORT
  2
*ACTIVE
 70
     0
 10
0.0
 20
0.0
 11
1.0
 21
1.0
 12
362.34662576687123
 22
150.0
 13
0.0
 23
0.0
 14
5.0
 24
5.0
 15
5.0
 25
5.0
 16
0.0
 26
0.0
 36
1.0
 17
0.0
 27
0.0
 37
0.0
 40
300.0
 41
2.415644171779141
 42
50.0
 43
0.0
 44
0.0
 50
0.0
 51
0.0
 71
     0
 72
   500
 73
     1
 74
     0
 75
     0
 76
     0
 77
     0
 78
     0
  0
ENDTAB
  0
TABLE
  2
LTYPE
 70
     5
  0
LTYPE
  2
CONTINUOUS
 70
     0
  3
Solid Line
 72
    65
 73
     0
 40
0.0
  0
LTYPE
  2
CENTER
 70
     0
  3
____ _ ____ _ ____ _ ____ _ ____ _ ____ _ ____
 72
    65
 73
     4
 40
2.0
 49
1.25
 49
-0.25
 49
0.25
 49
-0.25
  0
LTYPE
  2
PHANTOM2
 70
     0
  3
___ _ _ ___ _ _ ___ _ _ ___ _ _
 72
    65
 73
     6
 40
1.25
 49
0.625
 49
-0.125
 49
0.125
 49
-0.125
 49
0.125
 49
-0.125
  0
LTYPE
  2
HIDDEN
 70
     0
  3
__ __ __ __ __ __ __ __ __ __ __ __ __ __ __ __
 72
    65
 73
     2
 40
0.375
 49
0.25
 49
-0.125
  0
LTYPE
  2
PHANTOM
 70
     0
  3
_____ _ _ _____ _ _ _____ _ _ _____ _ _ ____
 72
    65
 73
     6
 40
2.5
 49
1.25
 49
-0.25
 49
0.25
 49
-0.25
 49
0.25
 49
-0.25
  0
ENDTAB
  0
TABLE
  2
LAYER
 70
     6
  0
LAYER
  2
0
 70
     0
 62
     7
  6
CONTINUOUS
  0
LAYER
  2
1
 70
     0
 62
     1
  6
CENTER
  0
LAYER
  2
2
 70
     0
 62
     2
  6
HIDDEN
  0
LAYER
  2
5
 70
     0
 62
     3
  6
PHANTOM
  0
LAYER
  2
3
 70
     0
 62
     3
  6
CONTINUOUS
  0
LAYER
  2
DEFPOINTS
 70
     0
 62
     7
  6
CONTINUOUS
  0
ENDTAB
  0
TABLE
  2
STYLE
 70
     2
  0
STYLE
  2
STANDARD
 70
     0
 40
0.0
 41
1.0
 50
0.0
 71
     0
 42
0.2
  3
TXT
  4
BIGFONT
  0
STYLE
  2
STANDARD1
 70
     0
 40
0.0
 41
1.0
 50
0.0
 71
     0
 42
3.0
  3
txt
  4

  0
ENDTAB
  0
TABLE
  2
VIEW
 70
     0
  0
ENDTAB
  0
TABLE
  2
UCS
 70
     0
  0
ENDTAB
  0
TABLE
  2
APPID
 70
    11
  0
APPID
  2
ACAD
 70
     0
  0
APPID
  2
ACAD_MLEADERVER
 70
     0
  0
APPID
  2
ACAD_EXEMPT_FROM_CAD_STANDARDS
 70
     0
  0
APPID
  2
ACAD_DSTYLE_DIMJAG
 70
     0
  0
APPID
  2
ACAD_DSTYLE_DIMTALN
 70
     0
  0
APPID
  2
ACAD_NAV_VCDISPLAY
 70
     0
  0
APPID
  2
ACAD_PSEXT
 70
     0
  0
APPID
  2
ACADANNOTATIVE
 70
     0
  0
APPID
  2
ACAECLAYERSTANDARD
 70
     0
  0
APPID
  2
ACCMTRANSPARENCY
 70
     0
  0
APPID
  2
ACAD_DSTYLE_DIMRADIAL_EXTENSION
 70
     0
  0
ENDTAB
  0
TABLE
  2
DIMSTYLE
 70
     1
  0
DIMSTYLE
  2
STANDARD
 70
     0
  3

  4

  5

  6

  7

 40
1.0
 41
0.18
 42
0.0625
 43
0.38
 44
0.18
 45
0.0
 46
0.0
 47
0.0
 48
0.0
140
0.18
141
0.09
142
0.0
143
25.399999999999999
144
1.0
145
0.0
146
1.0
147
0.09
 71
     0
 72
     0
 73
     1
 74
     1
 75
     0
 76
     0
 77
     0
 78
     0
170
     0
171
     2
172
     0
173
     0
174
     0
175
     0
176
     0
177
     0
178
     0
  0
ENDTAB
  0
ENDSEC
  0
SECTION
  2
BLOCKS
  0
BLOCK
  8
0
  2
$MODEL_SPACE
 70
     0
 10
0.0
 20
0.0
 30
0.0
  3
$MODEL_SPACE
  1

  0
ENDBLK
  5
9
  8
0
  0
BLOCK
 67
     1
  8
0
  2
$PAPER_SPACE
 70
     0
 10
0.0
 20
0.0
 30
0.0
  3
$PAPER_SPACE
  1

  0
ENDBLK
  5
E
 67
     1
  8
0
  0
ENDSEC
  0
SECTION
  2
ENTITIES
  0
TEXT
  5
7FEA
  8
0
 62
     3
 10
135.0
 20
0.0
 30
0.0
 40
3.2000000000000002
  1
■サムターンクランパー ストロングの取付け方法〈オフを上にする場合〉(下図)
  0
TEXT
  5
7FEB
  8
0
 62
     3
 10
185.0866666666665
 20
-189.34136863427679
 30
0.0
 40
3.2000000000000002
  1
3mmのプレートに固定する場合
 72
     1
 11
212.49999999999989
 21
-189.7680353009435
 31
0.0
 73
     1
  0
TEXT
  5
8474
  8
0
 62
     3
 10
323.43333333333322
 20
-295.14510668029988
 30
0.0
 40
3.2000000000000002
  1
組付け状態
 72
     1
 11
332.49999999999989
 21
-295.14510668029988
 31
0.0
  0
TEXT
  5
8489
  8
0
 62
     3
 10
395.24666666666673
 20
-295.14510668029988
 30
0.0
 40
3.2000000000000002
  1
取付け穴
 72
     1
 11
402.5
 21
-295.14510668029988
 31
0.0
  0
TEXT
  5
87B9
  8
0
 62
     3
 10
0.0
 20
0.0
 30
0.0
 40
10.0
  1
QCTHS0825-20
  7
STANDARD1
  0
TEXT
  5
884B
  8
0
 62
     3
 10
135.0
 20
-7.0
 30
0.0
 40
3.2000000000000002
  1
■Installation Instructions for Heavy Duty Quarter-Turn Clamps〈For Y-axis Positioning of "OFF" Mark〉 (see diagram below)
  0
TEXT
  5
884C
  8
0
 62
     3
 10
153.77999999999989
 20
-196.34136863427679
 30
0.0
 40
3.2000000000000002
  1
For installation on plate of 3 mm thickness.
 72
     1
 11
212.49999999999989
 21
-196.7680353009435
 31
0.0
 73
     1
  0
TEXT
  5
884E
  8
0
 62
     3
 10
307.53999999999991
 20
-302.14510668029988
 30
0.0
 40
3.2000000000000002
  1
Installed condition
 72
     1
 11
332.49999999999989
 21
-302.14510668029988
 31
0.0
  0
TEXT
  5
884F
  8
0
 62
     3
 10
380.4733333333333
 20
-302.14510668029988
 30
0.0
 40
3.2000000000000002
  1
Installation hole
 72
     1
 11
402.5
 21
-302.14510668029988
 31
0.0
  0
LINE
  5
1060B
  8
0
 10
150.09999983012671
 20
113.80000030621891
 30
0.0
 11
150.09999983012671
 21
111.800000211224
 31
0.0
  0
LINE
  5
1060C
  8
0
 10
153.8999998942017
 20
111.800000211224
 30
0.0
 11
153.8999998942017
 21
113.80000030621891
 31
0.0
  0
LINE
  5
1060D
  8
0
 10
153.00000049173829
 20
113.80000030621891
 30
0.0
 11
153.00000049173829
 21
116.30000025033949
 31
0.0
  0
LINE
  5
1060E
  8
0
 10
151.00000016391269
 20
116.30000025033949
 30
0.0
 11
151.00000016391269
 21
113.80000030621891
 31
0.0
  0
LINE
  5
1060F
  8
0
 10
165.8500000834465
 20
113.80000030621891
 30
0.0
 11
165.8500000834465
 21
111.800000211224
 31
0.0
  0
LINE
  5
10610
  8
0
 10
169.6500001475215
 20
111.800000211224
 30
0.0
 11
169.6500001475215
 21
113.80000030621891
 31
0.0
  0
LINE
  5
10611
  8
0
 10
168.75000027939669
 20
113.80000030621891
 30
0.0
 11
168.75000027939669
 21
116.30000025033949
 31
0.0
  0
LINE
  5
10612
  8
0
 10
166.75000041723251
 20
116.30000025033949
 30
0.0
 11
166.75000041723251
 21
113.80000030621891
 31
0.0
  0
ARC
  5
10613
  8
0
 10
168.00252133638941
 20
142.51076846263879
 30
0.0
 40
2.4974856259058771
 50
359.87032919989213
 51
87.379702125490766
  0
ARC
  5
10614
  8
0
 10
156.99716843219159
 20
142.5110156551944
 30
0.0
 40
2.4971743928040659
 50
92.840799175244129
 51
180.1231358141475
  0
LINE
  5
10615
  8
0
 10
170.5000005662441
 20
137.53552865236989
 30
0.0
 11
170.5000005662441
 21
142.5051162019372
 31
0.0
  0
LINE
  5
10616
  8
0
 10
170.5000005662441
 20
132.59999956935641
 30
0.0
 11
170.5000005662441
 21
134.6641642972827
 31
0.0
  0
ARC
  5
10617
  8
0
 10
170.00000018626449
 20
132.6000001981854
 30
0.0
 40
0.5
 50
270.0
 51
0.0
  0
LINE
  5
10618
  8
0
 10
154.4999998062849
 20
134.6642145887017
 30
0.0
 11
154.4999998062849
 21
132.59999956935641
 31
0.0
  0
LINE
  5
10619
  8
0
 10
154.4999998062849
 20
142.50564891844979
 30
0.0
 11
154.4999998062849
 21
137.5358359888196
 31
0.0
  0
ARC
  5
1061A
  8
0
 10
155.00000018626449
 20
132.6000001981854
 30
0.0
 40
0.5
 50
180.0
 51
270.0
  0
LINE
  5
1061B
  8
0
 10
162.50000018626449
 20
145.300000347197
 30
0.0
 11
156.87340600416061
 21
145.005121268332
 31
0.0
  0
LINE
  5
1061C
  8
0
 10
168.11669860035181
 20
145.00564280897379
 30
0.0
 11
162.50000018626449
 21
145.300000347197
 31
0.0
  0
LINE
  5
1061D
  8
0
 10
155.00000035390249
 20
132.1000004187226
 30
0.0
 11
155.00000035390249
 21
130.80000076442951
 31
0.0
  0
LINE
  5
1061E
  8
0
 10
170.00000001862639
 20
130.80000076442951
 30
0.0
 11
170.00000001862639
 21
132.1000004187226
 31
0.0
  0
ARC
  5
1061F
  8
0
 10
150.25400496361419
 20
111.6312004974549
 30
0.0
 40
12.74695575248812
 50
313.75291427815461
 51
318.3123486220257
  0
LINE
  5
10620
  8
0
 10
166.50000037625429
 20
105.471371114254
 30
0.0
 11
166.50000037625429
 21
110.8000002219342
 31
0.0
  0
LINE
  5
10621
  8
0
 10
158.49999999627471
 20
110.8000002219342
 30
0.0
 11
158.49999999627471
 21
105.471371114254
 31
0.0
  0
LINE
  5
10622
  8
0
 10
175.000000372529
 20
116.80000033229589
 30
0.0
 11
175.000000372529
 21
128.99401541799301
 31
0.0
  0
LINE
  5
10623
  8
0
 10
150.0
 20
128.99401541799301
 30
0.0
 11
150.0
 21
116.80000033229589
 31
0.0
  0
LINE
  5
10624
  8
0
 10
150.0
 20
116.80000033229589
 30
0.0
 11
150.50000008195639
 21
116.30000025033949
 31
0.0
  0
LINE
  5
10625
  8
0
 10
174.50000029057259
 20
116.30000025033949
 30
0.0
 11
175.000000372529
 21
116.80000033229589
 31
0.0
  0
ARC
  5
10626
  8
0
 10
150.50000018626449
 20
128.99401549201571
 30
0.0
 40
0.5
 50
109.9999999999965
 51
180.0
  0
ARC
  5
10627
  8
0
 10
174.50000018626449
 20
128.99401549201571
 30
0.0
 40
0.5
 50
0.0
 51
69.999999999996504
  0
LINE
  5
1062A
  8
0
 10
153.99999972432849
 20
130.80000076442951
 30
0.0
 11
150.32898969948289
 21
129.4638620689511
 31
0.0
  0
ARC
  5
1062B
  8
0
 10
169.90000018626441
 20
115.9000001981854
 30
0.0
 40
0.4000000000000057
 50
90.0
 51
180.0
  0
ARC
  5
1062C
  8
0
 10
155.1000001862644
 20
115.9000001981854
 30
0.0
 40
0.4000000000000057
 50
0.0
 51
90.0
  0
LINE
  5
1062D
  8
0
 10
168.50000023841849
 20
110.8000002219342
 30
0.0
 11
169.5000004023313
 21
111.800000211224
 31
0.0
  0
LINE
  5
1062E
  8
0
 10
169.5000004023313
 20
113.80000030621891
 30
0.0
 11
169.5000004023313
 21
115.8999999985099
 31
0.0
  0
LINE
  5
1062F
  8
0
 10
155.49999997019759
 20
115.8999999985099
 30
0.0
 11
155.49999997019759
 21
114.6000003442168
 31
0.0
  0
LINE
  5
10633
  8
0
 10
150.09999983012671
 20
113.80000030621891
 30
0.0
 11
153.8999998942017
 21
113.80000030621891
 31
0.0
  0
LINE
  5
10634
  8
0
 10
150.09999983012671
 20
111.800000211224
 30
0.0
 11
153.8999998942017
 21
111.800000211224
 31
0.0
  0
LINE
  5
10635
  8
0
 10
165.8500000834465
 20
113.80000030621891
 30
0.0
 11
169.6500001475215
 21
113.80000030621891
 31
0.0
  0
ARC
  5
10642
  8
0
 10
189.42744695634121
 20
136.0998464748254
 30
0.0
 40
18.981817883567381
 50
175.6623142995893
 51
184.33768570040661
  0
LINE
  5
10643
  8
0
 10
170.00000001862639
 20
132.1000004187226
 30
0.0
 11
155.00000035390249
 21
132.1000004187226
 31
0.0
  0
ARC
  5
10644
  8
0
 10
135.53248668628919
 20
136.10208098983841
 30
0.0
 40
19.021935068355351
 50
355.66488199763091
 51
359.99373510751337
  0
POLYLINE
  5
10646
  8
0
 66
     1
 10
0.0
 20
0.0
 30
0.0
 70
   128
  0
VERTEX
  5
137C4
  8
0
 10
154.4999998062849
 20
137.5358359888196
 30
0.0
  0
VERTEX
  5
137C5
  8
0
 10
154.5079924166202
 20
137.42608893662691
 30
0.0
  0
VERTEX
  5
137C6
  8
0
 10
154.52722702175379
 20
137.1146434918046
 30
0.0
  0
VERTEX
  5
137C7
  8
0
 10
154.54645231366149
 20
136.64914611726999
 30
0.0
  0
VERTEX
  5
137C8
  8
0
 10
154.55235503613949
 20
136.37961391359559
 30
0.0
  0
VERTEX
  5
137C9
  8
0
 10
154.5544216409325
 20
136.10000107437369
 30
0.0
  0
SEQEND
  5
137CA
  8
0
  0
ARC
  5
10649
  8
0
 10
166.97223739415989
 20
84.945700439119705
 30
0.0
 40
19.018590479542521
 50
101.0419481548431
 51
115.4950308153058
  0
LINE
  5
1064A
  8
0
 10
159.06915962696081
 20
102.42370739579211
 30
0.0
 11
158.78601195290679
 21
102.1123103797436
 31
0.0
  0
ARC
  5
1064C
  8
0
 10
172.44090942661819
 20
103.6033547231508
 30
0.0
 40
6.22767095968684
 50
162.54514452101171
 51
179.11080688118139
  0
LINE
  5
1064D
  8
0
 10
166.21398841962221
 20
103.7000002339482
 30
0.0
 11
166.21398841962221
 21
102.0000003278255
 31
0.0
  0
LINE
  5
1064E
  8
0
 10
158.78601195290679
 20
102.0000003278255
 30
0.0
 11
166.21398841962221
 21
102.0000003278255
 31
0.0
  0
LINE
  5
10650
  8
0
 10
163.3296519052237
 20
103.6122039891779
 30
0.0
 11
163.7429389869794
 21
103.6122039891779
 31
0.0
  0
POLYLINE
  5
10651
  8
0
 66
     1
 10
0.0
 20
0.0
 30
0.0
 70
   128
  0
VERTEX
  5
137CB
  8
0
 10
163.7429389869794
 20
103.6122039891779
 30
0.0
  0
VERTEX
  5
137CC
  8
0
 10
163.94002302549779
 20
103.5560671240091
 30
0.0
  0
VERTEX
  5
137CD
  8
0
 10
164.09247610718009
 20
103.511662594974
 30
0.0
  0
SEQEND
  5
137CE
  8
0
  0
LINE
  5
10652
  8
0
 10
164.09247610718009
 20
103.511662594974
 30
0.0
 11
164.095798600465
 21
103.5102679394185
 31
0.0
  0
POLYLINE
  5
10653
  8
0
 66
     1
 10
0.0
 20
0.0
 30
0.0
 70
   128
  0
VERTEX
  5
137CF
  8
0
 10
164.095798600465
 20
103.5102679394185
 30
0.0
  0
VERTEX
  5
137D0
  8
0
 10
164.22841346357009
 20
103.46387596800921
 30
0.0
  0
VERTEX
  5
137D1
  8
0
 10
164.61090380325911
 20
103.431957680732
 30
0.0
  0
VERTEX
  5
137D2
  8
0
 10
164.72144364379341
 20
103.4530078992248
 30
0.0
  0
VERTEX
  5
137D3
  8
0
 10
165.0524287018925
 20
103.6183027550578
 30
0.0
  0
VERTEX
  5
137D4
  8
0
 10
165.30695590190589
 20
103.8977884687483
 30
0.0
  0
VERTEX
  5
137D5
  8
0
 10
165.5110550113022
 20
104.3257190845907
 30
0.0
  0
VERTEX
  5
137D6
  8
0
 10
165.6296335626393
 20
104.9051232635975
 30
0.0
  0
VERTEX
  5
137D7
  8
0
 10
165.62273129820821
 20
105.5529582314193
 30
0.0
  0
VERTEX
  5
137D8
  8
0
 10
165.47725987620649
 20
106.1615537852049
 30
0.0
  0
VERTEX
  5
137D9
  8
0
 10
165.34924213774499
 20
106.4277397468686
 30
0.0
  0
VERTEX
  5
137DA
  8
0
 10
165.18171117641029
 20
106.65519712492819
 30
0.0
  0
VERTEX
  5
137DB
  8
0
 10
164.87848628312349
 20
106.8828021176159
 30
0.0
  0
SEQEND
  5
137DC
  8
0
  0
POLYLINE
  5
10654
  8
0
 66
     1
 10
0.0
 20
0.0
 30
0.0
 70
   128
  0
VERTEX
  5
137DD
  8
0
 10
164.87848628312349
 20
106.8828021176159
 30
0.0
  0
VERTEX
  5
137DE
  8
0
 10
164.87684436142439
 20
106.8837797734886
 30
0.0
  0
VERTEX
  5
137DF
  8
0
 10
164.87541082315141
 20
106.8842608015984
 30
0.0
  0
SEQEND
  5
137E0
  8
0
  0
POLYLINE
  5
10655
  8
0
 66
     1
 10
0.0
 20
0.0
 30
0.0
 70
   128
  0
VERTEX
  5
137E1
  8
0
 10
164.87541082315141
 20
106.8842608015984
 30
0.0
  0
VERTEX
  5
137E2
  8
0
 10
164.87225317396221
 20
106.8857432343066
 30
0.0
  0
VERTEX
  5
137E3
  8
0
 10
164.6687435917556
 20
106.951899966225
 30
0.0
  0
SEQEND
  5
137E4
  8
0
  0
POLYLINE
  5
10656
  8
0
 66
     1
 10
0.0
 20
0.0
 30
0.0
 70
   128
  0
VERTEX
  5
137E5
  8
0
 10
164.6687435917556
 20
106.951899966225
 30
0.0
  0
VERTEX
  5
137E6
  8
0
 10
164.45576571859419
 20
107.01837311498819
 30
0.0
  0
VERTEX
  5
137E7
  8
0
 10
164.28391365334389
 20
107.0698582567275
 30
0.0
  0
SEQEND
  5
137E8
  8
0
  0
POLYLINE
  5
10657
  8
0
 66
     1
 10
0.0
 20
0.0
 30
0.0
 70
   128
  0
VERTEX
  5
137E9
  8
0
 10
163.86808080133051
 20
107.1549455169588
 30
0.0
  0
VERTEX
  5
137EA
  8
0
 10
163.9773478731513
 20
107.1493715513498
 30
0.0
  0
VERTEX
  5
137EB
  8
0
 10
164.28391365334389
 20
107.0698582567275
 30
0.0
  0
SEQEND
  5
137EC
  8
0
  0
LINE
  5
10658
  8
0
 10
163.86808080133051
 20
107.1549455169588
 30
0.0
 11
163.1945929024368
 21
107.1549455169588
 31
0.0
  0
POLYLINE
  5
10659
  8
0
 66
     1
 10
0.0
 20
0.0
 30
0.0
 70
   128
  0
VERTEX
  5
137ED
  8
0
 10
162.7451733278576
 20
107.0698582567275
 30
0.0
  0
VERTEX
  5
137EE
  8
0
 10
162.94862481881859
 20
107.1296417154372
 30
0.0
  0
VERTEX
  5
137EF
  8
0
 10
163.19459325168279
 20
107.1549329441041
 30
0.0
  0
SEQEND
  5
137F0
  8
0
  0
POLYLINE
  5
1065A
  8
0
 66
     1
 10
0.0
 20
0.0
 30
0.0
 70
   128
  0
VERTEX
  5
137F1
  8
0
 10
158.5399402305483
 20
105.471371114254
 30
0.0
  0
VERTEX
  5
137F2
  8
0
 10
158.7434519082307
 20
105.6969518773258
 30
0.0
  0
VERTEX
  5
137F3
  8
0
 10
159.1084276791662
 20
105.9188520535827
 30
0.0
  0
VERTEX
  5
137F4
  8
0
 10
159.62242856621739
 20
106.14384235814209
 30
0.0
  0
VERTEX
  5
137F5
  8
0
 10
160.25946601293981
 20
106.36661192402239
 30
0.0
  0
VERTEX
  5
137F6
  8
0
 10
161.0319871455431
 20
106.6014628391713
 30
0.0
  0
VERTEX
  5
137F7
  8
0
 10
161.87339908210561
 20
106.83543109335
 30
0.0
  0
VERTEX
  5
137F8
  8
0
 10
162.7451733278576
 20
107.0698582567275
 30
0.0
  0
SEQEND
  5
137F9
  8
0
  0
LINE
  5
1065B
  8
0
 10
158.5399402305483
 20
105.471371114254
 30
0.0
 11
158.49999999627471
 21
105.471371114254
 31
0.0
  0
ARC
  5
1065C
  8
0
 10
152.58781538651061
 20
103.60799267534389
 30
0.0
 40
6.1988794202278781
 50
0.8504502206122452
 51
17.49359837719507
  0
LINE
  5
1065D
  8
0
 10
158.78601195290679
 20
103.7000002339482
 30
0.0
 11
158.7860119529067
 21
102.0000003278255
 31
0.0
  0
POLYLINE
  5
1065E
  8
0
 66
     1
 10
0.0
 20
0.0
 30
0.0
 70
   128
  0
VERTEX
  5
137FA
  8
0
 10
158.5399402305483
 20
105.471371114254
 30
0.0
  0
VERTEX
  5
137FB
  8
0
 10
159.13155917078251
 20
104.8712096177041
 30
0.0
  0
VERTEX
  5
137FC
  8
0
 10
159.73083847202361
 20
104.2695184238255
 30
0.0
  0
SEQEND
  5
137FD
  8
0
  0
LINE
  5
10662
  8
0
 10
159.0477399062365
 20
100.7411809638143
 30
0.0
 11
158.78601195290679
 21
102.0000003278255
 31
0.0
  0
LINE
  5
10663
  8
0
 10
166.21398841962221
 20
102.0000003278255
 30
0.0
 11
165.9522604662925
 21
100.7411809638143
 31
0.0
  0
LINE
  5
1066C
  8
0
 10
165.166993252933
 20
100.0
 30
0.0
 11
159.833007119596
 21
100.0
 31
0.0
  0
POLYLINE
  5
1066D
  8
0
 66
     1
 10
0.0
 20
0.0
 30
0.0
 70
   128
  0
VERTEX
  5
137FE
  8
0
 10
159.833007119596
 20
100.0
 30
0.0
  0
VERTEX
  5
137FF
  8
0
 10
159.83247859403491
 20
100.0
 30
0.0
  0
VERTEX
  5
13800
  8
0
 10
159.70568554475901
 20
100.0119647011161
 30
0.0
  0
SEQEND
  5
13801
  8
0
  0
ARC
  5
1066E
  8
0
 10
159.9417750399742
 20
100.8864082603362
 30
0.0
 40
0.9057537126683503
 50
189.22655123109939
 51
254.89105181565921
  0
ARC
  5
1066F
  8
0
 10
165.08890555203351
 20
100.8587266004122
 30
0.0
 40
0.8713200816336721
 50
283.63553682816979
 51
352.2468601250734
  0
LINE
  5
10670
  8
0
 10
165.29431482776999
 20
100.0119647011161
 30
0.0
 11
165.166993252933
 21
100.0
 31
0.0
  0
ARC
  5
10676
  8
0
 10
159.15094272293641
 20
103.6781310166736
 30
0.0
 40
0.8282383319073717
 50
1.5130421379936561
 51
45.186342064513887
  0
LINE
  5
10677
  8
0
 10
159.73083847202361
 20
104.2695184238255
 30
0.0
 11
159.73468786105511
 21
104.2656855657697
 31
0.0
  0
ARC
  5
1067E
  8
0
 10
159.24586781494131
 20
103.6640250049345
 30
0.0
 40
0.7339067283369956
 50
315.93261558501001
 51
2.8096964803820619
  0
LINE
  5
1068A
  8
0
 10
174.5000002905725
 20
116.30000025033949
 30
0.0
 11
150.50000008195639
 21
116.30000025033949
 31
0.0
  0
ARC
  5
1068C
  8
0
 10
172.78406755637951
 20
133.80880664662101
 30
0.0
 40
3.8656373069179049
 50
238.28560885219599
 51
250.65017179234539
  0
ARC
  5
1068D
  8
0
 10
174.90180188971931
 20
138.73847509705621
 30
0.0
 40
9.2257367401271964
 50
248.38440062488959
 51
255.04873425125359
  0
ARC
  5
1068E
  8
0
 10
173.2477484586131
 20
132.23314593453739
 30
0.0
 40
2.5151822350650139
 50
253.21916255976029
 51
266.31870322984832
  0
POLYLINE
  5
1068F
  8
0
 66
     1
 10
0.0
 20
0.0
 30
0.0
 70
   128
  0
VERTEX
  5
13802
  8
0
 10
173.0878666043281
 20
129.82514072209591
 30
0.0
  0
VERTEX
  5
13803
  8
0
 10
173.14808126538989
 20
129.78147659450769
 30
0.0
  0
VERTEX
  5
13804
  8
0
 10
173.16321153193709
 20
129.73608952015641
 30
0.0
  0
VERTEX
  5
13805
  8
0
 10
173.08625727891919
 20
129.72315344959489
 30
0.0
  0
SEQEND
  5
13806
  8
0
  0
ARC
  5
10690
  8
0
 10
170.45793251600909
 20
124.9575472590974
 30
0.0
 40
5.5326322333885019
 50
61.617890182603283
 51
70.150087057942073
  0
ARC
  5
10691
  8
0
 10
167.10818761659081
 20
116.954506090927
 30
0.0
 40
14.20421435413814
 50
68.402293870389897
 51
72.758821206865193
  0
ARC
  5
10692
  8
0
 10
170.5644055695827
 20
128.39200181180291
 30
0.0
 40
2.2580101172036122
 50
70.49746089756141
 51
85.194473018991374
  0
POLYLINE
  5
10693
  8
0
 66
     1
 10
0.0
 20
0.0
 30
0.0
 70
   128
  0
VERTEX
  5
13807
  8
0
 10
170.75195871293539
 20
130.52038978785271
 30
0.0
  0
VERTEX
  5
13808
  8
0
 10
170.6699138507247
 20
130.61109874397511
 30
0.0
  0
VERTEX
  5
13809
  8
0
 10
170.69074288010589
 20
130.63422907143831
 30
0.0
  0
VERTEX
  5
1380A
  8
0
 10
170.75356803834441
 20
130.64207453280679
 30
0.0
  0
SEQEND
  5
1380B
  8
0
  0
LINE
  5
10697
  8
0
 10
171.00000064820051
 20
130.80000076442951
 30
0.0
 11
153.9999997243286
 21
130.80000076442951
 31
0.0
  0
LINE
  5
10698
  8
0
 10
169.18054698035121
 20
130.62392491847271
 30
0.0
 11
171.43923379480839
 21
129.91131227463481
 31
0.0
  0
LINE
  5
10699
  8
0
 10
168.95532151684159
 20
130.61280306428671
 30
0.0
 11
169.18054698035121
 21
130.62392491847271
 31
0.0
  0
LINE
  5
1069A
  8
0
 10
170.9040557965636
 20
129.71283439546821
 30
0.0
 11
168.95532151684159
 21
130.61280306428671
 31
0.0
  0
LINE
  5
1069B
  8
0
 10
171.1207009851932
 20
129.72121257334939
 30
0.0
 11
170.9040557965636
 21
129.71283439546821
 31
0.0
  0
LINE
  5
1069C
  8
0
 10
169.5821984671056
 20
130.4336482658982
 30
0.0
 11
171.1207009851932
 21
129.72121257334939
 31
0.0
  0
LINE
  5
1069D
  8
0
 10
171.83123305439949
 20
129.7217620536685
 30
0.0
 11
169.5821984671056
 21
130.4336482658982
 31
0.0
  0
LINE
  5
1069E
  8
0
 10
172.06611074507231
 20
129.71269842237231
 30
0.0
 11
171.83123305439949
 21
129.7217620536685
 31
0.0
  0
LINE
  5
1069F
  8
0
 10
170.11737646535039
 20
130.61265591531989
 30
0.0
 11
172.06611074507231
 21
129.71269842237231
 31
0.0
  0
LINE
  5
106A0
  8
0
 10
169.90073127672071
 20
130.62350396066901
 30
0.0
 11
170.11737646535039
 21
130.61265591531989
 31
0.0
  0
LINE
  5
106A1
  8
0
 10
171.43923379480839
 20
129.91131227463481
 30
0.0
 11
169.90073127672071
 21
130.62350396066901
 31
0.0
  0
LINE
  5
106A8
  8
0
 10
168.50000023841849
 20
110.8000002219342
 30
0.0
 11
156.6016954369843
 21
110.8000002219342
 31
0.0
  0
LINE
  5
106A9
  8
0
 10
156.6016954369843
 20
110.8000002219342
 30
0.0
 11
155.58696920052171
 21
111.800000211224
 31
0.0
  0
LINE
  5
106AA
  8
0
 10
155.58696920052171
 20
111.800000211224
 30
0.0
 11
169.65000014752141
 21
111.800000211224
 31
0.0
  0
LINE
  5
106AB
  8
0
 10
155.58696920052171
 20
114.6000003442168
 30
0.0
 11
155.49999997019759
 21
114.6000003442168
 31
0.0
  0
LINE
  5
106AC
  8
0
 10
155.58696920052171
 20
114.6000003442168
 30
0.0
 11
155.58696920052171
 21
111.800000211224
 31
0.0
  0
ARC
  5
106BA
  8
0
 10
174.5027776116751
 20
137.26980881843241
 30
0.0
 40
7.6538828804564263
 50
248.00960218264709
 51
254.3781394116557
  0
ARC
  5
106BD
  8
0
 10
172.9601321857165
 20
133.84216043492069
 30
0.0
 40
3.9007301117945432
 50
240.18390537938271
 51
250.1682274395933
  0
POLYLINE
  5
106BE
  8
0
 66
     1
 10
0.0
 20
0.0
 30
0.0
 70
   128
  0
VERTEX
  5
1380C
  8
0
 10
171.00828662514681
 20
130.54178226739171
 30
0.0
  0
VERTEX
  5
1380D
  8
0
 10
170.96886187791819
 20
130.5360360071063
 30
0.0
  0
VERTEX
  5
1380E
  8
0
 10
170.96431888639921
 20
130.5078877136111
 30
0.0
  0
VERTEX
  5
1380F
  8
0
 10
171.0206201300025
 20
130.45778628438711
 30
0.0
  0
SEQEND
  5
13810
  8
0
  0
ARC
  5
106BF
  8
0
 10
170.88213149253511
 20
129.00859803435361
 30
0.0
 40
1.538365694469499
 50
70.401487738076284
 51
85.296123130424263
  0
ARC
  5
106C0
  8
0
 10
168.53609167989771
 20
121.09500215929241
 30
0.0
 40
9.7905089070963651
 50
68.003960719976661
 51
73.002560474594503
  0
ARC
  5
106C1
  8
0
 10
170.49134106675791
 20
125.49639550803781
 30
0.0
 40
4.9798850672324617
 50
62.130883323685559
 51
69.895999792608691
  0
POLYLINE
  5
106C2
  8
0
 66
     1
 10
0.0
 20
0.0
 30
0.0
 70
   128
  0
VERTEX
  5
13811
  8
0
 10
172.83153869211671
 20
129.82344571501011
 30
0.0
  0
VERTEX
  5
13812
  8
0
 10
172.87096437066791
 20
129.82850093394521
 30
0.0
  0
VERTEX
  5
13813
  8
0
 10
172.87525404244661
 20
129.85385525971651
 30
0.0
  0
VERTEX
  5
13814
  8
0
 10
172.8192051872611
 20
129.89870216697449
 30
0.0
  0
SEQEND
  5
13815
  8
0
  0
ARC
  5
106C3
  8
0
 10
172.9471005631155
 20
131.47037047658739
 30
0.0
 40
1.6509741719133451
 50
252.17370947641081
 51
265.98623268797172
  0
LINE
  5
106F2
  8
0
 10
150.32898969948289
 20
129.4638620689511
 30
0.0
 11
174.67101067304611
 21
129.4638620689511
 31
0.0
  0
ARC
  5
106F8
  8
0
 10
162.50000018626449
 20
195.30000034719691
 30
0.0
 40
10.5
 50
14.82328171562259
 51
45.176718284372747
  0
LINE
  5
106FF
  8
0
 10
170.60660871312049
 20
203.4567704305268
 30
0.0
 11
169.9016862325243
 21
202.74748607545459
 31
0.0
  0
LINE
  5
10700
  8
0
 10
171.46575246909009
 20
194.51559866246799
 30
0.0
 11
173.617274554685
 21
198.2421442283248
 31
0.0
  0
LINE
  5
10701
  8
0
 10
173.617274554685
 20
198.2421442283248
 30
0.0
 11
172.6505550443876
 21
197.9863056299659
 31
0.0
  0
ARC
  5
10702
  8
0
 10
174.4003903264238
 20
195.300000347197
 30
0.0
 40
19.900275037952721
 50
134.76106702058951
 51
225.238932979411
  0
ARC
  5
10708
  8
0
 10
150.59961004610511
 20
195.300000347197
 30
0.0
 40
19.90027503795271
 50
314.76106702058951
 51
45.23893297941045
  0
ARC
  5
1070F
  8
0
 10
162.49999976916251
 20
207.29999960732411
 30
0.0
 40
3.0000005536057932
 50
95.999990906918356
 51
134.76025004270119
  0
POLYLINE
  5
10710
  8
0
 66
     1
 10
0.0
 20
0.0
 30
0.0
 70
   128
  0
VERTEX
  5
13816
  8
0
 10
162.1864147949963
 20
210.28356589376929
 30
0.0
  0
VERTEX
  5
13817
  8
0
 10
162.19424942974001
 20
210.2839766070247
 30
0.0
  0
VERTEX
  5
13818
  8
0
 10
162.21635870751919
 20
210.28513517230749
 30
0.0
  0
VERTEX
  5
13819
  8
0
 10
162.25089817307889
 20
210.28694566339249
 30
0.0
  0
VERTEX
  5
1381A
  8
0
 10
162.29715175577439
 20
210.2893698960543
 30
0.0
  0
VERTEX
  5
1381B
  8
0
 10
162.3518929904094
 20
210.29223836958411
 30
0.0
  0
VERTEX
  5
1381C
  8
0
 10
162.40814824268449
 20
210.29518693685529
 30
0.0
  0
VERTEX
  5
1381D
  8
0
 10
162.45593262137839
 20
210.29769126325851
 30
0.0
  0
VERTEX
  5
1381E
  8
0
 10
162.48705665875599
 20
210.29932200908661
 30
0.0
  0
VERTEX
  5
1381F
  8
0
 10
162.49954278529231
 20
210.29997672885659
 30
0.0
  0
VERTEX
  5
13820
  8
0
 10
162.50000018626449
 20
210.3000000119209
 30
0.0
  0
SEQEND
  5
13821
  8
0
  0
POLYLINE
  5
10712
  8
0
 66
     1
 10
0.0
 20
0.0
 30
0.0
 70
   128
  0
VERTEX
  5
13822
  8
0
 10
162.50000018626449
 20
210.3000000119209
 30
0.0
  0
VERTEX
  5
13823
  8
0
 10
162.50769402940929
 20
210.29959674924609
 30
0.0
  0
VERTEX
  5
13824
  8
0
 10
162.5295455527521
 20
210.29845215380189
 30
0.0
  0
VERTEX
  5
13825
  8
0
 10
162.5634938522125
 20
210.2966723963618
 30
0.0
  0
VERTEX
  5
13826
  8
0
 10
162.6087168318918
 20
210.29430311173201
 30
0.0
  0
VERTEX
  5
13827
  8
0
 10
162.66240786935671
 20
210.29148865491149
 30
0.0
  0
VERTEX
  5
13828
  8
0
 10
162.7183555887313
 20
210.2885568514466
 30
0.0
  0
VERTEX
  5
13829
  8
0
 10
162.7670264046173
 20
210.28600595891481
 30
0.0
  0
VERTEX
  5
1382A
  8
0
 10
162.79959105886519
 20
210.28429977595809
 30
0.0
  0
VERTEX
  5
1382B
  8
0
 10
162.81301255221479
 20
210.2835956960916
 30
0.0
  0
VERTEX
  5
1382C
  8
0
 10
162.81358557753259
 20
210.28356589376929
 30
0.0
  0
SEQEND
  5
1382D
  8
0
  0
ARC
  5
10713
  8
0
 10
162.50001122569691
 20
207.30002199794629
 30
0.0
 40
2.9999771753184148
 50
45.239592895263243
 51
84.000166155116247
  0
POLYLINE
  5
10714
  8
0
 66
     1
 10
0.0
 20
0.0
 30
0.0
 70
   128
  0
VERTEX
  5
1382E
  8
0
 10
162.50000018626449
 20
180.30000068247321
 30
0.0
  0
VERTEX
  5
1382F
  8
0
 10
162.49230634311971
 20
180.30040394514799
 30
0.0
  0
VERTEX
  5
13830
  8
0
 10
162.4704548197769
 20
180.30154854059219
 30
0.0
  0
VERTEX
  5
13831
  8
0
 10
162.43650652031641
 20
180.30332829803231
 30
0.0
  0
VERTEX
  5
13832
  8
0
 10
162.3912835406372
 20
180.30569758266211
 30
0.0
  0
VERTEX
  5
13833
  8
0
 10
162.33759250317229
 20
180.30851203948259
 30
0.0
  0
VERTEX
  5
13834
  8
0
 10
162.28164478379759
 20
180.31144384294751
 30
0.0
  0
VERTEX
  5
13835
  8
0
 10
162.23297396791159
 20
180.3139947354793
 30
0.0
  0
VERTEX
  5
13836
  8
0
 10
162.20040931366381
 20
180.31570091843599
 30
0.0
  0
VERTEX
  5
13837
  8
0
 10
162.18698782031419
 20
180.3164049983024
 30
0.0
  0
VERTEX
  5
13838
  8
0
 10
162.1864147949963
 20
180.31643480062479
 30
0.0
  0
SEQEND
  5
13839
  8
0
  0
ARC
  5
10715
  8
0
 10
162.49998914683209
 20
183.29997869644771
 30
0.0
 40
2.9999771753184228
 50
225.2395928952632
 51
264.00016615511629
  0
ARC
  5
10717
  8
0
 10
162.50000060336649
 20
183.30000108707
 30
0.0
 40
3.0000005536057772
 50
275.99999090692489
 51
314.76025004270173
  0
POLYLINE
  5
10718
  8
0
 66
     1
 10
0.0
 20
0.0
 30
0.0
 70
   128
  0
VERTEX
  5
1383A
  8
0
 10
162.81358557753259
 20
180.31643480062479
 30
0.0
  0
VERTEX
  5
1383B
  8
0
 10
162.80575094278899
 20
180.31602408736941
 30
0.0
  0
VERTEX
  5
1383C
  8
0
 10
162.7836416650097
 20
180.31486552208659
 30
0.0
  0
VERTEX
  5
1383D
  8
0
 10
162.74910219945011
 20
180.31305503100151
 30
0.0
  0
VERTEX
  5
1383E
  8
0
 10
162.70284861675461
 20
180.31063079833979
 30
0.0
  0
VERTEX
  5
1383F
  8
0
 10
162.6481073821196
 20
180.30776232481
 30
0.0
  0
VERTEX
  5
13840
  8
0
 10
162.59185212984451
 20
180.3048137575388
 30
0.0
  0
VERTEX
  5
13841
  8
0
 10
162.54406775115049
 20
180.3023094311356
 30
0.0
  0
VERTEX
  5
13842
  8
0
 10
162.51294371377301
 20
180.3006786853075
 30
0.0
  0
VERTEX
  5
13843
  8
0
 10
162.5004575872367
 20
180.30002396553749
 30
0.0
  0
VERTEX
  5
13844
  8
0
 10
162.50000018626449
 20
180.30000068247321
 30
0.0
  0
SEQEND
  5
13845
  8
0
  0
ARC
  5
10719
  8
0
 10
171.93797746917451
 20
191.62033335668119
 30
0.0
 40
1.3031428235698099
 50
204.47780439546119
 51
250.5124500183133
  0
ARC
  5
1071A
  8
0
 10
172.06653602305161
 20
191.60782055465239
 30
0.0
 40
1.340111248913854
 50
245.14454479496271
 51
289.8501581985077
  0
ARC
  5
1071B
  8
0
 10
172.14218246296349
 20
191.2896210261394
 30
0.0
 40
1.015801597397864
 50
291.9317432965172
 51
338.33976845122982
  0
ARC
  5
1071C
  8
0
 10
172.1555839090158
 20
191.31660333554191
 30
0.0
 40
1.0137503503559639
 50
336.64262993368698
 51
23.126876190036999
  0
ARC
  5
1071D
  8
0
 10
171.8999167537649
 20
191.17176111634231
 30
0.0
 40
1.30617238500415
 50
24.565123812286998
 51
70.469616003259233
  0
ARC
  5
1071E
  8
0
 10
171.77222600224491
 20
191.1777736592353
 30
0.0
 40
1.3487548659898041
 50
65.264800981802807
 51
109.66968001741419
  0
ARC
  5
1071F
  8
0
 10
171.69719978426971
 20
191.50598038529611
 30
0.0
 40
1.0152272206534649
 50
111.9178397842922
 51
158.35364845065621
  0
ARC
  5
10720
  8
0
 10
171.68264470716369
 20
191.47856069869869
 30
0.0
 40
1.012283421926794
 50
156.60696664252481
 51
203.16253948119581
  0
LINE
  5
10725
  8
0
 10
170.6066090613603
 20
203.45677025616169
 30
0.0
 11
168.7340900301933
 21
203.45677025616169
 31
0.0
  0
ARC
  5
10726
  8
0
 10
162.50000018626449
 20
195.300000347197
 30
0.0
 40
8.9999999999999964
 50
354.99999999999989
 51
35.95240083450738
  0
ARC
  5
10727
  8
0
 10
162.50000018626449
 20
195.300000347197
 30
0.0
 40
8.5000000000000036
 50
154.2072905491398
 51
205.7927094508602
  0
ARC
  5
10728
  8
0
 10
162.50000018626449
 20
195.300000347197
 30
0.0
 40
8.5000000000000036
 50
334.20729054913693
 51
25.792709450863018
  0
LINE
  5
10729
  8
0
 10
169.5500273257494
 20
189.24391744658351
 30
0.0
 11
171.43923379480839
 21
188.99049805477259
 31
0.0
  0
LINE
  5
1072A
  8
0
 10
170.9040557965636
 20
187.46915515512219
 30
0.0
 11
169.3538484163582
 21
188.69345271959901
 31
0.0
  0
LINE
  5
1072B
  8
0
 10
171.1207009851932
 20
187.7431795932352
 30
0.0
 11
170.9040557965636
 21
187.46915515512219
 31
0.0
  0
LINE
  5
1072C
  8
0
 10
169.5821984671056
 20
188.95832318812609
 30
0.0
 11
171.1207009851932
 21
187.7431795932352
 31
0.0
  0
LINE
  5
1072D
  8
0
 10
171.83123305439949
 20
188.64300809800619
 30
0.0
 11
169.5821984671056
 21
188.95832318812609
 31
0.0
  0
LINE
  5
1072E
  8
0
 10
172.06611074507231
 20
188.94009068608281
 30
0.0
 11
171.83123305439949
 21
188.64300809800619
 31
0.0
  0
LINE
  5
1072F
  8
0
 10
170.11737646535039
 20
190.47912964597339
 30
0.0
 11
172.06611074507231
 21
188.94009068608281
 31
0.0
  0
LINE
  5
10730
  8
0
 10
169.90073127672071
 20
190.2051056735217
 30
0.0
 11
170.11737646535039
 21
190.47912964597339
 31
0.0
  0
LINE
  5
10731
  8
0
 10
171.43923379480839
 20
188.99049805477259
 30
0.0
 11
169.90073127672071
 21
190.2051056735217
 31
0.0
  0
ARC
  5
10732
  8
0
 10
172.11916239273481
 20
191.65606816352141
 30
0.0
 40
1.058754053763842
 50
242.89511199295089
 51
287.73554319230777
  0
ARC
  5
10733
  8
0
 10
171.98398533368999
 20
191.74777291205299
 30
0.0
 40
1.0909103636563859
 50
207.9833796711811
 51
251.44114946482779
  0
ARC
  5
10734
  8
0
 10
171.64176714909649
 20
191.51997676910281
 30
0.0
 40
0.6830246631757744
 50
158.04282891697579
 51
204.57654728459531
  0
ARC
  5
10735
  8
0
 10
171.7218497239482
 20
191.1610562355786
 30
0.0
 40
1.038225111828029
 50
62.387666452751397
 51
108.16716451262521
  0
ARC
  5
10736
  8
0
 10
171.8593554804863
 20
191.050476323825
 30
0.0
 40
1.086357289011272
 50
27.926535086887348
 51
71.556070901056813
  0
ARC
  5
10737
  8
0
 10
172.19785281116219
 20
191.27517924829991
 30
0.0
 40
0.6832134194727371
 50
338.04962397028942
 51
24.569751101177509
  0
ARC
  5
10738
  8
0
 10
172.2116143672356
 20
191.2789189912429
 30
0.0
 40
0.6719025988697071
 50
290.02411123097852
 51
337.3151600759428
  0
ARC
  5
10739
  8
0
 10
171.62984281701779
 20
191.5145321343993
 30
0.0
 40
0.6740681665706397
 50
110.1046802942231
 51
157.23459101269651
  0
ARC
  5
1073A
  8
0
 10
162.50000018626449
 20
195.300000347197
 30
0.0
 40
12.500000000000011
 50
289.26335748942302
 51
70.736642510577042
  0
ARC
  5
1073B
  8
0
 10
162.50000018626449
 20
195.300000347197
 30
0.0
 40
12.500000000000011
 50
109.2633574894229
 51
250.73664251057701
  0
LINE
  5
1074A
  8
0
 10
158.62701685232091
 20
51.000000047497451
 30
0.0
 11
157.17157311737529
 21
51.000000047497451
 31
0.0
  0
LINE
  5
1074B
  8
0
 10
157.17157311737529
 20
48.999999952502542
 30
0.0
 11
158.62701685232091
 21
48.999999952502542
 31
0.0
  0
ARC
  5
1074C
  8
0
 10
160.00000018626449
 20
50.0
 30
0.0
 40
2.9999999999999929
 50
179.98220590781929
 51
199.4712206344895
  0
ARC
  5
1074D
  8
0
 10
160.00000018626449
 20
50.0
 30
0.0
 40
2.9999999999999938
 50
160.5287793655105
 51
179.98220590781929
  0
LINE
  5
1074E
  8
0
 10
151.55399739742279
 20
49.227499996777617
 30
0.0
 11
152.4460032582283
 21
49.227499996777617
 31
0.0
  0
LINE
  5
1074F
  8
0
 10
152.4460032582283
 20
49.227499996777617
 30
0.0
 11
152.892006188631
 21
50.0
 31
0.0
  0
LINE
  5
10750
  8
0
 10
152.892006188631
 20
50.0
 30
0.0
 11
152.4460032582283
 21
50.772500003222369
 31
0.0
  0
LINE
  5
10751
  8
0
 10
152.4460032582283
 20
50.772500003222369
 30
0.0
 11
151.55399739742279
 21
50.772500003222369
 31
0.0
  0
LINE
  5
10752
  8
0
 10
151.55399739742279
 20
50.772500003222369
 30
0.0
 11
151.10799446702001
 21
50.0
 31
0.0
  0
LINE
  5
10753
  8
0
 10
151.10799446702001
 20
50.0
 30
0.0
 11
151.55399739742279
 21
49.227499996777617
 31
0.0
  0
CIRCLE
  5
10754
  8
0
 10
152.00000018626449
 20
50.0
 30
0.0
 40
1.9000000000000119
  0
CIRCLE
  5
10755
  8
0
 10
167.75000018626449
 20
40.906733260263401
 30
0.0
 40
1.8999999999999979
  0
LINE
  5
10756
  8
0
 10
168.6420064419508
 20
40.906733088195317
 30
0.0
 11
168.1960030458867
 21
41.679233498871319
 31
0.0
  0
LINE
  5
10757
  8
0
 10
168.1960030458867
 20
41.679233498871319
 30
0.0
 11
167.30399718508119
 21
41.679233498871319
 31
0.0
  0
LINE
  5
10758
  8
0
 10
167.30399718508119
 20
41.679233498871319
 30
0.0
 11
166.8579937890172
 21
40.906733088195317
 31
0.0
  0
LINE
  5
10759
  8
0
 10
166.8579937890172
 20
40.906733088195317
 30
0.0
 11
167.30399718508119
 21
40.134233608841889
 31
0.0
  0
LINE
  5
1075A
  8
0
 10
167.30399718508119
 20
40.134233608841889
 30
0.0
 11
168.1960030458867
 21
40.134233608841889
 31
0.0
  0
LINE
  5
1075B
  8
0
 10
168.1960030458867
 20
40.134233608841889
 30
0.0
 11
168.6420064419508
 21
40.906733088195317
 31
0.0
  0
CIRCLE
  5
1075C
  8
0
 10
167.75000018626429
 20
59.093266739736663
 30
0.0
 40
1.9000000000000139
  0
LINE
  5
1075D
  8
0
 10
167.30399718508119
 20
59.865766391158111
 30
0.0
 11
166.8579937890172
 21
59.093266911804683
 31
0.0
  0
LINE
  5
1075E
  8
0
 10
166.8579937890172
 20
59.093266911804683
 30
0.0
 11
167.30399718508119
 21
58.320766501128681
 31
0.0
  0
LINE
  5
1075F
  8
0
 10
167.30399718508119
 20
58.320766501128681
 30
0.0
 11
168.1960030458867
 21
58.320766501128681
 31
0.0
  0
LINE
  5
10760
  8
0
 10
168.1960030458867
 20
58.320766501128681
 30
0.0
 11
168.6420064419508
 21
59.093266911804683
 31
0.0
  0
LINE
  5
10761
  8
0
 10
168.6420064419508
 20
59.093266911804683
 30
0.0
 11
168.1960030458867
 21
59.865766391158111
 31
0.0
  0
LINE
  5
10762
  8
0
 10
168.1960030458867
 20
59.865766391158111
 30
0.0
 11
167.30399718508119
 21
59.865766391158111
 31
0.0
  0
LINE
  5
10763
  8
0
 10
157.17157311737529
 20
51.000000047497451
 30
0.0
 11
157.17157311737529
 21
48.999999952502542
 31
0.0
  0
LINE
  5
10764
  8
0
 10
163.44747917028141
 20
37.535960040986538
 30
0.0
 11
163.20414221845559
 21
37.289940938353539
 31
0.0
  0
ARC
  5
10767
  8
0
 10
162.50000018626449
 20
38.0
 30
0.0
 40
1.000000000000014
 50
225.23972989608359
 51
314.76027010391692
  0
LINE
  5
10769
  8
0
 10
161.7958581540733
 20
37.289940938353539
 30
0.0
 11
161.55252120224759
 21
37.535960040986538
 31
0.0
  0
LINE
  5
1076B
  8
0
 10
163.20414221845559
 20
62.710059061646469
 30
0.0
 11
163.44747917028141
 21
62.464039959013469
 31
0.0
  0
LINE
  5
1076C
  8
0
 10
161.55252120224759
 20
62.464039959013469
 30
0.0
 11
161.7958581540733
 21
62.710059061646469
 31
0.0
  0
ARC
  5
1076F
  8
0
 10
162.50000018626449
 20
62.0
 30
0.0
 40
1.0000000000000271
 50
45.23972989608361
 51
134.76027010391681
  0
ARC
  5
10770
  8
0
 10
162.50000018626449
 20
38.000000000000021
 30
0.0
 40
3.000000000000012
 50
225.23972989608359
 51
264.00000000000477
  0
ARC
  5
10774
  8
0
 10
162.50000018626449
 20
38.000000000000021
 30
0.0
 40
3.0000000000000022
 50
276.00000000000171
 51
314.76027010391692
  0
POLYLINE
  5
10775
  8
0
 66
     1
 10
0.0
 20
0.0
 30
0.0
 70
   128
  0
VERTEX
  5
13846
  8
0
 10
162.81358557753259
 20
35.016434453427792
 30
0.0
  0
VERTEX
  5
13847
  8
0
 10
162.8114887047559
 20
35.016324557363987
 30
0.0
  0
VERTEX
  5
13848
  8
0
 10
162.80600065365431
 20
35.016036778688431
 30
0.0
  0
VERTEX
  5
13849
  8
0
 10
162.7914531622082
 20
35.015274025499821
 30
0.0
  0
VERTEX
  5
1384A
  8
0
 10
162.7550924080424
 20
35.013368539512157
 30
0.0
  0
VERTEX
  5
1384B
  8
0
 10
162.66502226644661
 20
35.008648596704013
 30
0.0
  0
VERTEX
  5
1384C
  8
0
 10
162.56236667541091
 20
35.003268346190453
 30
0.0
  0
VERTEX
  5
1384D
  8
0
 10
162.52403093531029
 20
35.001259483397007
 30
0.0
  0
VERTEX
  5
1384E
  8
0
 10
162.51253812824871
 20
35.000656917691231
 30
0.0
  0
VERTEX
  5
1384F
  8
0
 10
162.50352458032461
 20
35.000184737145901
 30
0.0
  0
VERTEX
  5
13850
  8
0
 10
162.5003725503631
 20
35.000019893050187
 30
0.0
  0
VERTEX
  5
13851
  8
0
 10
162.50000018626449
 20
35.000000335276127
 30
0.0
  0
SEQEND
  5
13852
  8
0
  0
POLYLINE
  5
10776
  8
0
 66
     1
 10
0.0
 20
0.0
 30
0.0
 70
   128
  0
VERTEX
  5
13853
  8
0
 10
162.50000018626449
 20
35.000000335276127
 30
0.0
  0
VERTEX
  5
13854
  8
0
 10
162.49962782216579
 20
35.000019893050187
 30
0.0
  0
VERTEX
  5
13855
  8
0
 10
162.49647579220431
 20
35.000184737145901
 30
0.0
  0
VERTEX
  5
13856
  8
0
 10
162.48746224428029
 20
35.000656917691231
 30
0.0
  0
VERTEX
  5
13857
  8
0
 10
162.47596943721871
 20
35.001259483397007
 30
0.0
  0
VERTEX
  5
13858
  8
0
 10
162.43763369711809
 20
35.003268346190453
 30
0.0
  0
VERTEX
  5
13859
  8
0
 10
162.33497810608239
 20
35.008648596704013
 30
0.0
  0
VERTEX
  5
1385A
  8
0
 10
162.2449079644866
 20
35.013368539512157
 30
0.0
  0
VERTEX
  5
1385B
  8
0
 10
162.2085472103208
 20
35.015274025499821
 30
0.0
  0
VERTEX
  5
1385C
  8
0
 10
162.19399971887469
 20
35.016036778688431
 30
0.0
  0
VERTEX
  5
1385D
  8
0
 10
162.1885116677731
 20
35.016324557363987
 30
0.0
  0
VERTEX
  5
1385E
  8
0
 10
162.1864147949963
 20
35.016434453427792
 30
0.0
  0
SEQEND
  5
1385F
  8
0
  0
ARC
  5
10778
  8
0
 10
150.6000001862644
 20
50.0
 30
0.0
 40
19.899999999999991
 50
36.368145174968468
 51
45.239729896083141
  0
ARC
  5
10779
  8
0
 10
150.6000001862644
 20
50.0
 30
0.0
 40
19.899999999999999
 50
314.76027010391692
 51
323.63185482503201
  0
ARC
  5
1077A
  8
0
 10
174.40000018626441
 20
50.0
 30
0.0
 40
19.899999999999981
 50
216.3681451749685
 51
225.23972989608359
  0
ARC
  5
1077B
  8
0
 10
174.40000018626441
 20
50.0
 30
0.0
 40
19.899999999999981
 50
134.7602701039163
 51
143.6318548250315
  0
ARC
  5
1077E
  8
0
 10
162.50000018626449
 20
61.999999999999993
 30
0.0
 40
2.9999999999999969
 50
45.23972989608361
 51
83.999999999998266
  0
ARC
  5
1077F
  8
0
 10
162.50000018626449
 20
61.999999999999993
 30
0.0
 40
3.0000000000000022
 50
96.000000000001748
 51
134.7602701039163
  0
POLYLINE
  5
10780
  8
0
 66
     1
 10
0.0
 20
0.0
 30
0.0
 70
   128
  0
VERTEX
  5
13860
  8
0
 10
162.1864147949963
 20
64.983565546572223
 30
0.0
  0
VERTEX
  5
13861
  8
0
 10
162.1885116677731
 20
64.983675442636027
 30
0.0
  0
VERTEX
  5
13862
  8
0
 10
162.19399971887469
 20
64.983963221311583
 30
0.0
  0
VERTEX
  5
13863
  8
0
 10
162.2085472103208
 20
64.984725974500194
 30
0.0
  0
VERTEX
  5
13864
  8
0
 10
162.2449079644866
 20
64.986631460487857
 30
0.0
  0
VERTEX
  5
13865
  8
0
 10
162.33497810608239
 20
64.991351403296008
 30
0.0
  0
VERTEX
  5
13866
  8
0
 10
162.43763369711809
 20
64.996731653809562
 30
0.0
  0
VERTEX
  5
13867
  8
0
 10
162.47596943721871
 20
64.998740516603007
 30
0.0
  0
VERTEX
  5
13868
  8
0
 10
162.48746224428029
 20
64.999343082308783
 30
0.0
  0
VERTEX
  5
13869
  8
0
 10
162.49647579220431
 20
64.999815262854113
 30
0.0
  0
VERTEX
  5
1386A
  8
0
 10
162.49962782216579
 20
64.99998010694982
 30
0.0
  0
VERTEX
  5
1386B
  8
0
 10
162.50000018626449
 20
64.999999664723887
 30
0.0
  0
SEQEND
  5
1386C
  8
0
  0
POLYLINE
  5
10781
  8
0
 66
     1
 10
0.0
 20
0.0
 30
0.0
 70
   128
  0
VERTEX
  5
1386D
  8
0
 10
162.50000018626449
 20
64.999999664723887
 30
0.0
  0
VERTEX
  5
1386E
  8
0
 10
162.5003725503631
 20
64.99998010694982
 30
0.0
  0
VERTEX
  5
1386F
  8
0
 10
162.50352458032461
 20
64.999815262854113
 30
0.0
  0
VERTEX
  5
13870
  8
0
 10
162.51253812824871
 20
64.999343082308783
 30
0.0
  0
VERTEX
  5
13871
  8
0
 10
162.52403093531029
 20
64.998740516603007
 30
0.0
  0
VERTEX
  5
13872
  8
0
 10
162.56236667541091
 20
64.996731653809562
 30
0.0
  0
VERTEX
  5
13873
  8
0
 10
162.66502226644661
 20
64.991351403296008
 30
0.0
  0
VERTEX
  5
13874
  8
0
 10
162.7550924080424
 20
64.986631460487857
 30
0.0
  0
VERTEX
  5
13875
  8
0
 10
162.7914531622082
 20
64.984725974500194
 30
0.0
  0
VERTEX
  5
13876
  8
0
 10
162.80600065365431
 20
64.983963221311583
 30
0.0
  0
VERTEX
  5
13877
  8
0
 10
162.8114887047559
 20
64.983675442636027
 30
0.0
  0
VERTEX
  5
13878
  8
0
 10
162.81358557753259
 20
64.983565546572223
 30
0.0
  0
SEQEND
  5
13879
  8
0
  0
POLYLINE
  5
10783
  8
0
 66
     1
 10
0.0
 20
0.0
 30
0.0
 70
   128
  0
VERTEX
  5
1387A
  8
0
 10
159.0477399062365
 20
48.776368796825402
 30
0.0
  0
VERTEX
  5
1387B
  8
0
 10
159.1503004077822
 20
48.878929414786391
 30
0.0
  0
VERTEX
  5
1387C
  8
0
 10
159.31392982602119
 20
49.042558658402413
 30
0.0
  0
VERTEX
  5
1387D
  8
0
 10
159.5311102923005
 20
49.259739357512437
 30
0.0
  0
VERTEX
  5
1387E
  8
0
 10
159.70568554475901
 20
49.434314551763229
 30
0.0
  0
SEQEND
  5
1387F
  8
0
  0
LINE
  5
10784
  8
0
 10
159.70568554475901
 20
49.434314551763229
 30
0.0
 11
159.833007119596
 21
49.600323411868878
 31
0.0
  0
POLYLINE
  5
10786
  8
0
 66
     1
 10
0.0
 20
0.0
 30
0.0
 70
   128
  0
VERTEX
  5
13880
  8
0
 10
165.166993252933
 20
49.600323411868878
 30
0.0
  0
VERTEX
  5
13881
  8
0
 10
165.16752177849409
 20
49.599408241920173
 30
0.0
  0
VERTEX
  5
13882
  8
0
 10
165.29431482776999
 20
49.434314551763229
 30
0.0
  0
SEQEND
  5
13883
  8
0
  0
POLYLINE
  5
10787
  8
0
 66
     1
 10
0.0
 20
0.0
 30
0.0
 70
   128
  0
VERTEX
  5
13884
  8
0
 10
165.29431482776999
 20
49.434314551763229
 30
0.0
  0
VERTEX
  5
13885
  8
0
 10
165.57678123936051
 20
49.151848198380321
 30
0.0
  0
VERTEX
  5
13886
  8
0
 10
165.81264543347061
 20
48.915983946062617
 30
0.0
  0
VERTEX
  5
13887
  8
0
 10
165.94230788759879
 20
48.786321491934352
 30
0.0
  0
VERTEX
  5
13888
  8
0
 10
165.9522604662925
 20
48.776368796825402
 30
0.0
  0
SEQEND
  5
13889
  8
0
  0
POLYLINE
  5
10789
  8
0
 66
     1
 10
0.0
 20
0.0
 30
0.0
 70
   128
  0
VERTEX
  5
1388A
  8
0
 10
159.833007119596
 20
50.399676588131108
 30
0.0
  0
VERTEX
  5
1388B
  8
0
 10
159.83247859403491
 20
50.40059175807982
 30
0.0
  0
VERTEX
  5
1388C
  8
0
 10
159.70568554475901
 20
50.565685448236763
 30
0.0
  0
SEQEND
  5
1388D
  8
0
  0
POLYLINE
  5
1078B
  8
0
 66
     1
 10
0.0
 20
0.0
 30
0.0
 70
   128
  0
VERTEX
  5
1388E
  8
0
 10
165.9522604662925
 20
51.223631203174591
 30
0.0
  0
VERTEX
  5
1388F
  8
0
 10
165.8496999647468
 20
51.121070585213602
 30
0.0
  0
VERTEX
  5
13890
  8
0
 10
165.68607054650781
 20
50.95744134159758
 30
0.0
  0
VERTEX
  5
13891
  8
0
 10
165.46889008022839
 20
50.740260642487549
 30
0.0
  0
VERTEX
  5
13892
  8
0
 10
165.29431482776999
 20
50.565685448236763
 30
0.0
  0
SEQEND
  5
13893
  8
0
  0
LINE
  5
1078C
  8
0
 10
165.29431482776999
 20
50.565685448236763
 30
0.0
 11
165.166993252933
 21
50.399676588131108
 31
0.0
  0
POLYLINE
  5
1078D
  8
0
 66
     1
 10
0.0
 20
0.0
 30
0.0
 70
   128
  0
VERTEX
  5
13894
  8
0
 10
159.70568554475901
 20
50.565685448236763
 30
0.0
  0
VERTEX
  5
13895
  8
0
 10
159.4232191331684
 20
50.848151801619672
 30
0.0
  0
VERTEX
  5
13896
  8
0
 10
159.18735493905839
 20
51.084016053937368
 30
0.0
  0
VERTEX
  5
13897
  8
0
 10
159.0576924849301
 20
51.213678508065641
 30
0.0
  0
VERTEX
  5
13898
  8
0
 10
159.0477399062365
 20
51.223631203174591
 30
0.0
  0
SEQEND
  5
13899
  8
0
  0
ARC
  5
1078E
  8
0
 10
165.86000018626439
 20
50.0
 30
0.0
 40
0.800000000000001
 50
150.0267411572184
 51
209.97325884278229
  0
ARC
  5
1078F
  8
0
 10
159.1400001862645
 20
50.0
 30
0.0
 40
0.8000000000000028
 50
330.02674115721851
 51
29.973258842782229
  0
LINE
  5
10791
  8
0
 10
158.78601195290679
 20
48.514640959911041
 30
0.0
 11
159.0477399062365
 21
48.776368796825402
 31
0.0
  0
LINE
  5
10792
  8
0
 10
165.9522604662925
 20
48.776368796825402
 30
0.0
 11
166.21398841962221
 21
48.514640959911041
 31
0.0
  0
LINE
  5
10794
  8
0
 10
166.21398841962221
 20
51.485359040088952
 30
0.0
 11
165.9522604662925
 21
51.223631203174591
 31
0.0
  0
LINE
  5
10795
  8
0
 10
159.0477399062365
 20
51.223631203174591
 30
0.0
 11
158.78601195290679
 21
51.485359040088952
 31
0.0
  0
ARC
  5
107AA
  8
0
 10
162.50000018626449
 20
50.0
 30
0.0
 40
6.0000000000000053
 50
314.4775121859326
 51
169.43602241094089
  0
LINE
  5
107AB
  8
0
 10
158.6542232799537
 20
51.099999994039528
 30
0.0
 11
155.58696920052171
 21
51.099999994039528
 31
0.0
  0
ARC
  5
107AC
  8
0
 10
162.50000018626449
 20
50.0
 30
0.0
 40
7.0000000000000071
 50
312.37362511618932
 51
170.95890385142371
  0
LINE
  5
107AD
  8
0
 10
167.2177366912365
 20
44.828640483319752
 30
0.0
 11
165.65308770205939
 21
47.53869158418987
 31
0.0
  0
ARC
  5
107B5
  8
0
 10
162.50000018626449
 20
50.0
 30
0.0
 40
7.000000000000008
 50
170.95890385142371
 51
312.37362511618932
  0
CIRCLE
  5
107BC
  8
0
 10
162.50000018626449
 20
50.0
 30
0.0
 40
12.5
  0
LINE
  5
107CB
  8
0
 10
98.099999967962503
 20
113.80000030621891
 30
0.0
 11
98.099999967962503
 21
111.800000211224
 31
0.0
  0
LINE
  5
107CC
  8
0
 10
101.9000000320375
 20
111.800000211224
 30
0.0
 11
101.9000000320375
 21
113.80000030621891
 31
0.0
  0
LINE
  5
107CD
  8
0
 10
101.00000004749739
 20
113.80000030621891
 30
0.0
 11
101.00000004749739
 21
116.30000025033949
 31
0.0
  0
LINE
  5
107CE
  8
0
 10
98.999999952502534
 20
116.30000025033949
 30
0.0
 11
98.999999952502534
 21
113.80000030621891
 31
0.0
  0
LINE
  5
107CF
  8
0
 10
89.006733521819115
 20
113.80000030621891
 30
0.0
 11
89.006733521819115
 21
111.800000211224
 31
0.0
  0
LINE
  5
107D0
  8
0
 10
92.806733120232821
 20
111.800000211224
 30
0.0
 11
92.806733120232821
 21
113.80000030621891
 31
0.0
  0
LINE
  5
107D1
  8
0
 10
91.906733252108097
 20
113.80000030621891
 30
0.0
 11
91.906733252108097
 21
116.30000025033949
 31
0.0
  0
LINE
  5
107D2
  8
0
 10
89.906732924282551
 20
116.30000025033949
 30
0.0
 11
89.906732924282551
 21
113.80000030621891
 31
0.0
  0
LINE
  5
107D3
  8
0
 10
107.19326687976719
 20
113.80000030621891
 30
0.0
 11
107.19326687976719
 21
111.800000211224
 31
0.0
  0
LINE
  5
107D4
  8
0
 10
110.9932664781809
 20
111.800000211224
 30
0.0
 11
110.9932664781809
 21
113.80000030621891
 31
0.0
  0
LINE
  5
107D5
  8
0
 10
110.09326707571741
 20
113.80000030621891
 30
0.0
 11
110.09326707571741
 21
116.30000025033949
 31
0.0
  0
LINE
  5
107D6
  8
0
 10
108.0932667478919
 20
116.30000025033949
 30
0.0
 11
108.0932667478919
 21
113.80000030621891
 31
0.0
  0
LINE
  5
107D7
  8
0
 10
92.500000167638063
 20
132.1000004187226
 30
0.0
 11
92.500000167638063
 21
130.80000076442951
 31
0.0
  0
LINE
  5
107D8
  8
0
 10
107.49999983236189
 20
130.80000076442951
 30
0.0
 11
107.49999983236189
 21
132.1000004187226
 31
0.0
  0
ARC
  5
107D9
  8
0
 10
85.5
 20
132.6000001981854
 30
0.0
 40
0.5
 50
186.90273749511331
 51
270.0
  0
ARC
  5
107DA
  8
0
 10
114.50000023210831
 20
132.59999963080091
 30
0.0
 40
0.4999994326154791
 50
269.99997340231801
 51
359.99999295897942
  0
LINE
  5
107DB
  8
0
 10
104.00000018998981
 20
107.0041776634753
 30
0.0
 11
104.00000018998981
 21
110.8000002219342
 31
0.0
  0
LINE
  5
107DC
  8
0
 10
104.00000018998981
 20
102.0000003278255
 30
0.0
 11
104.00000018998981
 21
103.4041026766745
 31
0.0
  0
LINE
  5
107DD
  8
0
 10
95.999999810010195
 20
103.389501478523
 30
0.0
 11
95.999999810010195
 21
102.0000003278255
 31
0.0
  0
LINE
  5
107DE
  8
0
 10
95.999999810010195
 20
114.6000003442168
 30
0.0
 11
95.999999810010195
 21
107.0698577756054
 31
0.0
  0
POLYLINE
  5
107DF
  8
0
 66
     1
 10
0.0
 20
0.0
 30
0.0
 70
   128
  0
VERTEX
  5
1389A
  8
0
 10
102.6401933282613
 20
105.4370835423469
 30
0.0
  0
VERTEX
  5
1389B
  8
0
 10
103.2263454049825
 20
106.06602383777501
 30
0.0
  0
VERTEX
  5
1389C
  8
0
 10
103.9506163448095
 20
106.83543109335
 30
0.0
  0
SEQEND
  5
1389D
  8
0
  0
LINE
  5
107E1
  8
0
 10
95.999999810010195
 20
102.0000003278255
 30
0.0
 11
96.337299467995763
 21
100.7411809638143
 31
0.0
  0
LINE
  5
107E2
  8
0
 10
103.66270053200419
 20
100.7411809638143
 30
0.0
 11
104.00000018998981
 21
102.0000003278255
 31
0.0
  0
ARC
  5
107E3
  8
0
 10
102.6967746271588
 20
101.0000001981854
 30
0.0
 40
1.0
 50
270.0
 51
345.00000000000227
  0
ARC
  5
107E4
  8
0
 10
97.303225372841226
 20
101.0000001981854
 30
0.0
 40
1.0
 50
194.9999999999992
 51
270.0
  0
ARC
  5
107E5
  8
0
 10
102.95961609897429
 20
105.1927232951919
 30
0.0
 40
0.4021726455636433
 50
142.58380458825059
 51
203.3250566107769
  0
ARC
  5
107E7
  8
0
 10
97.040383901025621
 20
105.1927232951919
 30
0.0
 40
0.4021726455636447
 50
340.73117365469221
 51
37.41619541174942
  0
POLYLINE
  5
107E8
  8
0
 66
     1
 10
0.0
 20
0.0
 30
0.0
 70
   128
  0
VERTEX
  5
1389E
  8
0
 10
96.166665107011795
 20
106.6943552810699
 30
0.0
  0
VERTEX
  5
1389F
  8
0
 10
96.773654595017433
 20
106.06602383777501
 30
0.0
  0
VERTEX
  5
138A0
  8
0
 10
97.359806671738625
 20
105.4370835423469
 30
0.0
  0
SEQEND
  5
138A1
  8
0
  0
ARC
  5
107E9
  8
0
 10
88.0
 20
128.99401549201571
 30
0.0
 40
0.5
 50
109.9999999999965
 51
180.0
  0
ARC
  5
107EA
  8
0
 10
112.0
 20
128.99401549201571
 30
0.0
 40
0.5
 50
0.0
 51
70.000000000003425
  0
LINE
  5
107EB
  8
0
 10
87.499999813735485
 20
116.80000033229589
 30
0.0
 11
87.999999895691872
 21
116.30000025033949
 31
0.0
  0
LINE
  5
107EC
  8
0
 10
112.0000001043081
 20
116.30000025033949
 30
0.0
 11
112.5000001862645
 21
116.80000033229589
 31
0.0
  0
LINE
  5
107ED
  8
0
 10
112.5000001862645
 20
116.80000033229589
 30
0.0
 11
112.5000001862645
 21
128.99401541799301
 31
0.0
  0
LINE
  5
107EE
  8
0
 10
87.499999813735485
 20
128.99401541799301
 30
0.0
 11
87.499999813735485
 21
116.80000033229589
 31
0.0
  0
LINE
  5
107EF
  8
0
 10
112.1710104867816
 20
129.4638620689511
 30
0.0
 11
108.500000461936
 21
130.80000076442951
 31
0.0
  0
ARC
  5
107F3
  8
0
 10
107.40000000000001
 20
115.9000001981854
 30
0.0
 40
0.4000000000000022
 50
90.0
 51
180.0
  0
ARC
  5
107F4
  8
0
 10
92.600000000000037
 20
115.9000001981854
 30
0.0
 40
0.4000000000000057
 50
0.0
 51
90.0
  0
LINE
  5
107F5
  8
0
 10
107.00000021606679
 20
111.800000211224
 30
0.0
 11
107.00000021606679
 21
115.8999999985099
 31
0.0
  0
LINE
  5
107F6
  8
0
 10
92.999999783933163
 20
115.8999999985099
 30
0.0
 11
92.999999783933163
 21
114.6000003442168
 31
0.0
  0
LINE
  5
107F7
  8
0
 10
106.00000005215399
 20
110.8000002219342
 30
0.0
 11
107.00000021606679
 21
111.800000211224
 31
0.0
  0
CIRCLE
  5
107FA
  8
0
 10
100.0
 20
136.1000001981854
 30
0.0
 40
0.9999999999999857
  0
LINE
  5
107FC
  8
0
 10
98.099999967962503
 20
113.80000030621891
 30
0.0
 11
101.9000000320375
 21
113.80000030621891
 31
0.0
  0
LINE
  5
107FD
  8
0
 10
98.099999967962503
 20
111.800000211224
 30
0.0
 11
101.9000000320375
 21
111.800000211224
 31
0.0
  0
LINE
  5
107FE
  8
0
 10
89.006733521819115
 20
113.80000030621891
 30
0.0
 11
92.806733120232821
 21
113.80000030621891
 31
0.0
  0
LINE
  5
107FF
  8
0
 10
89.006733521819115
 20
111.800000211224
 30
0.0
 11
92.806733120232821
 21
111.800000211224
 31
0.0
  0
LINE
  5
10801
  8
0
 10
107.19326687976719
 20
113.80000030621891
 30
0.0
 11
110.9932664781809
 21
113.80000030621891
 31
0.0
  0
LINE
  5
10803
  8
0
 10
107.19326687976719
 20
111.800000211224
 30
0.0
 11
110.9932664781809
 21
111.800000211224
 31
0.0
  0
ARC
  5
10812
  8
0
 10
100.0
 20
70.300000198185458
 30
0.0
 40
75.0
 50
80.086259285745626
 51
99.913740714254402
  0
POLYLINE
  5
10817
  8
0
 66
     1
 10
0.0
 20
0.0
 30
0.0
 70
   128
  0
VERTEX
  5
138A2
  8
0
 10
85.000000335276127
 20
132.59999956935641
 30
0.0
  0
VERTEX
  5
138A3
  8
0
 10
85.000019893050194
 20
132.59558510035271
 30
0.0
  0
VERTEX
  5
138A4
  8
0
 10
85.000184737145901
 20
132.58648794144389
 30
0.0
  0
VERTEX
  5
138A5
  8
0
 10
85.000656917691231
 20
132.57489111274481
 30
0.0
  0
VERTEX
  5
138A6
  8
0
 10
85.001259483397007
 20
132.56591502577061
 30
0.0
  0
VERTEX
  5
138A7
  8
0
 10
85.003268346190453
 20
132.54888486117119
 30
0.0
  0
VERTEX
  5
138A8
  8
0
 10
85.003624199569344
 20
132.5399080627065
 30
0.0
  0
SEQEND
  5
138A9
  8
0
  0
LINE
  5
10818
  8
0
 10
114.50046984571961
 20
132.1000004187226
 30
0.0
 11
85.500000417232513
 21
132.1000004187226
 31
0.0
  0
POLYLINE
  5
10819
  8
0
 66
     1
 10
0.0
 20
0.0
 30
0.0
 70
   128
  0
VERTEX
  5
138AA
  8
0
 10
85.008823685348034
 20
141.8503107503056
 30
0.0
  0
VERTEX
  5
138AB
  8
0
 10
85.008823685348034
 20
141.8503107503056
 30
0.0
  0
VERTEX
  5
138AC
  8
0
 10
85.004813410341725
 20
141.8405020609498
 30
0.0
  0
VERTEX
  5
138AD
  8
0
 10
85.002309083938584
 20
141.81005898863069
 30
0.0
  0
VERTEX
  5
138AE
  8
0
 10
85.000678338110447
 20
141.76772478967899
 30
0.0
  0
VERTEX
  5
138AF
  8
0
 10
85.000023618340492
 20
141.72173980623481
 30
0.0
  0
VERTEX
  5
138B0
  8
0
 10
85.000000335276127
 20
141.7108023539185
 30
0.0
  0
SEQEND
  5
138B1
  8
0
  0
ARC
  5
1081A
  8
0
 10
87.499118641837754
 20
141.7206241252442
 30
0.0
 40
2.4936695031695288
 50
99.498729409311295
 51
177.01891135022021
  0
ARC
  5
1081D
  8
0
 10
112.4925402969247
 20
141.70804429853411
 30
0.0
 40
2.5074608846467008
 50
0.0630219063528077
 51
80.360726131833516
  0
LINE
  5
10822
  8
0
 10
85.000000335276127
 20
141.7108023539185
 30
0.0
 11
85.000000335276127
 21
132.59999956935641
 31
0.0
  0
LINE
  5
10823
  8
0
 10
114.9999996647238
 20
141.7108023539185
 30
0.0
 11
114.9999996647238
 21
132.59999956935641
 31
0.0
  0
POLYLINE
  5
10824
  8
0
 66
     1
 10
0.0
 20
0.0
 30
0.0
 70
   128
  0
VERTEX
  5
138B2
  8
0
 10
96.332115959376097
 20
103.5102609544992
 30
0.0
  0
VERTEX
  5
138B3
  8
0
 10
96.419348288327456
 20
103.44999972730869
 30
0.0
  0
VERTEX
  5
138B4
  8
0
 10
96.630784822627902
 20
103.4387623891234
 30
0.0
  0
VERTEX
  5
138B5
  8
0
 10
96.849719434976564
 20
103.5573318600655
 30
0.0
  0
VERTEX
  5
138B6
  8
0
 10
97.076167026534677
 20
103.7930854596198
 30
0.0
  0
VERTEX
  5
138B7
  8
0
 10
97.30125511996448
 20
104.17014816775919
 30
0.0
  0
VERTEX
  5
138B8
  8
0
 10
97.476705582812414
 20
104.7052968293428
 30
0.0
  0
VERTEX
  5
138B9
  8
0
 10
97.521808370947824
 20
105.34454034641379
 30
0.0
  0
VERTEX
  5
138BA
  8
0
 10
97.400044230744243
 20
105.9742145240307
 30
0.0
  0
VERTEX
  5
138BB
  8
0
 10
97.283135307952762
 20
106.2606413848698
 30
0.0
  0
VERTEX
  5
138BC
  8
0
 10
97.137016151100383
 20
106.51512132026249
 30
0.0
  0
VERTEX
  5
138BD
  8
0
 10
96.873936848714933
 20
106.8159615620971
 30
0.0
  0
VERTEX
  5
138BE
  8
0
 10
96.784013696014881
 20
106.8827786017209
 30
0.0
  0
SEQEND
  5
138BF
  8
0
  0
POLYLINE
  5
10825
  8
0
 66
     1
 10
0.0
 20
0.0
 30
0.0
 70
   128
  0
VERTEX
  5
138C0
  8
0
 10
96.784013696014881
 20
106.8827786017209
 30
0.0
  0
VERTEX
  5
138C1
  8
0
 10
96.782763395458446
 20
106.8837797734886
 30
0.0
  0
VERTEX
  5
138C2
  8
0
 10
96.781704714521766
 20
106.8842608015984
 30
0.0
  0
SEQEND
  5
138C3
  8
0
  0
POLYLINE
  5
10826
  8
0
 66
     1
 10
0.0
 20
0.0
 30
0.0
 70
   128
  0
VERTEX
  5
138C4
  8
0
 10
96.781704714521766
 20
106.8842608015984
 30
0.0
  0
VERTEX
  5
138C5
  8
0
 10
96.640508063137531
 20
106.9514354690909
 30
0.0
  0
VERTEX
  5
138C6
  8
0
 10
96.638965560123324
 20
106.951899966225
 30
0.0
  0
SEQEND
  5
138C7
  8
0
  0
POLYLINE
  5
10827
  8
0
 66
     1
 10
0.0
 20
0.0
 30
0.0
 70
   128
  0
VERTEX
  5
138C8
  8
0
 10
96.638965560123324
 20
106.951899966225
 30
0.0
  0
VERTEX
  5
138C9
  8
0
 10
96.510733384639025
 20
107.01837311498819
 30
0.0
  0
VERTEX
  5
138CA
  8
0
 10
96.419825125485644
 20
107.0698582567275
 30
0.0
  0
SEQEND
  5
138CB
  8
0
  0
POLYLINE
  5
10828
  8
0
 66
     1
 10
0.0
 20
0.0
 30
0.0
 70
   128
  0
VERTEX
  5
138CC
  8
0
 10
96.241229586303234
 20
107.1549455169588
 30
0.0
  0
VERTEX
  5
138CD
  8
0
 10
96.283092536032186
 20
107.1493003051728
 30
0.0
  0
VERTEX
  5
138CE
  8
0
 10
96.419825125485644
 20
107.0698582567275
 30
0.0
  0
SEQEND
  5
138CF
  8
0
  0
LINE
  5
10829
  8
0
 10
96.241229586303234
 20
107.1549455169588
 30
0.0
 11
96.060769073665142
 21
107.1549455169588
 31
0.0
  0
POLYLINE
  5
1082A
  8
0
 66
     1
 10
0.0
 20
0.0
 30
0.0
 70
   128
  0
VERTEX
  5
138D0
  8
0
 10
95.999999810010195
 20
107.0698577756054
 30
0.0
  0
VERTEX
  5
138D1
  8
0
 10
96.020833030343056
 20
107.1205031126738
 30
0.0
  0
VERTEX
  5
138D2
  8
0
 10
96.060769073665142
 20
107.1549329441041
 30
0.0
  0
SEQEND
  5
138D3
  8
0
  0
POLYLINE
  5
1082B
  8
0
 66
     1
 10
0.0
 20
0.0
 30
0.0
 70
   128
  0
VERTEX
  5
138D4
  8
0
 10
96.166665107011795
 20
106.6943552810699
 30
0.0
  0
VERTEX
  5
138D5
  8
0
 10
96.049383655190454
 20
106.83543109335
 30
0.0
  0
VERTEX
  5
138D6
  8
0
 10
95.999999810010195
 20
107.0698577756054
 30
0.0
  0
SEQEND
  5
138D7
  8
0
  0
LINE
  5
1082C
  8
0
 10
101.48535904008889
 20
102.0000003278255
 30
0.0
 11
104.00000018998981
 21
102.0000003278255
 31
0.0
  0
LINE
  5
1082D
  8
0
 10
101.48535904008889
 20
102.0000003278255
 30
0.0
 11
101.48535904008889
 21
102.1123103797436
 31
0.0
  0
POLYLINE
  5
1082E
  8
0
 66
     1
 10
0.0
 20
0.0
 30
0.0
 70
   128
  0
VERTEX
  5
138D8
  8
0
 10
103.9130137301981
 20
103.6122039891779
 30
0.0
  0
VERTEX
  5
138D9
  8
0
 10
104.00000018998981
 20
103.4041026766745
 30
0.0
  0
VERTEX
  5
138DA
  8
0
 10
103.933466039598
 20
103.1929453834891
 30
0.0
  0
VERTEX
  5
138DB
  8
0
 10
103.7168788257986
 20
102.9831025749445
 30
0.0
  0
VERTEX
  5
138DC
  8
0
 10
103.3585370983928
 20
102.7738017961383
 30
0.0
  0
VERTEX
  5
138DD
  8
0
 10
102.8440642636269
 20
102.55239894613619
 30
0.0
  0
VERTEX
  5
138DE
  8
0
 10
102.213159808889
 20
102.33432557433839
 30
0.0
  0
VERTEX
  5
138DF
  8
0
 10
101.48535904008889
 20
102.1123103797436
 30
0.0
  0
SEQEND
  5
138E0
  8
0
  0
POLYLINE
  5
1082F
  8
0
 66
     1
 10
0.0
 20
0.0
 30
0.0
 70
   128
  0
VERTEX
  5
138E1
  8
0
 10
100.5638477159664
 20
105.471371114254
 30
0.0
  0
VERTEX
  5
138E2
  8
0
 10
101.3741709990427
 20
105.6969518773258
 30
0.0
  0
VERTEX
  5
138E3
  8
0
 10
102.12066876702011
 20
105.9188520535827
 30
0.0
  0
VERTEX
  5
138E4
  8
0
 10
102.7784134726971
 20
106.14384235814209
 30
0.0
  0
VERTEX
  5
138E5
  8
0
 10
103.3136091660708
 20
106.36661192402239
 30
0.0
  0
VERTEX
  5
138E6
  8
0
 10
103.7208786234259
 20
106.6014628391713
 30
0.0
  0
VERTEX
  5
138E7
  8
0
 10
103.9506163448095
 20
106.83543109335
 30
0.0
  0
VERTEX
  5
138E8
  8
0
 10
104.00000018998981
 20
107.0041776634753
 30
0.0
  0
SEQEND
  5
138E9
  8
0
  0
LINE
  5
10830
  8
0
 10
100.5638477159664
 20
105.471371114254
 30
0.0
 11
100.0
 21
105.471371114254
 31
0.0
  0
ARC
  5
10831
  8
0
 10
100.1446404187584
 20
103.84163556736991
 30
0.0
 40
1.636141437503537
 50
95.071760849092385
 51
184.9661211834229
  0
LINE
  5
10832
  8
0
 10
98.514640959911034
 20
103.7000002339482
 30
0.0
 11
98.514640959911034
 21
102.0000003278255
 31
0.0
  0
LINE
  5
10833
  8
0
 10
95.999999810010195
 20
102.0000003278255
 30
0.0
 11
98.514640959911034
 21
102.0000003278255
 31
0.0
  0
POLYLINE
  5
10834
  8
0
 66
     1
 10
0.0
 20
0.0
 30
0.0
 70
   128
  0
VERTEX
  5
138EA
  8
0
 10
96.086986269801855
 20
103.6122039891779
 30
0.0
  0
VERTEX
  5
138EB
  8
0
 10
96.000370942056165
 20
103.4041199833155
 30
0.0
  0
VERTEX
  5
138EC
  8
0
 10
95.999999810010195
 20
103.389501478523
 30
0.0
  0
SEQEND
  5
138ED
  8
0
  0
LINE
  5
10835
  8
0
 10
96.086986269801855
 20
103.6122039891779
 30
0.0
 11
96.198013192042694
 21
103.6122039891779
 31
0.0
  0
POLYLINE
  5
10836
  8
0
 66
     1
 10
0.0
 20
0.0
 30
0.0
 70
   128
  0
VERTEX
  5
138EE
  8
0
 10
96.198013192042694
 20
103.6122039891779
 30
0.0
  0
VERTEX
  5
138EF
  8
0
 10
96.26819952391088
 20
103.5560671240091
 30
0.0
  0
VERTEX
  5
138F0
  8
0
 10
96.330664725974202
 20
103.511662594974
 30
0.0
  0
SEQEND
  5
138F1
  8
0
  0
LINE
  5
10837
  8
0
 10
96.330664725974202
 20
103.511662594974
 30
0.0
 11
96.332115959376097
 21
103.5102609544992
 31
0.0
  0
POLYLINE
  5
10844
  8
0
 66
     1
 10
0.0
 20
0.0
 30
0.0
 70
   128
  0
VERTEX
  5
138F2
  8
0
 10
102.7392723131925
 20
104.81405621394509
 30
0.0
  0
VERTEX
  5
138F3
  8
0
 10
103.3206501975655
 20
104.2140181176364
 30
0.0
  0
VERTEX
  5
138F4
  8
0
 10
103.9130137301981
 20
103.6122039891779
 30
0.0
  0
SEQEND
  5
138F5
  8
0
  0
LINE
  5
10845
  8
0
 10
98.514640959911034
 20
102.0000003278255
 30
0.0
 11
98.776368796825395
 21
100.7411809638143
 31
0.0
  0
ARC
  5
10847
  8
0
 10
99.639723909041891
 20
100.85872681181471
 30
0.0
 40
0.8713203063010166
 50
187.75315189305121
 51
256.36446123810367
  0
LINE
  5
10848
  8
0
 10
101.22363120317461
 20
100.7411809638143
 30
0.0
 11
101.48535904008889
 21
102.0000003278255
 31
0.0
  0
ARC
  5
10849
  8
0
 10
100.3295945896557
 20
100.88640963318009
 30
0.0
 40
0.9057553934247483
 50
285.10900881014732
 51
350.77337805870008
  0
POLYLINE
  5
1084E
  8
0
 66
     1
 10
0.0
 20
0.0
 30
0.0
 70
   128
  0
VERTEX
  5
138F6
  8
0
 10
100.3996765881311
 20
100.0
 30
0.0
  0
VERTEX
  5
138F7
  8
0
 10
100.4005917580798
 20
100.0
 30
0.0
  0
VERTEX
  5
138F8
  8
0
 10
100.56568544823671
 20
100.0119647011161
 30
0.0
  0
SEQEND
  5
138F9
  8
0
  0
LINE
  5
1084F
  8
0
 10
99.434314551763237
 20
100.0119647011161
 30
0.0
 11
99.600323411868885
 21
100.0
 31
0.0
  0
LINE
  5
10850
  8
0
 10
102.6967746271589
 20
100.0
 30
0.0
 11
97.303225332871065
 21
100.0
 31
0.0
  0
LINE
  5
10860
  8
0
 10
102.5903116911649
 20
105.0334841944277
 30
0.0
 11
102.7356010396033
 21
104.81788907200099
 31
0.0
  0
LINE
  5
10861
  8
0
 10
102.7356010396033
 20
104.81788907200099
 30
0.0
 11
102.7392723131925
 21
104.81405621394509
 31
0.0
  0
POLYLINE
  5
1086F
  8
0
 66
     1
 10
0.0
 20
0.0
 30
0.0
 70
   128
  0
VERTEX
  5
138FA
  8
0
 10
97.260727686807513
 20
104.81405621394509
 30
0.0
  0
VERTEX
  5
138FB
  8
0
 10
96.679349802434444
 20
104.2140181176364
 30
0.0
  0
VERTEX
  5
138FC
  8
0
 10
96.086986269801855
 20
103.6122039891779
 30
0.0
  0
SEQEND
  5
138FD
  8
0
  0
LINE
  5
10870
  8
0
 10
97.264398960396633
 20
104.81788907200099
 30
0.0
 11
97.260727686807513
 21
104.81405621394509
 31
0.0
  0
ARC
  5
10872
  8
0
 10
96.686144483433964
 20
105.3606558685082
 30
0.0
 40
0.7930788331043271
 50
316.81318192365808
 51
337.72254630934339
  0
LINE
  5
1087A
  8
0
 10
112.0000001043081
 20
116.30000025033949
 30
0.0
 11
87.999999895691872
 21
116.30000025033949
 31
0.0
  0
LINE
  5
1087C
  8
0
 10
108.500000461936
 20
130.80000076442951
 30
0.0
 11
91.499999538064003
 21
130.80000076442951
 31
0.0
  0
ARC
  5
1087D
  8
0
 10
100.05967304599611
 20
102.9159446906763
 30
0.0
 40
29.106660749111771
 50
108.4864462736989
 51
110.58784532271321
  0
ARC
  5
1087E
  8
0
 10
95.853305668792814
 20
113.5785591883711
 30
0.0
 40
17.646887767067302
 50
109.97649611781139
 51
112.94957798383039
  0
POLYLINE
  5
1087F
  8
0
 66
     1
 10
0.0
 20
0.0
 30
0.0
 70
   128
  0
VERTEX
  5
138FE
  8
0
 10
88.841569982469082
 20
129.7273034229874
 30
0.0
  0
VERTEX
  5
138FF
  8
0
 10
88.813319243490696
 20
129.7331353649497
 30
0.0
  0
VERTEX
  5
13900
  8
0
 10
88.850505091249943
 20
129.76845297962419
 30
0.0
  0
VERTEX
  5
13901
  8
0
 10
88.972415216267095
 20
129.8286667093634
 30
0.0
  0
SEQEND
  5
13902
  8
0
  0
ARC
  5
10880
  8
0
 10
88.525015310050875
 20
132.25518228037581
 30
0.0
 40
2.5476221027186918
 50
277.13773248011722
 51
287.73683231426861
  0
ARC
  5
10881
  8
0
 10
85.657073755183887
 20
142.4608628630676
 30
0.0
 40
13.147310090217809
 50
286.09147816043122
 51
290.71816412361591
  0
ARC
  5
10882
  8
0
 10
87.339668583233319
 20
138.43521320889241
 30
0.0
 40
8.7880114060004164
 50
289.74259691964841
 51
295.76206666461621
  0
POLYLINE
  5
10883
  8
0
 66
     1
 10
0.0
 20
0.0
 30
0.0
 70
   128
  0
VERTEX
  5
13903
  8
0
 10
91.290626116096973
 20
130.64176719635719
 30
0.0
  0
VERTEX
  5
13904
  8
0
 10
91.318371146917343
 20
130.63421789556739
 30
0.0
  0
VERTEX
  5
13905
  8
0
 10
91.280446760356426
 20
130.5907828733325
 30
0.0
  0
VERTEX
  5
13906
  8
0
 10
91.159245371818542
 20
130.5206710472703
 30
0.0
  0
SEQEND
  5
13907
  8
0
  0
ARC
  5
10884
  8
0
 10
91.526368071995307
 20
128.81155350159389
 30
0.0
 40
1.845333692931979
 50
97.339610748248816
 51
112.15312076373419
  0
LINE
  5
1088D
  8
0
 10
101.09999999403951
 20
114.6000003442168
 30
0.0
 11
101.00000004749739
 21
114.6000003442168
 31
0.0
  0
LINE
  5
1088E
  8
0
 10
98.999999952502534
 20
114.6000003442168
 30
0.0
 11
92.999999783933163
 21
114.6000003442168
 31
0.0
  0
LINE
  5
1088F
  8
0
 10
94.828640483319745
 20
114.6000003442168
 30
0.0
 11
94.828640483319745
 21
111.800000211224
 31
0.0
  0
LINE
  5
10890
  8
0
 10
101.9000000320375
 20
111.800000211224
 30
0.0
 11
107.00000021606679
 21
111.800000211224
 31
0.0
  0
LINE
  5
10891
  8
0
 10
101.09999999403951
 20
114.6000003442168
 30
0.0
 11
101.09999999403951
 21
113.80000030621891
 31
0.0
  0
LINE
  5
10892
  8
0
 10
106.00000005215399
 20
110.8000002219342
 30
0.0
 11
101.09999999403951
 21
110.8000002219342
 31
0.0
  0
LINE
  5
10893
  8
0
 10
101.09999999403951
 20
110.8000002219342
 30
0.0
 11
101.09999999403951
 21
111.800000211224
 31
0.0
  0
LINE
  5
10894
  8
0
 10
94.828640483319745
 20
111.800000211224
 30
0.0
 11
95.718847028911114
 21
110.8000002219342
 31
0.0
  0
ARC
  5
1089F
  8
0
 10
93.869228927178028
 20
119.11203509473511
 30
0.0
 40
11.752735498347009
 50
109.72951940867461
 51
113.3558149753775
  0
ARC
  5
108A0
  8
0
 10
97.487268941775724
 20
110.0272232091028
 30
0.0
 40
21.528284300493478
 50
108.3706271416502
 51
110.6312347730822
  0
ARC
  5
108A1
  8
0
 10
91.256385811351038
 20
128.98999212234011
 30
0.0
 40
1.569426029859267
 50
98.53085490221973
 51
110.6716399931113
  0
POLYLINE
  5
108A2
  8
0
 66
     1
 10
0.0
 20
0.0
 30
0.0
 70
   128
  0
VERTEX
  5
13908
  8
0
 10
90.92168640345335
 20
130.45843262225389
 30
0.0
  0
VERTEX
  5
13909
  8
0
 10
91.026831790804863
 20
130.5193895474076
 30
0.0
  0
VERTEX
  5
1390A
  8
0
 10
91.040294989943504
 20
130.5360546335578
 30
0.0
  0
VERTEX
  5
1390B
  8
0
 10
91.023574024438844
 20
130.54205421358341
 30
0.0
  0
SEQEND
  5
1390C
  8
0
  0
ARC
  5
108A3
  8
0
 10
87.669665468286325
 20
137.4007797071574
 30
0.0
 40
7.6662783154561582
 50
289.51377267359641
 51
295.09991828737759
  0
ARC
  5
108A4
  8
0
 10
85.769945397183264
 20
141.95089914847139
 30
0.0
 40
12.59252465899378
 50
286.89372643030168
 51
290.74559553329198
  0
ARC
  5
108A5
  8
0
 10
88.902069072974314
 20
131.4403320295956
 30
0.0
 40
1.6263624211481831
 50
277.31553090865151
 51
288.91580642907587
  0
POLYLINE
  5
108A6
  8
0
 66
     1
 10
0.0
 20
0.0
 30
0.0
 70
   128
  0
VERTEX
  5
1390D
  8
0
 10
89.209974184632301
 20
129.9017587676644
 30
0.0
  0
VERTEX
  5
1390E
  8
0
 10
89.105528220534325
 20
129.84697837382549
 30
0.0
  0
VERTEX
  5
1390F
  8
0
 10
89.092436619102955
 20
129.83237151056531
 30
0.0
  0
VERTEX
  5
13910
  8
0
 10
89.10915944725275
 20
129.82720825821161
 30
0.0
  0
SEQEND
  5
13911
  8
0
  0
LINE
  5
108B2
  8
0
 10
95.718847028911114
 20
110.8000002219342
 30
0.0
 11
95.999999810010195
 21
110.8000002219342
 31
0.0
  0
LINE
  5
108B8
  8
0
 10
112.5000001862645
 20
128.99401541799301
 30
0.0
 11
87.499999813735485
 21
128.99401541799301
 31
0.0
  0
LINE
  5
108BC
  8
0
 10
232.19326725229621
 20
113.80000030621891
 30
0.0
 11
232.19326725229621
 21
111.800000211224
 31
0.0
  0
LINE
  5
108BD
  8
0
 10
235.99326685070989
 20
111.800000211224
 30
0.0
 11
235.99326685070989
 21
113.80000030621891
 31
0.0
  0
LINE
  5
108BE
  8
0
 10
235.09326744824651
 20
113.80000030621891
 30
0.0
 11
235.09326744824651
 21
116.30000025033949
 31
0.0
  0
LINE
  5
108BF
  8
0
 10
233.0932671204209
 20
116.30000025033949
 30
0.0
 11
233.0932671204209
 21
113.80000030621891
 31
0.0
  0
LINE
  5
108C0
  8
0
 10
214.00673389434809
 20
113.80000030621891
 30
0.0
 11
214.00673389434809
 21
111.800000211224
 31
0.0
  0
LINE
  5
108C1
  8
0
 10
217.80673349276179
 20
111.800000211224
 30
0.0
 11
217.80673349276179
 21
113.80000030621891
 31
0.0
  0
LINE
  5
108C2
  8
0
 10
216.9067336246371
 20
113.80000030621891
 30
0.0
 11
216.9067336246371
 21
116.30000025033949
 31
0.0
  0
LINE
  5
108C3
  8
0
 10
214.90673329681161
 20
116.30000025033949
 30
0.0
 11
214.90673329681161
 21
113.80000030621891
 31
0.0
  0
LINE
  5
108C4
  8
0
 10
217.50000054016709
 20
132.1000004187226
 30
0.0
 11
217.50000054016709
 21
130.80000076442951
 31
0.0
  0
LINE
  5
108C5
  8
0
 10
232.50000020489099
 20
130.80000076442951
 30
0.0
 11
232.50000020489099
 21
132.1000004187226
 31
0.0
  0
ARC
  5
108C6
  8
0
 10
239.500000372529
 20
132.6000001981854
 30
0.0
 40
0.5
 50
270.0
 51
358.99489530531798
  0
ARC
  5
108C7
  8
0
 10
210.500000372529
 20
132.6000001981854
 30
0.0
 40
0.5
 50
186.90273749511249
 51
270.0
  0
LINE
  5
108C8
  8
0
 10
229.00000056251881
 20
107.0041776634753
 30
0.0
 11
229.00000056251881
 21
110.8000002219342
 31
0.0
  0
LINE
  5
108C9
  8
0
 10
229.00000056251881
 20
102.0000003278255
 30
0.0
 11
229.00000056251881
 21
103.4041456176795
 31
0.0
  0
LINE
  5
108CA
  8
0
 10
221.0000001825392
 20
103.389501478523
 30
0.0
 11
221.0000001825392
 21
102.0000003278255
 31
0.0
  0
LINE
  5
108CB
  8
0
 10
221.0000001825392
 20
110.8000002219342
 30
0.0
 11
221.0000001825392
 21
107.0698582567275
 31
0.0
  0
POLYLINE
  5
108CC
  8
0
 66
     1
 10
0.0
 20
0.0
 30
0.0
 70
   128
  0
VERTEX
  5
13912
  8
0
 10
227.6405378244817
 20
105.4374849423766
 30
0.0
  0
VERTEX
  5
13913
  8
0
 10
228.2263457775116
 20
106.06602383777501
 30
0.0
  0
VERTEX
  5
13914
  8
0
 10
228.95061671733859
 20
106.83543109335
 30
0.0
  0
SEQEND
  5
13915
  8
0
  0
LINE
  5
108CE
  8
0
 10
228.6627009045333
 20
100.7411809638143
 30
0.0
 11
229.00000056251881
 21
102.0000003278255
 31
0.0
  0
LINE
  5
108CF
  8
0
 10
221.0000001825392
 20
102.0000003278255
 30
0.0
 11
221.33729984052479
 21
100.7411809638143
 31
0.0
  0
ARC
  5
108D0
  8
0
 10
227.6967749996877
 20
101.0000001981854
 30
0.0
 40
1.0
 50
270.0
 51
345.00000000000227
  0
ARC
  5
108D1
  8
0
 10
222.3032257453701
 20
101.0000001981854
 30
0.0
 40
1.0000000000000071
 50
194.9999999999992
 51
270.0
  0
ARC
  5
108D2
  8
0
 10
227.95950819437621
 20
105.1927078084386
 30
0.0
 40
0.4020670866528631
 50
142.4974493883351
 51
203.32913945726619
  0
ARC
  5
108D4
  8
0
 10
222.04038427355451
 20
105.1927232951919
 30
0.0
 40
0.4021726455636493
 50
340.73117365443051
 51
37.416195411749413
  0
POLYLINE
  5
108D5
  8
0
 66
     1
 10
0.0
 20
0.0
 30
0.0
 70
   128
  0
VERTEX
  5
13916
  8
0
 10
221.1666654795408
 20
106.6943552810699
 30
0.0
  0
VERTEX
  5
13917
  8
0
 10
221.77365496754649
 20
106.06602383777501
 30
0.0
  0
VERTEX
  5
13918
  8
0
 10
222.35946292057631
 20
105.4374849423766
 30
0.0
  0
SEQEND
  5
13919
  8
0
  0
ARC
  5
108D6
  8
0
 10
213.000000372529
 20
128.99401549201571
 30
0.0
 40
0.5
 50
109.9999999999965
 51
180.0
  0
ARC
  5
108D7
  8
0
 10
237.000000372529
 20
128.99401549201571
 30
0.0
 40
0.5
 50
0.0
 51
70.000000000003425
  0
LINE
  5
108D8
  8
0
 10
212.50000018626449
 20
116.80000033229589
 30
0.0
 11
213.0000002682209
 21
116.30000025033949
 31
0.0
  0
LINE
  5
108D9
  8
0
 10
237.00000047683719
 20
116.30000025033949
 30
0.0
 11
237.50000055879349
 21
116.80000033229589
 31
0.0
  0
LINE
  5
108DA
  8
0
 10
237.50000055879349
 20
116.80000033229589
 30
0.0
 11
237.50000055879349
 21
128.99401541799301
 31
0.0
  0
LINE
  5
108DB
  8
0
 10
212.50000018626449
 20
128.99401541799301
 30
0.0
 11
212.50000018626449
 21
116.80000033229589
 31
0.0
  0
LINE
  5
108DF
  8
0
 10
216.499999910593
 20
130.80000076442951
 30
0.0
 11
212.8289898857474
 21
129.4638620689511
 31
0.0
  0
ARC
  5
108E2
  8
0
 10
232.40000037252889
 20
115.9000001981854
 30
0.0
 40
0.4000000000000057
 50
90.0
 51
180.0
  0
ARC
  5
108E3
  8
0
 10
217.600000372529
 20
115.9000001981854
 30
0.0
 40
0.4000000000000057
 50
0.0
 51
90.0
  0
LINE
  5
108E4
  8
0
 10
232.0000005885959
 20
114.6000003442168
 30
0.0
 11
232.0000005885959
 21
115.8999999985099
 31
0.0
  0
LINE
  5
108E5
  8
0
 10
218.00000015646219
 20
115.8999999985099
 30
0.0
 11
218.00000015646219
 21
111.800000211224
 31
0.0
  0
LINE
  5
108E6
  8
0
 10
218.00000015646219
 20
111.800000211224
 30
0.0
 11
219.00000032037499
 21
110.8000002219342
 31
0.0
  0
CIRCLE
  5
108EA
  8
0
 10
225.000000372529
 20
136.1000001981854
 30
0.0
 40
1.0
  0
LINE
  5
108EB
  8
0
 10
232.19326725229621
 20
113.80000030621891
 30
0.0
 11
235.99326685070989
 21
113.80000030621891
 31
0.0
  0
LINE
  5
108ED
  8
0
 10
232.19326725229621
 20
111.800000211224
 30
0.0
 11
235.99326685070989
 21
111.800000211224
 31
0.0
  0
LINE
  5
108EF
  8
0
 10
214.00673389434809
 20
113.80000030621891
 30
0.0
 11
217.80673349276179
 21
113.80000030621891
 31
0.0
  0
LINE
  5
108F0
  8
0
 10
214.00673389434809
 20
111.800000211224
 30
0.0
 11
217.80673349276179
 21
111.800000211224
 31
0.0
  0
ARC
  5
108FF
  8
0
 10
225.000000372529
 20
70.300000198185458
 30
0.0
 40
75.0
 50
80.086259285745626
 51
99.913740714254402
  0
POLYLINE
  5
10901
  8
0
 66
     1
 10
0.0
 20
0.0
 30
0.0
 70
   128
  0
VERTEX
  5
1391A
  8
0
 10
240.0000000372529
 20
141.7108023539185
 30
0.0
  0
VERTEX
  5
1391B
  8
0
 10
239.99959677457809
 20
141.75508860498661
 30
0.0
  0
VERTEX
  5
1391C
  8
0
 10
239.99845217913389
 20
141.79430101066819
 30
0.0
  0
VERTEX
  5
1391D
  8
0
 10
239.9966724216938
 20
141.82546678930521
 30
0.0
  0
VERTEX
  5
1391E
  8
0
 10
239.99430313706401
 20
141.84633586555719
 30
0.0
  0
VERTEX
  5
1391F
  8
0
 10
239.99108262360099
 20
141.8511005118489
 30
0.0
  0
SEQEND
  5
13920
  8
0
  0
ARC
  5
10903
  8
0
 10
237.50096798793061
 20
141.72075757700949
 30
0.0
 40
2.4935236472594622
 50
2.9963643033842451
 51
80.502719380374714
  0
POLYLINE
  5
10906
  8
0
 66
     1
 10
0.0
 20
0.0
 30
0.0
 70
   128
  0
VERTEX
  5
13921
  8
0
 10
239.99992344067309
 20
132.5912294549214
 30
0.0
  0
VERTEX
  5
13922
  8
0
 10
240.0000000372529
 20
132.59999956935641
 30
0.0
  0
SEQEND
  5
13923
  8
0
  0
ARC
  5
10908
  8
0
 10
212.50651117033161
 20
141.70884652280819
 30
0.0
 40
2.5065112255943292
 50
99.620959872269381
 51
179.95529208954321
  0
POLYLINE
  5
1090D
  8
0
 66
     1
 10
0.0
 20
0.0
 30
0.0
 70
   128
  0
VERTEX
  5
13924
  8
0
 10
210.00000070780521
 20
132.59999956935641
 30
0.0
  0
VERTEX
  5
13925
  8
0
 10
210.0000202655792
 20
132.59558510035271
 30
0.0
  0
VERTEX
  5
13926
  8
0
 10
210.0001851096749
 20
132.58648794144389
 30
0.0
  0
VERTEX
  5
13927
  8
0
 10
210.00065729022029
 20
132.57489111274481
 30
0.0
  0
VERTEX
  5
13928
  8
0
 10
210.00125985592601
 20
132.56591502577061
 30
0.0
  0
VERTEX
  5
13929
  8
0
 10
210.00326871871951
 20
132.54888486117119
 30
0.0
  0
VERTEX
  5
1392A
  8
0
 10
210.0036245720984
 20
132.5399080627065
 30
0.0
  0
SEQEND
  5
1392B
  8
0
  0
LINE
  5
1090E
  8
0
 10
239.5004699863355
 20
132.1000004187226
 30
0.0
 11
210.50000078976149
 21
132.1000004187226
 31
0.0
  0
LINE
  5
1090F
  8
0
 10
240.0000000372529
 20
141.7108023539185
 30
0.0
 11
240.0000000372529
 21
132.59999956935641
 31
0.0
  0
LINE
  5
10910
  8
0
 10
210.00000070780521
 20
141.7108023539185
 30
0.0
 11
210.00000070780521
 21
132.59999956935641
 31
0.0
  0
POLYLINE
  5
10911
  8
0
 66
     1
 10
0.0
 20
0.0
 30
0.0
 70
   128
  0
VERTEX
  5
1392C
  8
0
 10
225.5638480884954
 20
105.471371114254
 30
0.0
  0
VERTEX
  5
1392D
  8
0
 10
226.37417137157169
 20
105.6969518773258
 30
0.0
  0
VERTEX
  5
1392E
  8
0
 10
227.12066913954911
 20
105.9188520535827
 30
0.0
  0
VERTEX
  5
1392F
  8
0
 10
227.7784138452262
 20
106.14384235814209
 30
0.0
  0
VERTEX
  5
13930
  8
0
 10
228.31360953859979
 20
106.36661192402239
 30
0.0
  0
VERTEX
  5
13931
  8
0
 10
228.72087899595499
 20
106.6014628391713
 30
0.0
  0
VERTEX
  5
13932
  8
0
 10
228.95061671733859
 20
106.83543109335
 30
0.0
  0
VERTEX
  5
13933
  8
0
 10
229.00000056251881
 20
107.0041776634753
 30
0.0
  0
SEQEND
  5
13934
  8
0
  0
LINE
  5
10912
  8
0
 10
225.5638480884954
 20
105.471371114254
 30
0.0
 11
225.000000372529
 21
105.471371114254
 31
0.0
  0
ARC
  5
10913
  8
0
 10
225.13506722036601
 20
103.84966335549269
 30
0.0
 40
1.6273226810350709
 50
94.760993836703506
 51
185.27688819581351
  0
LINE
  5
10914
  8
0
 10
223.51464133244011
 20
103.7000002339482
 30
0.0
 11
223.51464133244011
 21
102.0000003278255
 31
0.0
  0
LINE
  5
10915
  8
0
 10
221.0000001825392
 20
102.0000003278255
 30
0.0
 11
223.51464133244011
 21
102.0000003278255
 31
0.0
  0
POLYLINE
  5
10916
  8
0
 66
     1
 10
0.0
 20
0.0
 30
0.0
 70
   128
  0
VERTEX
  5
13935
  8
0
 10
221.08698664233091
 20
103.6122039891779
 30
0.0
  0
VERTEX
  5
13936
  8
0
 10
221.00037131458521
 20
103.4041199833155
 30
0.0
  0
VERTEX
  5
13937
  8
0
 10
221.0000001825392
 20
103.389501478523
 30
0.0
  0
SEQEND
  5
13938
  8
0
  0
LINE
  5
10917
  8
0
 10
221.08698664233091
 20
103.6122039891779
 30
0.0
 11
221.19801356457171
 21
103.6122039891779
 31
0.0
  0
POLYLINE
  5
10918
  8
0
 66
     1
 10
0.0
 20
0.0
 30
0.0
 70
   128
  0
VERTEX
  5
13939
  8
0
 10
221.19801356457171
 20
103.6122039891779
 30
0.0
  0
VERTEX
  5
1393A
  8
0
 10
221.26819989643991
 20
103.5560671240091
 30
0.0
  0
VERTEX
  5
1393B
  8
0
 10
221.3306650985032
 20
103.511662594974
 30
0.0
  0
SEQEND
  5
1393C
  8
0
  0
LINE
  5
10919
  8
0
 10
221.3306650985032
 20
103.511662594974
 30
0.0
 11
221.3321088813245
 21
103.5102679394185
 31
0.0
  0
POLYLINE
  5
1091A
  8
0
 66
     1
 10
0.0
 20
0.0
 30
0.0
 70
   128
  0
VERTEX
  5
1393D
  8
0
 10
221.3321088813245
 20
103.5102679394185
 30
0.0
  0
VERTEX
  5
1393E
  8
0
 10
221.392703987658
 20
103.46387596800921
 30
0.0
  0
VERTEX
  5
1393F
  8
0
 10
221.60234143957501
 20
103.431957680732
 30
0.0
  0
VERTEX
  5
13940
  8
0
 10
221.6735624708235
 20
103.4530078992248
 30
0.0
  0
VERTEX
  5
13941
  8
0
 10
221.92020998336369
 20
103.6183027550578
 30
0.0
  0
VERTEX
  5
13942
  8
0
 10
222.15026342310011
 20
103.8977884687483
 30
0.0
  0
VERTEX
  5
13943
  8
0
 10
222.36683713272211
 20
104.3257190845907
 30
0.0
  0
VERTEX
  5
13944
  8
0
 10
222.50893739983439
 20
104.9051232635975
 30
0.0
  0
VERTEX
  5
13945
  8
0
 10
222.5002903025597
 20
105.5529582314193
 30
0.0
  0
VERTEX
  5
13946
  8
0
 10
222.3286852706224
 20
106.1615537852049
 30
0.0
  0
VERTEX
  5
13947
  8
0
 10
222.1925412770361
 20
106.4277397468686
 30
0.0
  0
VERTEX
  5
13948
  8
0
 10
222.03210117295379
 20
106.65519712492819
 30
0.0
  0
VERTEX
  5
13949
  8
0
 10
221.78397751413291
 20
106.8828021176159
 30
0.0
  0
SEQEND
  5
1394A
  8
0
  0
POLYLINE
  5
1091B
  8
0
 66
     1
 10
0.0
 20
0.0
 30
0.0
 70
   128
  0
VERTEX
  5
1394B
  8
0
 10
221.78397751413291
 20
106.8828021176159
 30
0.0
  0
VERTEX
  5
1394C
  8
0
 10
221.78276376798749
 20
106.8837797734886
 30
0.0
  0
VERTEX
  5
1394D
  8
0
 10
221.7817050870508
 20
106.8842608015984
 30
0.0
  0
SEQEND
  5
1394E
  8
0
  0
POLYLINE
  5
1091C
  8
0
 66
     1
 10
0.0
 20
0.0
 30
0.0
 70
   128
  0
VERTEX
  5
1394F
  8
0
 10
221.7817050870508
 20
106.8842608015984
 30
0.0
  0
VERTEX
  5
13950
  8
0
 10
221.77937678061431
 20
106.8857432343066
 30
0.0
  0
VERTEX
  5
13951
  8
0
 10
221.6389659326523
 20
106.951899966225
 30
0.0
  0
SEQEND
  5
13952
  8
0
  0
POLYLINE
  5
1091D
  8
0
 66
     1
 10
0.0
 20
0.0
 30
0.0
 70
   128
  0
VERTEX
  5
13953
  8
0
 10
221.6389659326523
 20
106.951899966225
 30
0.0
  0
VERTEX
  5
13954
  8
0
 10
221.510733757168
 20
107.01837311498819
 30
0.0
  0
VERTEX
  5
13955
  8
0
 10
221.41982549801469
 20
107.0698582567275
 30
0.0
  0
SEQEND
  5
13956
  8
0
  0
POLYLINE
  5
1091E
  8
0
 66
     1
 10
0.0
 20
0.0
 30
0.0
 70
   128
  0
VERTEX
  5
13957
  8
0
 10
221.24122995883229
 20
107.1549455169588
 30
0.0
  0
VERTEX
  5
13958
  8
0
 10
221.28281816840169
 20
107.1493715513498
 30
0.0
  0
VERTEX
  5
13959
  8
0
 10
221.41982549801469
 20
107.0698582567275
 30
0.0
  0
SEQEND
  5
1395A
  8
0
  0
LINE
  5
1091F
  8
0
 10
221.24122995883229
 20
107.1549455169588
 30
0.0
 11
221.0607694461942
 21
107.1549455169588
 31
0.0
  0
POLYLINE
  5
10920
  8
0
 66
     1
 10
0.0
 20
0.0
 30
0.0
 70
   128
  0
VERTEX
  5
1395B
  8
0
 10
221.0000001825392
 20
107.0698582567275
 30
0.0
  0
VERTEX
  5
1395C
  8
0
 10
221.0252380929887
 20
107.1296417154372
 30
0.0
  0
VERTEX
  5
1395D
  8
0
 10
221.0607694461942
 20
107.1549329441041
 30
0.0
  0
SEQEND
  5
1395E
  8
0
  0
POLYLINE
  5
10921
  8
0
 66
     1
 10
0.0
 20
0.0
 30
0.0
 70
   128
  0
VERTEX
  5
1395F
  8
0
 10
221.1666654795408
 20
106.6943552810699
 30
0.0
  0
VERTEX
  5
13960
  8
0
 10
221.0493840277195
 20
106.83543109335
 30
0.0
  0
VERTEX
  5
13961
  8
0
 10
221.0000001825392
 20
107.0698582567275
 30
0.0
  0
SEQEND
  5
13962
  8
0
  0
LINE
  5
10922
  8
0
 10
226.48535941261801
 20
102.0000003278255
 30
0.0
 11
229.00000056251881
 21
102.0000003278255
 31
0.0
  0
LINE
  5
10923
  8
0
 10
226.48535941261801
 20
102.0000003278255
 30
0.0
 11
226.48535941261801
 21
102.1123103797436
 31
0.0
  0
POLYLINE
  5
10924
  8
0
 66
     1
 10
0.0
 20
0.0
 30
0.0
 70
   128
  0
VERTEX
  5
13963
  8
0
 10
228.9130141027272
 20
103.6122039891779
 30
0.0
  0
VERTEX
  5
13964
  8
0
 10
229.00000056251881
 20
103.4041456176795
 30
0.0
  0
VERTEX
  5
13965
  8
0
 10
228.93346641212699
 20
103.1929453834891
 30
0.0
  0
VERTEX
  5
13966
  8
0
 10
228.71687919832769
 20
102.9831025749445
 30
0.0
  0
VERTEX
  5
13967
  8
0
 10
228.3585374709219
 20
102.7738017961383
 30
0.0
  0
VERTEX
  5
13968
  8
0
 10
227.84406463615599
 20
102.55239894613619
 30
0.0
  0
VERTEX
  5
13969
  8
0
 10
227.21316018141809
 20
102.33432557433839
 30
0.0
  0
VERTEX
  5
1396A
  8
0
 10
226.48535941261801
 20
102.1123103797436
 30
0.0
  0
SEQEND
  5
1396B
  8
0
  0
POLYLINE
  5
10931
  8
0
 66
     1
 10
0.0
 20
0.0
 30
0.0
 70
   128
  0
VERTEX
  5
1396C
  8
0
 10
227.73927268572149
 20
104.81405621394509
 30
0.0
  0
VERTEX
  5
1396D
  8
0
 10
228.32065057009461
 20
104.2140181176364
 30
0.0
  0
VERTEX
  5
1396E
  8
0
 10
228.9130141027272
 20
103.6122039891779
 30
0.0
  0
SEQEND
  5
1396F
  8
0
  0
LINE
  5
10932
  8
0
 10
226.22363157570359
 20
100.7411809638143
 30
0.0
 11
226.48535941261801
 21
102.0000003278255
 31
0.0
  0
ARC
  5
10933
  8
0
 10
225.3295949621847
 20
100.88640963318009
 30
0.0
 40
0.9057553934247483
 50
285.10900881014732
 51
350.77337805870008
  0
ARC
  5
10938
  8
0
 10
224.63972428157081
 20
100.85872681181471
 30
0.0
 40
0.8713203063010158
 50
187.75315189305121
 51
256.36446123810367
  0
LINE
  5
10939
  8
0
 10
223.51464133244011
 20
102.0000003278255
 30
0.0
 11
223.77636916935441
 21
100.7411809638143
 31
0.0
  0
POLYLINE
  5
1093B
  8
0
 66
     1
 10
0.0
 20
0.0
 30
0.0
 70
   128
  0
VERTEX
  5
13970
  8
0
 10
225.39967696066009
 20
100.0
 30
0.0
  0
VERTEX
  5
13971
  8
0
 10
225.40059213060891
 20
100.0
 30
0.0
  0
VERTEX
  5
13972
  8
0
 10
225.56568582076579
 20
100.0119647011161
 30
0.0
  0
SEQEND
  5
13973
  8
0
  0
LINE
  5
1093C
  8
0
 10
227.69677499968759
 20
100.0
 30
0.0
 11
222.30322570540011
 21
100.0
 31
0.0
  0
LINE
  5
1093D
  8
0
 10
224.43431492429229
 20
100.0119647011161
 30
0.0
 11
224.60032378439789
 21
100.0
 31
0.0
  0
LINE
  5
1094D
  8
0
 10
227.59031206369389
 20
105.0334841944277
 30
0.0
 11
227.73560141213241
 21
104.81788907200099
 31
0.0
  0
LINE
  5
1094E
  8
0
 10
227.73560141213241
 20
104.81788907200099
 30
0.0
 11
227.73927268572149
 21
104.81405621394509
 31
0.0
  0
POLYLINE
  5
1095C
  8
0
 66
     1
 10
0.0
 20
0.0
 30
0.0
 70
   128
  0
VERTEX
  5
13974
  8
0
 10
222.26072805933649
 20
104.81405621394509
 30
0.0
  0
VERTEX
  5
13975
  8
0
 10
221.6793501749635
 20
104.2140181176364
 30
0.0
  0
VERTEX
  5
13976
  8
0
 10
221.08698664233091
 20
103.6122039891779
 30
0.0
  0
SEQEND
  5
13977
  8
0
  0
LINE
  5
1095D
  8
0
 10
222.26439933292571
 20
104.81788907200099
 30
0.0
 11
222.26072805933649
 21
104.81405621394509
 31
0.0
  0
ARC
  5
1095F
  8
0
 10
221.68614485596299
 20
105.3606558685082
 30
0.0
 40
0.7930788331043236
 50
316.81318192365808
 51
337.7225463092077
  0
LINE
  5
10967
  8
0
 10
237.00000047683719
 20
116.30000025033949
 30
0.0
 11
213.0000002682209
 21
116.30000025033949
 31
0.0
  0
ARC
  5
10969
  8
0
 10
221.20846676389689
 20
128.85905670283469
 30
0.0
 40
1.7155986768086
 50
104.4491899667068
 51
130.6069053623344
  0
POLYLINE
  5
1096A
  8
0
 66
     1
 10
0.0
 20
0.0
 30
0.0
 70
   128
  0
VERTEX
  5
13978
  8
0
 10
220.04733355715871
 20
129.8250699415803
 30
0.0
  0
VERTEX
  5
13979
  8
0
 10
219.9643857777119
 20
129.96889594942331
 30
0.0
  0
VERTEX
  5
1397A
  8
0
 10
220.00432601198551
 20
130.06188105791799
 30
0.0
  0
VERTEX
  5
1397B
  8
0
 10
220.09184239432221
 20
130.16152698546651
 30
0.0
  0
SEQEND
  5
1397C
  8
0
  0
ARC
  5
1096B
  8
0
 10
220.534658083219
 20
130.9077878045772
 30
0.0
 40
1.1873344788022551
 50
245.7677886640227
 51
273.8647843652239
  0
ARC
  5
1096C
  8
0
 10
220.61682631955949
 20
132.89568218269389
 30
0.0
 40
3.1725294544743039
 50
269.96136192696639
 51
284.56732093544213
  0
ARC
  5
1096D
  8
0
 10
221.09422748869019
 20
131.3527723424412
 30
0.0
 40
1.560899593375066
 50
281.85052808770621
 51
310.25095665995281
  0
POLYLINE
  5
1096E
  8
0
 66
     1
 10
0.0
 20
0.0
 30
0.0
 70
   128
  0
VERTEX
  5
1397D
  8
0
 10
222.14782708324489
 20
130.52046243101361
 30
0.0
  0
VERTEX
  5
1397E
  8
0
 10
222.23178558051589
 20
130.38347233086819
 30
0.0
  0
VERTEX
  5
1397F
  8
0
 10
222.16743933968249
 20
130.23109119385481
 30
0.0
  0
VERTEX
  5
13980
  8
0
 10
222.10278203710911
 20
130.16145993024111
 30
0.0
  0
SEQEND
  5
13981
  8
0
  0
ARC
  5
1096F
  8
0
 10
221.6539618750669
 20
129.6006819678135
 30
0.0
 40
1.0439822528822631
 50
61.766952755079799
 51
94.036496696507825
  0
ARC
  5
10970
  8
0
 10
221.58957406328909
 20
127.89108869324259
 30
0.0
 40
2.7510008907483652
 50
90.189529927774302
 51
107.1061145443766
  0
POLYLINE
  5
10971
  8
0
 66
     1
 10
0.0
 20
0.0
 30
0.0
 70
   128
  0
VERTEX
  5
13982
  8
0
 10
224.21559870708731
 20
130.6180147454142
 30
0.0
  0
VERTEX
  5
13983
  8
0
 10
226.08594438061121
 20
130.2161471918225
 30
0.0
  0
VERTEX
  5
13984
  8
0
 10
227.94214431196451
 20
129.70809023827309
 30
0.0
  0
SEQEND
  5
13985
  8
0
  0
LINE
  5
10972
  8
0
 10
227.94214431196451
 20
129.70809023827309
 30
0.0
 11
227.68630557693541
 21
130.07206041365859
 31
0.0
  0
LINE
  5
10973
  8
0
 10
227.68630557693541
 20
130.07206041365859
 30
0.0
 11
232.44748618453741
 21
130.07206041365859
 31
0.0
  0
LINE
  5
10974
  8
0
 10
232.44748618453741
 20
130.07206041365859
 30
0.0
 11
233.15677028149369
 21
129.70809023827309
 31
0.0
  0
LINE
  5
10975
  8
0
 10
233.15677028149369
 20
129.70809023827309
 30
0.0
 11
233.15677028149369
 21
130.6180147454142
 31
0.0
  0
LINE
  5
10976
  8
0
 10
233.15677028149369
 20
130.6180147454142
 30
0.0
 11
224.21559870708731
 21
130.6180147454142
 31
0.0
  0
LINE
  5
10977
  8
0
 10
234.59145594388249
 20
130.21430503576991
 30
0.0
 11
234.85475480556491
 21
130.21942358464
 31
0.0
  0
LINE
  5
10978
  8
0
 10
234.8654799163341
 20
130.11140879243609
 30
0.0
 11
234.59145594388249
 21
130.21430503576991
 31
0.0
  0
LINE
  5
10979
  8
0
 10
235.1287787780166
 20
130.11638578027481
 30
0.0
 11
234.8654799163341
 21
130.11140879243609
 31
0.0
  0
LINE
  5
1097A
  8
0
 10
235.90044286102059
 20
129.82618194073439
 30
0.0
 11
235.1287787780166
 21
130.11638578027481
 31
0.0
  0
LINE
  5
1097B
  8
0
 10
235.56367754936221
 20
129.8141622915864
 30
0.0
 11
235.90044286102059
 21
129.82618194073439
 31
0.0
  0
LINE
  5
1097C
  8
0
 10
235.8377015218139
 20
129.71141319721929
 30
0.0
 11
235.56367754936221
 21
129.8141622915864
 31
0.0
  0
LINE
  5
1097D
  8
0
 10
236.2640209496021
 20
129.7169620171189
 30
0.0
 11
235.8377015218139
 21
129.71141319721929
 31
0.0
  0
LINE
  5
1097E
  8
0
 10
233.8798509910703
 20
130.61175998300311
 30
0.0
 11
236.2640209496021
 21
129.7169620171189
 31
0.0
  0
LINE
  5
1097F
  8
0
 10
233.790297806263
 20
130.6196520105004
 30
0.0
 11
233.8798509910703
 21
130.61175998300311
 31
0.0
  0
LINE
  5
10980
  8
0
 10
234.85475480556491
 20
130.21942358464
 30
0.0
 11
233.790297806263
 21
130.6196520105004
 31
0.0
  0
LINE
  5
10981
  8
0
 10
233.500000834465
 20
130.80000076442951
 30
0.0
 11
216.499999910593
 21
130.80000076442951
 31
0.0
  0
LINE
  5
1098A
  8
0
 10
218.9934796653688
 20
130.62392491847271
 30
0.0
 11
218.69049808010459
 21
129.91131227463481
 31
0.0
  0
LINE
  5
1098B
  8
0
 10
218.70819460600609
 20
130.61280306428671
 30
0.0
 11
218.9934796653688
 21
130.62392491847271
 31
0.0
  0
LINE
  5
1098C
  8
0
 10
217.1691551804542
 20
129.71283439546821
 30
0.0
 11
218.70819460600609
 21
130.61280306428671
 31
0.0
  0
LINE
  5
1098D
  8
0
 10
217.4431796185672
 20
129.72121257334939
 30
0.0
 11
217.1691551804542
 21
129.71283439546821
 31
0.0
  0
LINE
  5
1098E
  8
0
 10
218.65832321345809
 20
130.4336482658982
 30
0.0
 11
217.4431796185672
 21
129.72121257334939
 31
0.0
  0
LINE
  5
1098F
  8
0
 10
218.34300812333819
 20
129.7217620536685
 30
0.0
 11
218.65832321345809
 21
130.4336482658982
 31
0.0
  0
LINE
  5
10990
  8
0
 10
218.64009071141481
 20
129.71269842237231
 30
0.0
 11
218.34300812333819
 21
129.7217620536685
 31
0.0
  0
LINE
  5
10991
  8
0
 10
220.17912967130539
 20
130.61265591531989
 30
0.0
 11
218.64009071141481
 21
129.71269842237231
 31
0.0
  0
LINE
  5
10992
  8
0
 10
219.9051056988537
 20
130.62350396066901
 30
0.0
 11
220.17912967130539
 21
130.61265591531989
 31
0.0
  0
LINE
  5
10993
  8
0
 10
218.69049808010459
 20
129.91131227463481
 30
0.0
 11
219.9051056988537
 21
130.62350396066901
 31
0.0
  0
ARC
  5
109A1
  8
0
 10
220.70241897364991
 20
131.91916991410741
 30
0.0
 40
2.095796204900477
 50
270.47495022591892
 51
285.40820715626501
  0
POLYLINE
  5
109A4
  8
0
 66
     1
 10
0.0
 20
0.0
 30
0.0
 70
   128
  0
VERTEX
  5
13986
  8
0
 10
220.41359292343259
 20
130.17277177423239
 30
0.0
  0
VERTEX
  5
13987
  8
0
 10
220.32183948904279
 20
130.06536979228261
 30
0.0
  0
VERTEX
  5
13988
  8
0
 10
220.29662951827049
 20
129.96282186359161
 30
0.0
  0
VERTEX
  5
13989
  8
0
 10
220.3476338647306
 20
129.8986611887812
 30
0.0
  0
SEQEND
  5
1398A
  8
0
  0
ARC
  5
109A5
  8
0
 10
221.25451836976461
 20
129.2528093295646
 30
0.0
 40
1.2463893877468399
 50
104.8110555381206
 51
132.43001866623831
  0
ARC
  5
109A6
  8
0
 10
221.49723377343091
 20
128.62697782930911
 30
0.0
 40
1.914929270171176
 50
90.654224402615895
 51
107.04573766173419
  0
ARC
  5
109A7
  8
0
 10
221.51419303444069
 20
129.8469550744841
 30
0.0
 40
0.6959110166803006
 50
61.380605382963999
 51
93.198132786057556
  0
POLYLINE
  5
109A8
  8
0
 66
     1
 10
0.0
 20
0.0
 30
0.0
 70
   128
  0
VERTEX
  5
1398B
  8
0
 10
221.7810315079987
 20
130.1728574559092
 30
0.0
  0
VERTEX
  5
1398C
  8
0
 10
221.8717947136611
 20
130.27939330786461
 30
0.0
  0
VERTEX
  5
1398D
  8
0
 10
221.88985212706029
 20
130.41280340403321
 30
0.0
  0
VERTEX
  5
1398E
  8
0
 10
221.847526775673
 20
130.45784030109641
 30
0.0
  0
SEQEND
  5
1398F
  8
0
  0
ARC
  5
109A9
  8
0
 10
220.9981669143979
 20
131.02920844058031
 30
0.0
 40
1.160264616740893
 50
283.00457320323812
 51
312.43313639949542
  0
ARC
  5
109AA
  8
0
 10
220.67872235939379
 20
130.57854474732221
 30
0.0
 40
0.7562150781838606
 50
244.0349258976172
 51
273.11321714306712
  0
LINE
  5
109BA
  8
0
 10
232.0000005885959
 20
114.6000003442168
 30
0.0
 11
230.1713598892093
 21
114.6000003442168
 31
0.0
  0
LINE
  5
109BB
  8
0
 10
230.1713598892093
 20
114.6000003442168
 30
0.0
 11
230.1713598892093
 21
111.800000211224
 31
0.0
  0
LINE
  5
109BC
  8
0
 10
218.00000015646219
 20
111.800000211224
 30
0.0
 11
230.1713598892093
 21
111.800000211224
 31
0.0
  0
LINE
  5
109BD
  8
0
 10
229.28115334361789
 20
110.8000002219342
 30
0.0
 11
219.00000032037499
 21
110.8000002219342
 31
0.0
  0
LINE
  5
109BE
  8
0
 10
230.1713598892093
 20
111.800000211224
 30
0.0
 11
229.28115334361789
 21
110.8000002219342
 31
0.0
  0
LINE
  5
109CD
  8
0
 10
212.8289898857474
 20
129.4638620689511
 30
0.0
 11
237.1710108593106
 21
129.4638620689511
 31
0.0
  0
ARC
  5
109CF
  8
0
 10
400.44520613235841
 20
127.9786291289999
 30
0.0
 40
16.777796876614129
 50
97.609643183341873
 51
106.2722475086539
  0
LINE
  5
109D0
  8
0
 10
401.6041251644491
 20
144.99037284404039
 30
0.0
 11
399.93934391130449
 21
144.8151536896037
 31
0.0
  0
LINE
  5
109D1
  8
0
 10
400.00000072643149
 20
132.1000004187226
 30
0.0
 11
400.00000072643149
 21
130.80000076442951
 31
0.0
  0
LINE
  5
109D2
  8
0
 10
415.00000039115542
 20
130.80000076442951
 30
0.0
 11
415.00000039115542
 21
132.1000004187226
 31
0.0
  0
ARC
  5
109D3
  8
0
 10
420.39230540420641
 20
132.6000001981854
 30
0.0
 40
0.5
 50
270.0
 51
0.0
  0
ARC
  5
109D4
  8
0
 10
418.38914271982759
 20
141.70854819839511
 30
0.0
 40
2.503163022386595
 50
0.0218371109106254
 51
72.056476369285761
  0
ARC
  5
109D5
  8
0
 10
414.93454980169167
 20
130.50667413304109
 30
0.0
 40
14.224269603541639
 50
73.207782022795953
 51
83.245235855923156
  0
LINE
  5
109D6
  8
0
 10
420.89230556040991
 20
132.59999956935641
 30
0.0
 11
420.89230556040991
 21
141.70950222760439
 31
0.0
  0
LINE
  5
109D7
  8
0
 10
415.53666152060021
 20
144.76505238562819
 30
0.0
 11
413.59706964258498
 21
144.96919694719909
 31
0.0
  0
ARC
  5
109D8
  8
0
 10
394.60769571337988
 20
132.6000001981854
 30
0.0
 40
0.5
 50
180.0
 51
270.0
  0
LINE
  5
109D9
  8
0
 10
394.1076955571769
 20
141.70950222760439
 30
0.0
 11
394.1076955571769
 21
132.59999956935641
 31
0.0
  0
LINE
  5
109DA
  8
0
 10
411.50000074878318
 20
106.2743728049099
 30
0.0
 11
411.50000074878318
 21
110.8000002219342
 31
0.0
  0
LINE
  5
109DB
  8
0
 10
411.50000074878318
 20
101.2560002505779
 30
0.0
 11
411.50000074878318
 21
102.6995451189578
 31
0.0
  0
LINE
  5
109DC
  8
0
 10
403.50000036880363
 20
102.68109533013531
 30
0.0
 11
403.50000036880363
 21
101.2560002505779
 31
0.0
  0
LINE
  5
109DD
  8
0
 10
403.50000036880363
 20
110.8000002219342
 30
0.0
 11
403.50000036880363
 21
106.2607694417238
 31
0.0
  0
LINE
  5
109DE
  8
0
 10
411.16270109079773
 20
99.997180886566653
 30
0.0
 11
411.50000074878318
 21
101.2560002505779
 31
0.0
  0
ARC
  5
109DF
  8
0
 10
410.19677518595182
 20
100.2560001981854
 30
0.0
 40
1.0
 50
270.0
 51
345.00000000000171
  0
ARC
  5
109E0
  8
0
 10
404.80322593163447
 20
100.2560001981854
 30
0.0
 40
1.0
 50
194.99999999999989
 51
270.0
  0
LINE
  5
109E1
  8
0
 10
403.50000036880363
 20
101.2560002505779
 30
0.0
 11
403.83730002678919
 21
99.997180886566653
 31
0.0
  0
LINE
  5
109E3
  8
0
 10
420.00000074505789
 20
116.80000033229589
 30
0.0
 11
420.00000074505789
 21
128.99401541799301
 31
0.0
  0
LINE
  5
109E4
  8
0
 10
395.00000037252892
 20
128.99401541799301
 30
0.0
 11
395.00000037252892
 21
116.80000033229589
 31
0.0
  0
LINE
  5
109E5
  8
0
 10
395.00000037252892
 20
116.80000033229589
 30
0.0
 11
395.5000004544853
 21
116.30000025033949
 31
0.0
  0
LINE
  5
109E6
  8
0
 10
419.50000066310162
 20
116.30000025033949
 30
0.0
 11
420.00000074505789
 21
116.80000033229589
 31
0.0
  0
ARC
  5
109E7
  8
0
 10
395.50000055879337
 20
128.99401549201571
 30
0.0
 40
0.5000000000000084
 50
110.0000000000035
 51
180.0
  0
ARC
  5
109E8
  8
0
 10
419.50000055879292
 20
128.99401549201571
 30
0.0
 40
0.5000000000000084
 50
0.0
 51
69.999999999996504
  0
LINE
  5
109EB
  8
0
 10
399.00000009685738
 20
130.80000076442951
 30
0.0
 11
395.32899007201178
 21
129.4638620689511
 31
0.0
  0
ARC
  5
109EC
  8
0
 10
414.90000055879312
 20
115.9000001981854
 30
0.0
 40
0.4000000000000199
 50
90.0
 51
180.0
  0
ARC
  5
109ED
  8
0
 10
400.10000055879328
 20
115.9000001981854
 30
0.0
 40
0.4000000000000341
 50
0.0
 51
90.0
  0
LINE
  5
109EE
  8
0
 10
414.50000077486033
 20
113.80000030621881
 30
0.0
 11
414.50000077486033
 21
115.8999999985099
 31
0.0
  0
LINE
  5
109EF
  8
0
 10
400.50000034272659
 20
115.8999999985099
 30
0.0
 11
400.50000034272659
 21
114.6000003442168
 31
0.0
  0
LINE
  5
109F0
  8
0
 10
413.5000006109475
 20
110.8000002219342
 30
0.0
 11
414.50000077486033
 21
111.800000211224
 31
0.0
  0
ARC
  5
109F6
  8
0
 10
403.00872089953538
 20
112.0755063991609
 30
0.0
 40
32.883211214820193
 50
95.355885855673009
 51
98.367603160201256
  0
ARC
  5
10A01
  8
0
 10
407.5015862606927
 20
88.904939636149024
 30
0.0
 40
56.394643943361828
 50
78.564690463143549
 51
96.002672068082191
  0
ARC
  5
10A05
  8
0
 10
418.05496016644457
 20
141.8241824131363
 30
0.0
 40
2.4380587830723441
 50
357.334542261639
 51
75.085336064603027
  0
LINE
  5
10A0B
  8
0
 10
420.49038119614107
 20
141.7108023539185
 30
0.0
 11
420.49038119614107
 21
132.59999956935641
 31
0.0
  0
POLYLINE
  5
10A0E
  8
0
 66
     1
 10
0.0
 20
0.0
 30
0.0
 70
   128
  0
VERTEX
  5
13990
  8
0
 10
403.73600589111442
 20
135.10000091046089
 30
0.0
  0
VERTEX
  5
13991
  8
0
 10
404.0711013413964
 20
135.17602477222681
 30
0.0
  0
VERTEX
  5
13992
  8
0
 10
404.36124860309047
 20
135.3924473747611
 30
0.0
  0
VERTEX
  5
13993
  8
0
 10
404.5585003960876
 20
135.71658115833989
 30
0.0
  0
VERTEX
  5
13994
  8
0
 10
404.62859662249667
 20
136.0995763912797
 30
0.0
  0
VERTEX
  5
13995
  8
0
 10
404.55885057337571
 20
136.4824952557683
 30
0.0
  0
VERTEX
  5
13996
  8
0
 10
404.36195058748109
 20
136.8067761883139
 30
0.0
  0
VERTEX
  5
13997
  8
0
 10
404.07201427035022
 20
137.02354896813631
 30
0.0
  0
VERTEX
  5
13998
  8
0
 10
403.73693861067278
 20
137.09999937564129
 30
0.0
  0
VERTEX
  5
13999
  8
0
 10
403.4079219028352
 20
137.02360671013591
 30
0.0
  0
VERTEX
  5
1399A
  8
0
 10
403.13665976747859
 20
136.8068078532815
 30
0.0
  0
VERTEX
  5
1399B
  8
0
 10
402.95856667682523
 20
136.4826628938317
 30
0.0
  0
VERTEX
  5
1399C
  8
0
 10
402.89654571562988
 20
136.10017243772739
 30
0.0
  0
VERTEX
  5
1399D
  8
0
 10
402.95851871371258
 20
135.7174770906567
 30
0.0
  0
VERTEX
  5
1399E
  8
0
 10
403.1369088962673
 20
135.39289068430659
 30
0.0
  0
VERTEX
  5
1399F
  8
0
 10
403.40855427086342
 20
135.17608437687159
 30
0.0
  0
VERTEX
  5
139A0
  8
0
 10
403.73600589111442
 20
135.10000091046089
 30
0.0
  0
SEQEND
  5
139A1
  8
0
  0
POLYLINE
  5
10A10
  8
0
 66
     1
 10
0.0
 20
0.0
 30
0.0
 70
   128
  0
VERTEX
  5
139A2
  8
0
 10
416.60760797560113
 20
144.63220853358521
 30
0.0
  0
VERTEX
  5
139A3
  8
0
 10
416.1319489404558
 20
144.69657782465219
 30
0.0
  0
VERTEX
  5
139A4
  8
0
 10
415.53666152060021
 20
144.76505238562819
 30
0.0
  0
SEQEND
  5
139A5
  8
0
  0
LINE
  5
10A11
  8
0
 10
420.39277501799171
 20
132.1000004187226
 30
0.0
 11
394.60769563913328
 21
132.1000004187226
 31
0.0
  0
POLYLINE
  5
10A12
  8
0
 66
     1
 10
0.0
 20
0.0
 30
0.0
 70
   128
  0
VERTEX
  5
139A6
  8
0
 10
411.47438891232002
 20
102.7662608772516
 30
0.0
  0
VERTEX
  5
139A7
  8
0
 10
411.50000074878318
 20
102.6995451189578
 30
0.0
  0
VERTEX
  5
139A8
  8
0
 10
411.50000074878318
 20
102.6995451189578
 30
0.0
  0
SEQEND
  5
139A9
  8
0
  0
ARC
  5
10A13
  8
0
 10
417.01884880378049
 20
104.43776673502281
 30
0.0
 40
5.7995189962186293
 50
162.94423872746319
 51
196.2790783980864
  0
POLYLINE
  5
10A14
  8
0
 66
     1
 10
0.0
 20
0.0
 30
0.0
 70
   128
  0
VERTEX
  5
139AA
  8
0
 10
411.47437540814269
 20
106.1391675844788
 30
0.0
  0
VERTEX
  5
139AB
  8
0
 10
411.47463152185071
 20
106.13977992907169
 30
0.0
  0
VERTEX
  5
139AC
  8
0
 10
411.47483129054302
 20
106.1402609571814
 30
0.0
  0
SEQEND
  5
139AD
  8
0
  0
POLYLINE
  5
10A15
  8
0
 66
     1
 10
0.0
 20
0.0
 30
0.0
 70
   128
  0
VERTEX
  5
139AE
  8
0
 10
411.47483129054302
 20
106.1402609571814
 30
0.0
  0
VERTEX
  5
139AF
  8
0
 10
411.4949720725416
 20
106.2074353918433
 30
0.0
  0
VERTEX
  5
139B0
  8
0
 10
411.49511363357288
 20
106.207900121808
 30
0.0
  0
SEQEND
  5
139B1
  8
0
  0
POLYLINE
  5
10A16
  8
0
 66
     1
 10
0.0
 20
0.0
 30
0.0
 70
   128
  0
VERTEX
  5
139B2
  8
0
 10
411.49511363357288
 20
106.207900121808
 30
0.0
  0
VERTEX
  5
139B3
  8
0
 10
411.50000074878318
 20
106.2743728049099
 30
0.0
  0
VERTEX
  5
139B4
  8
0
 10
411.49247985333187
 20
106.32585817947979
 30
0.0
  0
SEQEND
  5
139B5
  8
0
  0
POLYLINE
  5
10A17
  8
0
 66
     1
 10
0.0
 20
0.0
 30
0.0
 70
   128
  0
VERTEX
  5
139B6
  8
0
 10
411.43923148512829
 20
106.4109454397112
 30
0.0
  0
VERTEX
  5
139B7
  8
0
 10
411.45795619115222
 20
106.4053002279252
 30
0.0
  0
VERTEX
  5
139B8
  8
0
 10
411.49247985333187
 20
106.32585817947979
 30
0.0
  0
SEQEND
  5
139B9
  8
0
  0
LINE
  5
10A18
  8
0
 10
411.43923148512829
 20
106.4109454397112
 30
0.0
 11
411.2587709724902
 21
106.4109454397112
 31
0.0
  0
POLYLINE
  5
10A19
  8
0
 66
     1
 10
0.0
 20
0.0
 30
0.0
 70
   128
  0
VERTEX
  5
139BA
  8
0
 10
411.08017543330777
 20
106.32585817947979
 30
0.0
  0
VERTEX
  5
139BB
  8
0
 10
411.14991636015458
 20
106.3765030354261
 30
0.0
  0
VERTEX
  5
139BC
  8
0
 10
411.2587709724902
 20
106.4109328668565
 30
0.0
  0
SEQEND
  5
139BD
  8
0
  0
ARC
  5
10A1A
  8
0
 10
399.48092862722831
 20
134.2838837632049
 30
0.0
 40
30.26869209279711
 50
282.45347980607232
 51
292.5326214377053
  0
LINE
  5
10A1B
  8
0
 10
406.00827697664488
 20
104.72737103700641
 30
0.0
 11
405.50000046379847
 21
104.72737103700641
 31
0.0
  0
POLYLINE
  5
10A1C
  8
0
 66
     1
 10
0.0
 20
0.0
 30
0.0
 70
   128
  0
VERTEX
  5
139BE
  8
0
 10
404.35664786957187
 20
102.9560001567006
 30
0.0
  0
VERTEX
  5
139BF
  8
0
 10
404.36117083765549
 20
103.1238063238561
 30
0.0
  0
VERTEX
  5
139C0
  8
0
 10
404.46546429768188
 20
103.7517761811614
 30
0.0
  0
VERTEX
  5
139C1
  8
0
 10
404.7164541017263
 20
104.2887250892818
 30
0.0
  0
VERTEX
  5
139C2
  8
0
 10
405.01557908020902
 20
104.582803696394
 30
0.0
  0
VERTEX
  5
139C3
  8
0
 10
405.34068772569287
 20
104.71315579488871
 30
0.0
  0
VERTEX
  5
139C4
  8
0
 10
405.50000046379847
 20
104.72737103700641
 30
0.0
  0
SEQEND
  5
139C5
  8
0
  0
LINE
  5
10A1D
  8
0
 10
404.35664786957187
 20
102.9560001567006
 30
0.0
 11
404.35664786957187
 21
101.2560002505779
 31
0.0
  0
LINE
  5
10A1E
  8
0
 10
403.50000036880363
 20
101.2560002505779
 30
0.0
 11
404.35664786957187
 21
101.2560002505779
 31
0.0
  0
POLYLINE
  5
10A1F
  8
0
 66
     1
 10
0.0
 20
0.0
 30
0.0
 70
   128
  0
VERTEX
  5
139C6
  8
0
 10
403.50000036880363
 20
102.68109533013531
 30
0.0
  0
VERTEX
  5
139C7
  8
0
 10
403.50849915295828
 20
102.7090078219771
 30
0.0
  0
VERTEX
  5
139C8
  8
0
 10
403.55660941451782
 20
102.87430267781021
 30
0.0
  0
VERTEX
  5
139C9
  8
0
 10
403.62857829779369
 20
103.1537883915007
 30
0.0
  0
VERTEX
  5
139CA
  8
0
 10
403.7140867486595
 20
103.5817194730043
 30
0.0
  0
VERTEX
  5
139CB
  8
0
 10
403.77785999327892
 20
104.1611231863499
 30
0.0
  0
VERTEX
  5
139CC
  8
0
 10
403.77382247708732
 20
104.80895815417171
 30
0.0
  0
VERTEX
  5
139CD
  8
0
 10
403.69794390164299
 20
105.4175541736185
 30
0.0
  0
VERTEX
  5
139CE
  8
0
 10
403.64507015794499
 20
105.67943602800371
 30
0.0
  0
VERTEX
  5
139CF
  8
0
 10
403.58886903151858
 20
105.9111970476806
 30
0.0
  0
VERTEX
  5
139D0
  8
0
 10
403.52560009807343
 20
106.1388020403683
 30
0.0
  0
SEQEND
  5
139D1
  8
0
  0
POLYLINE
  5
10A20
  8
0
 66
     1
 10
0.0
 20
0.0
 30
0.0
 70
   128
  0
VERTEX
  5
139D2
  8
0
 10
403.52560009807343
 20
106.1388020403683
 30
0.0
  0
VERTEX
  5
139D3
  8
0
 10
403.52536959573609
 20
106.13977992907169
 30
0.0
  0
VERTEX
  5
139D4
  8
0
 10
403.5251698270439
 20
106.1402609571814
 30
0.0
  0
SEQEND
  5
139D5
  8
0
  0
POLYLINE
  5
10A21
  8
0
 66
     1
 10
0.0
 20
0.0
 30
0.0
 70
   128
  0
VERTEX
  5
139D6
  8
0
 10
403.5251698270439
 20
106.1402609571814
 30
0.0
  0
VERTEX
  5
139D7
  8
0
 10
403.52473210543383
 20
106.1417431570589
 30
0.0
  0
VERTEX
  5
139D8
  8
0
 10
403.50488748401392
 20
106.207900121808
 30
0.0
  0
SEQEND
  5
139D9
  8
0
  0
LINE
  5
10A22
  8
0
 10
403.50488748401392
 20
106.207900121808
 30
0.0
 11
403.50000036880363
 21
106.2607694417238
 31
0.0
  0
LINE
  5
10A23
  8
0
 10
406.92936513107259
 20
101.2560002505779
 30
0.0
 11
411.50000074878318
 21
101.2560002505779
 31
0.0
  0
LINE
  5
10A24
  8
0
 10
406.92936513107259
 20
101.2560002505779
 30
0.0
 11
406.92936513107259
 21
101.368310302496
 31
0.0
  0
ARC
  5
10A25
  8
0
 10
402.98963537998122
 20
119.9863479628403
 30
0.0
 40
19.030312578453248
 50
281.94800263550508
 51
295.904973809176
  0
LINE
  5
10A26
  8
0
 10
411.30359599366773
 20
102.86820391193029
 30
0.0
 11
411.41408717259748
 21
102.86820391193029
 31
0.0
  0
POLYLINE
  5
10A27
  8
0
 66
     1
 10
0.0
 20
0.0
 30
0.0
 70
   128
  0
VERTEX
  5
139DA
  8
0
 10
411.41408717259748
 20
102.86820391193029
 30
0.0
  0
VERTEX
  5
139DB
  8
0
 10
411.45184578374023
 20
102.8120675124228
 30
0.0
  0
VERTEX
  5
139DC
  8
0
 10
411.47397587075818
 20
102.76766251772639
 30
0.0
  0
SEQEND
  5
139DD
  8
0
  0
LINE
  5
10A28
  8
0
 10
411.47397587075818
 20
102.76766251772639
 30
0.0
 11
411.47438891232002
 21
102.7662608772516
 31
0.0
  0
LINE
  5
10A36
  8
0
 10
406.83356608962629
 20
99.997180886566653
 30
0.0
 11
406.92936513107259
 21
101.2560002505779
 31
0.0
  0
LINE
  5
10A37
  8
0
 10
410.19677522592229
 20
99.255999922752395
 30
0.0
 11
404.80322593163447
 21
99.256000198185461
 31
0.0
  0
POLYLINE
  5
10A38
  8
0
 66
     1
 10
0.0
 20
0.0
 30
0.0
 70
   128
  0
VERTEX
  5
139DE
  8
0
 10
406.51316242758168
 20
99.256000854074969
 30
0.0
  0
VERTEX
  5
139DF
  8
0
 10
406.59274120582262
 20
99.26796462386848
 30
0.0
  0
SEQEND
  5
139E0
  8
0
  0
ARC
  5
10A39
  8
0
 10
405.6524157290803
 20
99.982883217381925
 30
0.0
 40
1.181236893074693
 50
322.75469167492469
 51
0.6935239749017149
  0
ARC
  5
10A4A
  8
0
 10
405.71929885900931
 20
100.31752972431011
 30
0.0
 40
1.054939796160965
 50
197.67789617072449
 51
264.2139085622486
  0
LINE
  5
10A4B
  8
0
 10
404.35664786957187
 20
101.2560002505779
 30
0.0
 11
404.71417468972493
 21
99.997180886566653
 31
0.0
  0
LINE
  5
10A51
  8
0
 10
405.61294532846648
 20
99.26796462386848
 30
0.0
 11
405.82037391606713
 21
99.255999922752395
 31
0.0
  0
LINE
  5
10A5D
  8
0
 10
411.43923148512829
 20
106.4109454397112
 30
0.0
 11
410.2518631890415
 21
105.2052601240575
 31
0.0
  0
LINE
  5
10A60
  8
0
 10
410.23955529555673
 20
104.0700561366975
 30
0.0
 11
410.23588192649169
 21
104.0738889947534
 31
0.0
  0
POLYLINE
  5
10A61
  8
0
 66
     1
 10
0.0
 20
0.0
 30
0.0
 70
   128
  0
VERTEX
  5
139E1
  8
0
 10
411.41408717259748
 20
102.86820391193029
 30
0.0
  0
VERTEX
  5
139E2
  8
0
 10
410.82296532578749
 20
103.4683654084802
 30
0.0
  0
VERTEX
  5
139E3
  8
0
 10
410.23955529555673
 20
104.0700561366975
 30
0.0
  0
SEQEND
  5
139E4
  8
0
  0
ARC
  5
10A66
  8
0
 10
410.82730665949509
 20
104.6406173780011
 30
0.0
 40
0.8061988702313776
 50
135.5427812408964
 51
180.07409558977329
  0
ARC
  5
10A67
  8
0
 10
410.81399002204017
 20
104.6169931526542
 30
0.0
 40
0.7932030613079072
 50
178.3686302533543
 51
223.21182235996201
  0
LINE
  5
10A71
  8
0
 10
419.50000066310162
 20
116.30000025033949
 30
0.0
 11
395.5000004544853
 21
116.30000025033949
 31
0.0
  0
ARC
  5
10A72
  8
0
 10
417.7840679289082
 20
133.80880664662101
 30
0.0
 40
3.8656373069179111
 50
238.28560885219599
 51
250.65017179234539
  0
ARC
  5
10A73
  8
0
 10
419.901802262248
 20
138.73847509705621
 30
0.0
 40
9.2257367401272017
 50
248.38440062488959
 51
255.04873425125359
  0
ARC
  5
10A74
  8
0
 10
418.24774883114179
 20
132.23314593453739
 30
0.0
 40
2.5151822350649988
 50
253.21916255976029
 51
266.31870322984832
  0
POLYLINE
  5
10A75
  8
0
 66
     1
 10
0.0
 20
0.0
 30
0.0
 70
   128
  0
VERTEX
  5
139E5
  8
0
 10
418.08786697685707
 20
129.82514072209591
 30
0.0
  0
VERTEX
  5
139E6
  8
0
 10
418.14808163791878
 20
129.78147659450769
 30
0.0
  0
VERTEX
  5
139E7
  8
0
 10
418.16321190446598
 20
129.73608952015641
 30
0.0
  0
VERTEX
  5
139E8
  8
0
 10
418.08625765144808
 20
129.72315344959489
 30
0.0
  0
SEQEND
  5
139E9
  8
0
  0
ARC
  5
10A76
  8
0
 10
415.45793288853781
 20
124.9575472590974
 30
0.0
 40
5.5326322333884921
 50
61.617890182603283
 51
70.150087057942073
  0
ARC
  5
10A77
  8
0
 10
412.1081879891193
 20
116.954506090927
 30
0.0
 40
14.20421435413815
 50
68.402293870389897
 51
72.758821206865193
  0
ARC
  5
10A78
  8
0
 10
415.56440594211131
 20
128.39200181180291
 30
0.0
 40
2.2580101172036162
 50
70.49746089756141
 51
85.194473018991374
  0
POLYLINE
  5
10A79
  8
0
 66
     1
 10
0.0
 20
0.0
 30
0.0
 70
   128
  0
VERTEX
  5
139EA
  8
0
 10
415.75195908546442
 20
130.52038978785271
 30
0.0
  0
VERTEX
  5
139EB
  8
0
 10
415.66991422325361
 20
130.61109874397511
 30
0.0
  0
VERTEX
  5
139EC
  8
0
 10
415.69074325263489
 20
130.63422907143831
 30
0.0
  0
VERTEX
  5
139ED
  8
0
 10
415.7535684108733
 20
130.64207453280679
 30
0.0
  0
SEQEND
  5
139EE
  8
0
  0
LINE
  5
10A7D
  8
0
 10
416.00000102072943
 20
130.80000076442951
 30
0.0
 11
399.00000009685738
 21
130.80000076442951
 31
0.0
  0
LINE
  5
10A7E
  8
0
 10
414.18054735288013
 20
130.62392491847271
 30
0.0
 11
416.4392341673373
 21
129.91131227463481
 31
0.0
  0
LINE
  5
10A7F
  8
0
 10
413.95532188937062
 20
130.61280306428671
 30
0.0
 11
414.18054735288013
 21
130.62392491847271
 31
0.0
  0
LINE
  5
10A80
  8
0
 10
415.90405616909248
 20
129.71283439546821
 30
0.0
 11
413.95532188937062
 21
130.61280306428671
 31
0.0
  0
LINE
  5
10A81
  8
0
 10
416.12070135772223
 20
129.72121257334939
 30
0.0
 11
415.90405616909248
 21
129.71283439546821
 31
0.0
  0
LINE
  5
10A82
  8
0
 10
414.58219883963449
 20
130.4336482658982
 30
0.0
 11
416.12070135772223
 21
129.72121257334939
 31
0.0
  0
LINE
  5
10A83
  8
0
 10
416.83123342692841
 20
129.7217620536685
 30
0.0
 11
414.58219883963449
 21
130.4336482658982
 31
0.0
  0
LINE
  5
10A84
  8
0
 10
417.06611111760128
 20
129.71269842237231
 30
0.0
 11
416.83123342692841
 21
129.7217620536685
 31
0.0
  0
LINE
  5
10A85
  8
0
 10
415.11737683787931
 20
130.61265591531989
 30
0.0
 11
417.06611111760128
 21
129.71269842237231
 31
0.0
  0
LINE
  5
10A86
  8
0
 10
414.90073164924968
 20
130.62350396066901
 30
0.0
 11
415.11737683787931
 21
130.61265591531989
 31
0.0
  0
LINE
  5
10A87
  8
0
 10
416.4392341673373
 20
129.91131227463481
 30
0.0
 11
414.90073164924968
 21
130.62350396066901
 31
0.0
  0
LINE
  5
10A8E
  8
0
 10
400.58696957305062
 20
114.6000003442168
 30
0.0
 11
400.50000034272659
 21
114.6000003442168
 31
0.0
  0
LINE
  5
10A8F
  8
0
 10
400.58696957305062
 20
111.800000211224
 30
0.0
 11
414.65000052005041
 21
111.800000211224
 31
0.0
  0
LINE
  5
10A90
  8
0
 10
400.58696957305062
 20
114.6000003442168
 30
0.0
 11
400.58696957305062
 21
111.800000211224
 31
0.0
  0
LINE
  5
10A91
  8
0
 10
413.5000006109475
 20
110.8000002219342
 30
0.0
 11
401.60169580951322
 21
110.8000002219342
 31
0.0
  0
LINE
  5
10A92
  8
0
 10
401.60169580951322
 20
110.8000002219342
 30
0.0
 11
400.58696957305062
 21
111.800000211224
 31
0.0
  0
ARC
  5
10AA0
  8
0
 10
419.50277798420382
 20
137.26980881843241
 30
0.0
 40
7.6538828804564316
 50
248.00960218264709
 51
254.3781394116557
  0
ARC
  5
10AA3
  8
0
 10
417.96013255824511
 20
133.8421604349208
 30
0.0
 40
3.9007301117945379
 50
240.18390537938271
 51
250.1682274395933
  0
POLYLINE
  5
10AA4
  8
0
 66
     1
 10
0.0
 20
0.0
 30
0.0
 70
   128
  0
VERTEX
  5
139EF
  8
0
 10
416.00828699767578
 20
130.54178226739171
 30
0.0
  0
VERTEX
  5
139F0
  8
0
 10
415.96886225044722
 20
130.5360360071063
 30
0.0
  0
VERTEX
  5
139F1
  8
0
 10
415.96431925892819
 20
130.5078877136111
 30
0.0
  0
VERTEX
  5
139F2
  8
0
 10
416.02062050253141
 20
130.45778628438711
 30
0.0
  0
SEQEND
  5
139F3
  8
0
  0
ARC
  5
10AA5
  8
0
 10
415.88213186506368
 20
129.00859803435361
 30
0.0
 40
1.538365694469507
 50
70.401487738076284
 51
85.296123130424263
  0
ARC
  5
10AA6
  8
0
 10
413.53609205242662
 20
121.09500215929241
 30
0.0
 40
9.790508907096374
 50
68.003960719976661
 51
73.002560474594503
  0
ARC
  5
10AA7
  8
0
 10
415.4913414392866
 20
125.49639550803781
 30
0.0
 40
4.9798850672324617
 50
62.130883323685559
 51
69.895999792608691
  0
POLYLINE
  5
10AA8
  8
0
 66
     1
 10
0.0
 20
0.0
 30
0.0
 70
   128
  0
VERTEX
  5
139F4
  8
0
 10
417.8315390646456
 20
129.82344571501011
 30
0.0
  0
VERTEX
  5
139F5
  8
0
 10
417.87096474319679
 20
129.82850093394521
 30
0.0
  0
VERTEX
  5
139F6
  8
0
 10
417.87525441497547
 20
129.85385525971651
 30
0.0
  0
VERTEX
  5
139F7
  8
0
 10
417.81920555979002
 20
129.89870216697449
 30
0.0
  0
SEQEND
  5
139F8
  8
0
  0
ARC
  5
10AA9
  8
0
 10
417.94710093564419
 20
131.47037047658739
 30
0.0
 40
1.6509741719133439
 50
252.17370947641081
 51
265.98623268797172
  0
LINE
  5
10AB4
  8
0
 10
419.16031565517181
 20
144.08995900303091
 30
0.0
 11
419.04396645724711
 21
144.12440303713089
 31
0.0
  0
LINE
  5
10ABC
  8
0
 10
395.32899007201178
 20
129.4638620689511
 30
0.0
 11
419.67101104557503
 21
129.4638620689511
 31
0.0
  0
ARC
  5
10AC1
  8
0
 10
407.50000055879337
 20
195.300000347197
 30
0.0
 40
10.500000000000011
 50
14.82328171562248
 51
45.176718284372747
  0
LINE
  5
10AC7
  8
0
 10
411.30356491445968
 20
203.4567704305268
 30
0.0
 11
415.60660908564921
 21
203.4567704305268
 31
0.0
  0
LINE
  5
10AC8
  8
0
 10
415.60660908564921
 20
203.4567704305268
 30
0.0
 11
414.90168660505321
 21
202.74748607545459
 31
0.0
  0
LINE
  5
10ACA
  8
0
 10
418.617274927214
 20
198.24214422832489
 30
0.0
 11
417.65055541691652
 21
197.9863056299659
 31
0.0
  0
ARC
  5
10ACB
  8
0
 10
401.54980644353128
 20
184.99396190214421
 30
0.0
 40
19.900273022230639
 50
14.761063291406771
 51
105.23893612194919
  0
ARC
  5
10AD4
  8
0
 10
413.45019467405513
 20
205.6060387922499
 30
0.0
 40
19.900273022230621
 50
194.76106329140759
 51
285.23893612194922
  0
POLYLINE
  5
10AD8
  8
0
 66
     1
 10
0.0
 20
0.0
 30
0.0
 70
   128
  0
VERTEX
  5
139F9
  8
0
 10
394.50961992144568
 20
202.80000017955899
 30
0.0
  0
VERTEX
  5
139FA
  8
0
 10
394.51381552964438
 20
202.8064616955817
 30
0.0
  0
VERTEX
  5
139FB
  8
0
 10
394.5257327333091
 20
202.8248134069145
 30
0.0
  0
VERTEX
  5
139FC
  8
0
 10
394.54424835741509
 20
202.85332351922989
 30
0.0
  0
VERTEX
  5
139FD
  8
0
 10
394.568911641836
 20
202.89130285382271
 30
0.0
  0
VERTEX
  5
139FE
  8
0
 10
394.59819428622711
 20
202.93639376759529
 30
0.0
  0
VERTEX
  5
139FF
  8
0
 10
394.62870720773918
 20
202.98337992280719
 30
0.0
  0
VERTEX
  5
13A00
  8
0
 10
394.65525176376087
 20
203.02425473928449
 30
0.0
  0
VERTEX
  5
13A01
  8
0
 10
394.67301208525879
 20
203.0516030266881
 30
0.0
  0
VERTEX
  5
13A02
  8
0
 10
394.68033228069532
 20
203.0628748238087
 30
0.0
  0
VERTEX
  5
13A03
  8
0
 10
394.68064427375782
 20
203.06335631757969
 30
0.0
  0
SEQEND
  5
13A04
  8
0
  0
ARC
  5
10AD9
  8
0
 10
397.10772141880432
 20
201.2999610727214
 30
0.0
 40
3.0000443759379101
 50
105.2400054142105
 51
143.99968356284401
  0
ARC
  5
10ADB
  8
0
 10
397.10769549246868
 20
201.30000060001379
 30
0.0
 40
2.9999995214314512
 50
155.99999886149931
 51
194.7602739829419
  0
POLYLINE
  5
10ADC
  8
0
 66
     1
 10
0.0
 20
0.0
 30
0.0
 70
   128
  0
VERTEX
  5
13A05
  8
0
 10
394.36705958098162
 20
202.52021038904789
 30
0.0
  0
VERTEX
  5
13A06
  8
0
 10
394.37062095850689
 20
202.52720043063161
 30
0.0
  0
VERTEX
  5
13A07
  8
0
 10
394.3806717917322
 20
202.5469272397458
 30
0.0
  0
VERTEX
  5
13A08
  8
0
 10
394.39637389034021
 20
202.57774423807859
 30
0.0
  0
VERTEX
  5
13A09
  8
0
 10
394.41740222275251
 20
202.6190130040049
 30
0.0
  0
VERTEX
  5
13A0A
  8
0
 10
394.44228809326881
 20
202.6678548194468
 30
0.0
  0
VERTEX
  5
13A0B
  8
0
 10
394.4678622111677
 20
202.7180475182831
 30
0.0
  0
VERTEX
  5
13A0C
  8
0
 10
394.48958624154318
 20
202.76068206876519
 30
0.0
  0
VERTEX
  5
13A0D
  8
0
 10
394.50373489409668
 20
202.78845177963379
 30
0.0
  0
VERTEX
  5
13A0E
  8
0
 10
394.50941130518902
 20
202.79959226027131
 30
0.0
  0
VERTEX
  5
13A0F
  8
0
 10
394.50961992144568
 20
202.80000017955899
 30
0.0
  0
SEQEND
  5
13A10
  8
0
  0
ARC
  5
10ADD
  8
0
 10
417.89230562511767
 20
189.30000009438029
 30
0.0
 40
2.9999995214314512
 50
335.99999886150027
 51
14.760273982941239
  0
POLYLINE
  5
10ADE
  8
0
 66
     1
 10
0.0
 20
0.0
 30
0.0
 70
   128
  0
VERTEX
  5
13A11
  8
0
 10
420.63294153660519
 20
188.07979030534631
 30
0.0
  0
VERTEX
  5
13A12
  8
0
 10
420.62938015907991
 20
188.0728002637625
 30
0.0
  0
VERTEX
  5
13A13
  8
0
 10
420.61932932585472
 20
188.05307345464831
 30
0.0
  0
VERTEX
  5
13A14
  8
0
 10
420.60362722724659
 20
188.0222564563156
 30
0.0
  0
VERTEX
  5
13A15
  8
0
 10
420.5825988948344
 20
187.98098769038921
 30
0.0
  0
VERTEX
  5
13A16
  8
0
 10
420.5577130243181
 20
187.93214587494731
 30
0.0
  0
VERTEX
  5
13A17
  8
0
 10
420.53213890641922
 20
187.88195317611101
 30
0.0
  0
VERTEX
  5
13A18
  8
0
 10
420.51041487604368
 20
187.83931862562901
 30
0.0
  0
VERTEX
  5
13A19
  8
0
 10
420.49626622349012
 20
187.81154891476041
 30
0.0
  0
VERTEX
  5
13A1A
  8
0
 10
420.49058981239779
 20
187.8004084341228
 30
0.0
  0
VERTEX
  5
13A1B
  8
0
 10
420.49038119614107
 20
187.8000005148352
 30
0.0
  0
SEQEND
  5
13A1C
  8
0
  0
POLYLINE
  5
10AE0
  8
0
 66
     1
 10
0.0
 20
0.0
 30
0.0
 70
   128
  0
VERTEX
  5
13A1D
  8
0
 10
420.49038119614107
 20
187.8000005148352
 30
0.0
  0
VERTEX
  5
13A1E
  8
0
 10
420.48618558794249
 20
187.79353899881249
 30
0.0
  0
VERTEX
  5
13A1F
  8
0
 10
420.47426838427771
 20
187.7751872874797
 30
0.0
  0
VERTEX
  5
13A20
  8
0
 10
420.45575276017178
 20
187.74667717516431
 30
0.0
  0
VERTEX
  5
13A21
  8
0
 10
420.43108947575081
 20
187.7086978405714
 30
0.0
  0
VERTEX
  5
13A22
  8
0
 10
420.40180683135969
 20
187.66360692679891
 30
0.0
  0
VERTEX
  5
13A23
  8
0
 10
420.37129390984762
 20
187.61662077158689
 30
0.0
  0
VERTEX
  5
13A24
  8
0
 10
420.34474935382588
 20
187.5757459551096
 30
0.0
  0
VERTEX
  5
13A25
  8
0
 10
420.32698903232802
 20
187.5483976677061
 30
0.0
  0
VERTEX
  5
13A26
  8
0
 10
420.31966883689148
 20
187.5371258705855
 30
0.0
  0
VERTEX
  5
13A27
  8
0
 10
420.31935684382898
 20
187.53664437681439
 30
0.0
  0
SEQEND
  5
13A28
  8
0
  0
ARC
  5
10AE1
  8
0
 10
417.89227969878198
 20
189.30003962167279
 30
0.0
 40
3.0000443759379301
 50
285.24000541421049
 51
323.99968356284398
  0
LINE
  5
10AE2
  8
0
 10
417.68967805428781
 20
196.63550006286971
 30
0.0
 11
418.61727450042952
 21
198.24214428663251
 31
0.0
  0
ARC
  5
10AE7
  8
0
 10
407.50000055879337
 20
195.30000034719711
 30
0.0
 40
9.0000000000000018
 50
24.04759698540451
 51
65.000000000000298
  0
LINE
  5
10AE8
  8
0
 10
410.69367493502779
 20
204.89145591855049
 30
0.0
 11
409.689813973382
 21
205.15475478023291
 31
0.0
  0
LINE
  5
10AE9
  8
0
 10
410.76553252525622
 20
205.16547989100221
 30
0.0
 11
410.69367493502779
 21
204.89145591855049
 31
0.0
  0
LINE
  5
10AEA
  8
0
 10
409.76167156361032
 20
205.42877875268459
 30
0.0
 11
410.76553252525622
 21
205.16547989100221
 31
0.0
  0
LINE
  5
10AEB
  8
0
 10
409.96437415480602
 20
206.20044283568859
 30
0.0
 11
409.76167156361032
 21
205.42877875268459
 31
0.0
  0
LINE
  5
10AEC
  8
0
 10
411.2470854353158
 20
205.86367752403021
 30
0.0
 11
409.96437415480602
 21
206.20044283568859
 31
0.0
  0
LINE
  5
10AED
  8
0
 10
411.31894302554417
 20
206.1377014964819
 30
0.0
 11
411.2470854353158
 21
205.86367752403021
 31
0.0
  0
LINE
  5
10AEE
  8
0
 10
409.69356766901899
 20
206.5640209242701
 30
0.0
 11
411.31894302554417
 21
206.1377014964819
 31
0.0
  0
LINE
  5
10AEF
  8
0
 10
409.06776336953033
 20
204.1798509657383
 30
0.0
 11
409.69356766901899
 21
206.5640209242701
 31
0.0
  0
LINE
  5
10AF0
  8
0
 10
409.41042744554568
 20
204.090297780931
 30
0.0
 11
409.06776336953033
 21
204.1798509657383
 31
0.0
  0
LINE
  5
10AF1
  8
0
 10
409.689813973382
 20
205.15475478023291
 30
0.0
 11
409.41042744554568
 21
204.090297780931
 31
0.0
  0
ARC
  5
10AF2
  8
0
 10
407.50000055879337
 20
195.30000034719711
 30
0.0
 40
8.5000000000000195
 50
214.20728846043411
 51
265.79271116653791
  0
ARC
  5
10AF3
  8
0
 10
407.50000055879337
 20
195.30000034719711
 30
0.0
 40
8.4999999999999876
 50
34.207288460434093
 51
85.792711166537885
  0
ARC
  5
10AF4
  8
0
 10
405.03070548536778
 20
205.1199822234725
 30
0.0
 40
1.29965739517959
 50
329.96552745193532
 51
15.8746695277428
  0
ARC
  5
10AF5
  8
0
 10
404.97112853844538
 20
205.2330445226942
 30
0.0
 40
1.3319188052465829
 50
10.48754334028599
 51
55.263103720009099
  0
ARC
  5
10AF6
  8
0
 10
405.1859920795244
 20
205.48376730357759
 30
0.0
 40
1.004015309571906
 50
57.186948784713671
 51
103.88839026612079
  0
ARC
  5
10AF7
  8
0
 10
405.15486801500299
 20
205.47125494994401
 30
0.0
 40
1.009237915088611
 50
102.00224715276519
 51
148.48113245093029
  0
ARC
  5
10AF8
  8
0
 10
405.38786645723189
 20
205.3519245350106
 30
0.0
 40
1.2704038412537431
 50
149.38685017345969
 51
196.46829203798939
  0
POLYLINE
  5
10AF9
  8
0
 66
     1
 10
0.0
 20
0.0
 30
0.0
 70
   128
  0
VERTEX
  5
13A29
  8
0
 10
404.26006803505538
 20
204.7088128644221
 30
0.0
  0
VERTEX
  5
13A2A
  8
0
 10
404.25119025632728
 20
204.72627189010379
 30
0.0
  0
VERTEX
  5
13A2B
  8
0
 10
404.16957869194442
 20
204.99178450554609
 30
0.0
  0
SEQEND
  5
13A2C
  8
0
  0
LINE
  5
10AFA
  8
0
 10
406.15585062652809
 20
204.46947645395991
 30
0.0
 11
406.06736591084552
 21
204.37468745147811
 31
0.0
  0
LINE
  5
10AFB
  8
0
 10
408.47742627840478
 20
205.3776454180479
 30
0.0
 11
407.43495529488422
 21
205.4108927026391
 31
0.0
  0
LINE
  5
10AFC
  8
0
 10
408.48600632045412
 20
205.65166939049959
 30
0.0
 11
408.47742627840478
 21
205.3776454180479
 31
0.0
  0
LINE
  5
10AFD
  8
0
 10
407.44353530055372
 20
205.68491667509079
 30
0.0
 11
408.48600632045412
 21
205.65166939049959
 31
0.0
  0
LINE
  5
10AFE
  8
0
 10
407.4692753284761
 20
206.49679992347961
 30
0.0
 11
407.44353530055372
 21
205.68491667509079
 31
0.0
  0
LINE
  5
10AFF
  8
0
 10
408.80132164340449
 20
206.45443685352799
 30
0.0
 11
407.4692753284761
 21
206.49679992347961
 31
0.0
  0
LINE
  5
10B00
  8
0
 10
408.80990168545378
 20
206.72846082597971
 30
0.0
 11
408.80132164340449
 21
206.45443685352799
 31
0.0
  0
LINE
  5
10B01
  8
0
 10
407.1351912326644
 20
206.78154900670049
 30
0.0
 11
408.80990168545378
 21
206.72846082597971
 31
0.0
  0
LINE
  5
10B02
  8
0
 10
407.05743490718288
 20
204.30568102747199
 30
0.0
 11
407.1351912326644
 21
206.78154900670049
 31
0.0
  0
LINE
  5
10B03
  8
0
 10
407.40009901230212
 20
204.29495591670269
 30
0.0
 11
407.05743490718288
 21
204.30568102747199
 31
0.0
  0
LINE
  5
10B04
  8
0
 10
407.43495529488422
 20
205.4108927026391
 30
0.0
 11
407.40009901230212
 21
204.29495591670269
 31
0.0
  0
ARC
  5
10B05
  8
0
 10
404.90944597367968
 20
205.25288557977419
 30
0.0
 40
1.043687719925549
 50
8.0068853828816771
 51
53.330985169663428
  0
ARC
  5
10B06
  8
0
 10
404.8638231883026
 20
205.08685025125899
 30
0.0
 40
1.1231706511226081
 50
334.17897459182342
 51
16.09687306216502
  0
POLYLINE
  5
10B07
  8
0
 66
     1
 10
0.0
 20
0.0
 30
0.0
 70
   128
  0
VERTEX
  5
13A2D
  8
0
 10
405.7532668126413
 20
204.44522888619019
 30
0.0
  0
VERTEX
  5
13A2E
  8
0
 10
405.8748553553595
 20
204.59764041006559
 30
0.0
  0
SEQEND
  5
13A2F
  8
0
  0
POLYLINE
  5
10B08
  8
0
 66
     1
 10
0.0
 20
0.0
 30
0.0
 70
   128
  0
VERTEX
  5
13A30
  8
0
 10
404.50741642154742
 20
205.06954155862331
 30
0.0
  0
VERTEX
  5
13A31
  8
0
 10
404.59742735140009
 20
204.78436686098581
 30
0.0
  0
VERTEX
  5
13A32
  8
0
 10
404.6792126758977
 20
204.6466381319137
 30
0.0
  0
SEQEND
  5
13A33
  8
0
  0
ARC
  5
10B09
  8
0
 10
405.56215676672662
 20
205.38335516653839
 30
0.0
 40
1.1004345397443269
 50
153.71314310980091
 51
196.5691567068352
  0
ARC
  5
10B0A
  8
0
 10
405.16245351759551
 20
205.53090749624189
 30
0.0
 40
0.6781956370797261
 50
103.326511270136
 51
149.93223842006751
  0
ARC
  5
10B0B
  8
0
 10
405.15324917069648
 20
205.5335803763426
 30
0.0
 40
0.6735247717744951
 50
55.707264900979858
 51
102.6169876674247
  0
ARC
  5
10B0C
  8
0
 10
407.50000055879337
 20
195.30000034719711
 30
0.0
 40
12.5
 50
349.26335386021663
 51
130.7366457667554
  0
ARC
  5
10B0D
  8
0
 10
407.50000055879337
 20
195.30000034719711
 30
0.0
 40
12.50000000000003
 50
169.2633538602166
 51
310.73664576675498
  0
LINE
  5
10B12
  8
0
 10
351.69726347550738
 20
135.28350312262771
 30
0.0
 11
351.77918028086413
 21
135.40185932070011
 31
0.0
  0
LINE
  5
10B13
  8
0
 10
351.7290038801728
 20
136.86897736042741
 30
0.0
 11
351.69726347550738
 21
136.9164971634745
 31
0.0
  0
LINE
  5
10B14
  8
0
 10
341.00000018253911
 20
113.0560002289712
 30
0.0
 11
340.38544695824368
 21
113.0560002289712
 31
0.0
  0
LINE
  5
10B15
  8
0
 10
340.38544695824368
 20
111.056000192184
 30
0.0
 11
341.00000018253911
 21
111.056000192184
 31
0.0
  0
ARC
  5
10B16
  8
0
 10
351.32876772794401
 20
141.7242881373873
 30
0.0
 40
3.287438492663346
 50
6.618361255224646
 51
98.073353664981809
  0
LINE
  5
10B17
  8
0
 10
354.59429834038008
 20
132.59999956935641
 30
0.0
 11
354.59429834038008
 21
142.10318345576519
 31
0.0
  0
ARC
  5
10B18
  8
0
 10
354.09429806749392
 20
132.60000019818551
 30
0.0
 40
0.5000000000000142
 50
270.0
 51
0.0
  0
LINE
  5
10B19
  8
0
 10
350.86707726863813
 20
144.97914508705969
 30
0.0
 11
346.13466209731979
 21
145.26566062122581
 31
0.0
  0
ARC
  5
10B1A
  8
0
 10
338.42860135295888
 20
141.88361592017819
 30
0.0
 40
3.0309651855230602
 50
89.249432712264181
 51
175.81901110822031
  0
LINE
  5
10B1B
  8
0
 10
335.4057024046777
 20
142.10459534078831
 30
0.0
 11
335.4057024046777
 21
132.59999956935641
 31
0.0
  0
LINE
  5
10B1C
  8
0
 10
343.85678418925988
 20
145.26364673970539
 30
0.0
 11
339.12123523652542
 21
144.97843701392409
 31
0.0
  0
ARC
  5
10B1D
  8
0
 10
335.90570267756351
 20
132.6000001981854
 30
0.0
 40
0.5
 50
180.0
 51
270.0
  0
LINE
  5
10B1E
  8
0
 10
337.50000054016698
 20
132.1000004187226
 30
0.0
 11
337.50000054016698
 21
130.80000076442951
 31
0.0
  0
LINE
  5
10B1F
  8
0
 10
352.5000002048908
 20
130.80000076442951
 30
0.0
 11
352.5000002048908
 21
132.1000004187226
 31
0.0
  0
LINE
  5
10B20
  8
0
 10
349.00000056251872
 20
105.1373955793679
 30
0.0
 11
349.00000056251872
 21
110.8000002219342
 31
0.0
  0
LINE
  5
10B21
  8
0
 10
349.00000056251872
 20
101.2560002505779
 30
0.0
 11
349.00000056251872
 21
101.5902969669647
 31
0.0
  0
LINE
  5
10B22
  8
0
 10
341.00000018253911
 20
101.52275804430251
 30
0.0
 11
341.00000018253911
 21
101.2560002505779
 31
0.0
  0
LINE
  5
10B23
  8
0
 10
341.00000018253911
 20
114.6000003442168
 30
0.0
 11
341.00000018253911
 21
105.1747855564886
 31
0.0
  0
LINE
  5
10B24
  8
0
 10
341.00000018253911
 20
101.2560002505779
 30
0.0
 11
341.33729984052468
 21
99.997180886566653
 31
0.0
  0
ARC
  5
10B25
  8
0
 10
342.30322574537001
 20
100.2560001981854
 30
0.0
 40
1.000000000000024
 50
194.9999999999992
 51
270.0
  0
ARC
  5
10B26
  8
0
 10
309.25050635682362
 20
133.33441446605011
 30
0.0
 40
44.84376411957539
 50
315.33028040858881
 51
317.6177145049619
  0
LINE
  5
10B27
  8
0
 10
341.06045885011542
 20
104.9516865983605
 30
0.0
 11
342.24930841475708
 21
103.73490247875451
 31
0.0
  0
ARC
  5
10B28
  8
0
 10
341.98228963305871
 20
103.35470008025371
 30
0.0
 40
0.4645997133075896
 50
327.6937230668521
 51
54.919366033114308
  0
ARC
  5
10B2A
  8
0
 10
347.69677499968742
 20
100.2560001981854
 30
0.0
 40
1.0000000000000071
 50
270.0
 51
345.00000000000171
  0
ARC
  5
10B2B
  8
0
 10
382.03330651765549
 20
134.5301377934538
 30
0.0
 40
46.5980791215785
 50
222.40423718276281
 51
224.64867552874369
  0
ARC
  5
10B2C
  8
0
 10
347.97052481415801
 20
103.3397103890975
 30
0.0
 40
0.4168954507771158
 50
154.31563067610071
 51
214.03122142542921
  0
LINE
  5
10B2D
  8
0
 10
348.6627009045331
 20
99.997180886566653
 30
0.0
 11
349.00000056251872
 21
101.2560002505779
 31
0.0
  0
LINE
  5
10B2E
  8
0
 10
332.5000001862644
 20
116.80000033229589
 30
0.0
 11
333.00000026822079
 21
116.30000025033949
 31
0.0
  0
LINE
  5
10B2F
  8
0
 10
357.00000047683699
 20
116.30000025033949
 30
0.0
 11
357.50000055879337
 21
116.80000033229589
 31
0.0
  0
ARC
  5
10B30
  8
0
 10
333.00000037252892
 20
128.99401549201571
 30
0.0
 40
0.5
 50
109.9999999999965
 51
180.0
  0
ARC
  5
10B31
  8
0
 10
357.00000037252892
 20
128.99401549201579
 30
0.0
 40
0.5
 50
0.0
 51
69.999999999996504
  0
LINE
  5
10B32
  8
0
 10
357.50000055879337
 20
116.80000033229589
 30
0.0
 11
357.50000055879337
 21
128.99401541799301
 31
0.0
  0
LINE
  5
10B33
  8
0
 10
332.5000001862644
 20
128.99401541799301
 30
0.0
 11
332.5000001862644
 21
116.80000033229589
 31
0.0
  0
LINE
  5
10B34
  8
0
 10
357.17101085931051
 20
129.4638620689511
 30
0.0
 11
353.50000083446491
 21
130.80000076442951
 31
0.0
  0
ARC
  5
10B38
  8
0
 10
352.40000037252901
 20
115.9000001981854
 30
0.0
 40
0.4000000000000057
 50
90.0
 51
180.0
  0
ARC
  5
10B39
  8
0
 10
337.60000037252883
 20
115.9000001981854
 30
0.0
 40
0.4000000000000057
 50
0.0
 51
90.0
  0
LINE
  5
10B3A
  8
0
 10
352.0000005885957
 20
111.800000211224
 30
0.0
 11
352.0000005885957
 21
115.8999999985099
 31
0.0
  0
LINE
  5
10B3B
  8
0
 10
338.00000015646208
 20
115.8999999985099
 30
0.0
 11
338.00000015646208
 21
114.6000003442168
 31
0.0
  0
LINE
  5
10B3C
  8
0
 10
351.00000042468298
 20
110.8000002219342
 30
0.0
 11
352.0000005885957
 21
111.800000211224
 31
0.0
  0
ARC
  5
10B41
  8
0
 10
351.3642877072997
 20
136.71149350737011
 30
0.0
 40
0.3910234791284231
 50
31.619418723174359
 51
72.709717313739418
  0
ARC
  5
10B42
  8
0
 10
351.3642877072997
 20
135.4885067787321
 30
0.0
 40
0.3910234791284231
 50
287.24678545801208
 51
328.38058127682598
  0
POLYLINE
  5
10B43
  8
0
 66
     1
 10
0.0
 20
0.0
 30
0.0
 70
   128
  0
VERTEX
  5
13A34
  8
0
 10
340.38544695824368
 20
113.0560002289712
 30
0.0
  0
VERTEX
  5
13A35
  8
0
 10
340.25603782385582
 20
113.0219259299338
 30
0.0
  0
VERTEX
  5
13A36
  8
0
 10
340.13544691726548
 20
112.92202551849191
 30
0.0
  0
VERTEX
  5
13A37
  8
0
 10
340.03189362585528
 20
112.7631069626659
 30
0.0
  0
VERTEX
  5
13A38
  8
0
 10
339.952434580773
 20
112.5560001470149
 30
0.0
  0
VERTEX
  5
13A39
  8
0
 10
339.90248402580607
 20
112.314819265157
 30
0.0
  0
VERTEX
  5
13A3A
  8
0
 10
339.88544734194858
 20
112.05600018147381
 30
0.0
  0
VERTEX
  5
13A3B
  8
0
 10
339.90248402580607
 20
111.7971810977906
 30
0.0
  0
VERTEX
  5
13A3C
  8
0
 10
339.952434580773
 20
111.5560002159327
 30
0.0
  0
VERTEX
  5
13A3D
  8
0
 10
340.03189362585528
 20
111.3488934002817
 30
0.0
  0
VERTEX
  5
13A3E
  8
0
 10
340.13544691726548
 20
111.1899747862481
 30
0.0
  0
VERTEX
  5
13A3F
  8
0
 10
340.25603782385582
 20
111.09007437480609
 30
0.0
  0
VERTEX
  5
13A40
  8
0
 10
340.38544695824368
 20
111.056000192184
 30
0.0
  0
SEQEND
  5
13A41
  8
0
  0
POLYLINE
  5
10B47
  8
0
 66
     1
 10
0.0
 20
0.0
 30
0.0
 70
   128
  0
VERTEX
  5
13A42
  8
0
 10
351.35503267896848
 20
135.1631630356132
 30
0.0
  0
VERTEX
  5
13A43
  8
0
 10
351.20854636654252
 20
135.55075358599419
 30
0.0
  0
VERTEX
  5
13A44
  8
0
 10
351.16170363500697
 20
135.81931907683611
 30
0.0
  0
VERTEX
  5
13A45
  8
0
 10
351.14571329206223
 20
136.10024880617851
 30
0.0
  0
VERTEX
  5
13A46
  8
0
 10
351.1615834943949
 20
136.37963440269229
 30
0.0
  0
VERTEX
  5
13A47
  8
0
 10
351.20859246700991
 20
136.64944227784869
 30
0.0
  0
VERTEX
  5
13A48
  8
0
 10
351.3548724895885
 20
137.03660982814819
 30
0.0
  0
SEQEND
  5
13A49
  8
0
  0
ARC
  5
10B4B
  8
0
 10
338.79816428953319
 20
146.32885634215731
 30
0.0
 40
2.1637559240937851
 50
263.24887539119248
 51
276.09507323267741
  0
ARC
  5
10B4C
  8
0
 10
345.01273019010603
 20
126.02818131033931
 30
0.0
 40
19.270167135788149
 50
86.662284535549475
 51
93.439026321441844
  0
ARC
  5
10B4D
  8
0
 10
340.20359223986208
 20
142.0232290315069
 30
0.0
 40
2.7215838233517999
 50
127.57957348960871
 51
186.59185329640761
  0
ARC
  5
10B51
  8
0
 10
337.9913677560466
 20
132.5913620333661
 30
0.0
 40
0.4914431278074739
 50
178.99292550268899
 51
268.95643170609839
  0
ARC
  5
10B5A
  8
0
 10
338.35687219497362
 20
145.5476257940791
 30
0.0
 40
1.3802387363569979
 50
263.11788490281219
 51
277.78356698156659
  0
LINE
  5
10B5B
  8
0
 10
337.50000054016698
 20
141.7108023539185
 30
0.0
 11
337.50000054016698
 21
132.59999956935641
 31
0.0
  0
LINE
  5
10B5F
  8
0
 10
354.09476768128923
 20
132.1000004187226
 30
0.0
 11
335.90570248663408
 21
132.1000004187226
 31
0.0
  0
POLYLINE
  5
10B60
  8
0
 66
     1
 10
0.0
 20
0.0
 30
0.0
 70
   128
  0
VERTEX
  5
13A4A
  8
0
 10
351.35503223165858
 20
135.16316320747131
 30
0.0
  0
VERTEX
  5
13A4B
  8
0
 10
351.48022147413292
 20
135.1150650524381
 30
0.0
  0
SEQEND
  5
13A4C
  8
0
  0
POLYLINE
  5
10B61
  8
0
 66
     1
 10
0.0
 20
0.0
 30
0.0
 70
   128
  0
VERTEX
  5
13A4D
  8
0
 10
348.71143678203208
 20
104.72737103700641
 30
0.0
  0
VERTEX
  5
13A4E
  8
0
 10
348.94035214558232
 20
104.9529518000781
 30
0.0
  0
VERTEX
  5
13A4F
  8
0
 10
349.00000056251872
 20
105.1373955793679
 30
0.0
  0
SEQEND
  5
13A50
  8
0
  0
LINE
  5
10B62
  8
0
 10
348.71143678203208
 20
104.72737103700641
 30
0.0
 11
348.46410195343179
 21
104.72737103700641
 31
0.0
  0
POLYLINE
  5
10B63
  8
0
 66
     1
 10
0.0
 20
0.0
 30
0.0
 70
   128
  0
VERTEX
  5
13A51
  8
0
 10
347.47372887097288
 20
102.9560001567006
 30
0.0
  0
VERTEX
  5
13A52
  8
0
 10
347.47946558520192
 20
103.1238063238561
 30
0.0
  0
VERTEX
  5
13A53
  8
0
 10
347.60606817901117
 20
103.7517761811614
 30
0.0
  0
VERTEX
  5
13A54
  8
0
 10
347.87260711193068
 20
104.2887250892818
 30
0.0
  0
VERTEX
  5
13A55
  8
0
 10
348.13490852713568
 20
104.582803696394
 30
0.0
  0
VERTEX
  5
13A56
  8
0
 10
348.36710121482599
 20
104.71315579488871
 30
0.0
  0
VERTEX
  5
13A57
  8
0
 10
348.46410195343179
 20
104.72737103700641
 30
0.0
  0
SEQEND
  5
13A58
  8
0
  0
LINE
  5
10B64
  8
0
 10
347.47372887097288
 20
102.9560001567006
 30
0.0
 11
347.47372887097288
 21
101.2560002505779
 31
0.0
  0
LINE
  5
10B65
  8
0
 10
341.00000018253911
 20
101.2560002505779
 30
0.0
 11
347.47372887097288
 21
101.2560002505779
 31
0.0
  0
POLYLINE
  5
10B66
  8
0
 66
     1
 10
0.0
 20
0.0
 30
0.0
 70
   128
  0
VERTEX
  5
13A59
  8
0
 10
343.76199280843127
 20
102.86820391193029
 30
0.0
  0
VERTEX
  5
13A5A
  8
0
 10
343.0473713017999
 20
102.66011990606781
 30
0.0
  0
VERTEX
  5
13A5B
  8
0
 10
342.40407420322288
 20
102.4489453062415
 30
0.0
  0
VERTEX
  5
13A5C
  8
0
 10
341.86147938482452
 20
102.2391024976969
 30
0.0
  0
VERTEX
  5
13A5D
  8
0
 10
341.43919747322792
 20
102.0298017188907
 30
0.0
  0
VERTEX
  5
13A5E
  8
0
 10
341.14209602586908
 20
101.8083984032273
 30
0.0
  0
VERTEX
  5
13A5F
  8
0
 10
341.0078628733753
 20
101.5903254970908
 30
0.0
  0
VERTEX
  5
13A60
  8
0
 10
341.00000018253911
 20
101.52275804430251
 30
0.0
  0
SEQEND
  5
13A61
  8
0
  0
LINE
  5
10B67
  8
0
 10
343.76199280843127
 20
102.86820391193029
 30
0.0
 11
344.17542360490182
 21
102.86820391193029
 31
0.0
  0
POLYLINE
  5
10B68
  8
0
 66
     1
 10
0.0
 20
0.0
 30
0.0
 70
   128
  0
VERTEX
  5
13A62
  8
0
 10
344.17542360490182
 20
102.86820391193029
 30
0.0
  0
VERTEX
  5
13A63
  8
0
 10
344.38119659200299
 20
102.8120675124228
 30
0.0
  0
VERTEX
  5
13A64
  8
0
 10
344.5444573520216
 20
102.76766251772639
 30
0.0
  0
SEQEND
  5
13A65
  8
0
  0
LINE
  5
10B69
  8
0
 10
344.5444573520216
 20
102.76766251772639
 30
0.0
 11
344.54805662273418
 21
102.76626786217091
 31
0.0
  0
POLYLINE
  5
10B6A
  8
0
 66
     1
 10
0.0
 20
0.0
 30
0.0
 70
   128
  0
VERTEX
  5
13A66
  8
0
 10
344.54805662273418
 20
102.76626786217091
 30
0.0
  0
VERTEX
  5
13A67
  8
0
 10
344.69320196541952
 20
102.7198758907616
 30
0.0
  0
VERTEX
  5
13A68
  8
0
 10
345.12926717463398
 20
102.68795760348441
 30
0.0
  0
VERTEX
  5
13A69
  8
0
 10
345.26060785748979
 20
102.7090078219771
 30
0.0
  0
VERTEX
  5
13A6A
  8
0
 10
345.6705731153487
 20
102.87430267781021
 30
0.0
  0
VERTEX
  5
13A6B
  8
0
 10
346.00602677557612
 20
103.1537883915007
 30
0.0
  0
VERTEX
  5
13A6C
  8
0
 10
346.29106864333141
 20
103.5817194730043
 30
0.0
  0
VERTEX
  5
13A6D
  8
0
 10
346.46481082774687
 20
104.1611231863499
 30
0.0
  0
VERTEX
  5
13A6E
  8
0
 10
346.45450981799502
 20
104.80895815417171
 30
0.0
  0
VERTEX
  5
13A6F
  8
0
 10
346.2427254347129
 20
105.4175541736185
 30
0.0
  0
VERTEX
  5
13A70
  8
0
 10
346.06378670316178
 20
105.683739669621
 30
0.0
  0
VERTEX
  5
13A71
  8
0
 10
345.8384806220418
 20
105.9111970476806
 30
0.0
  0
VERTEX
  5
13A72
  8
0
 10
345.45181830646459
 20
106.1388020403683
 30
0.0
  0
SEQEND
  5
13A73
  8
0
  0
POLYLINE
  5
10B6B
  8
0
 66
     1
 10
0.0
 20
0.0
 30
0.0
 70
   128
  0
VERTEX
  5
13A74
  8
0
 10
345.45181830646459
 20
106.1388020403683
 30
0.0
  0
VERTEX
  5
13A75
  8
0
 10
345.44978947844339
 20
106.13977992907169
 30
0.0
  0
VERTEX
  5
13A76
  8
0
 10
345.44801856856782
 20
106.1402609571814
 30
0.0
  0
SEQEND
  5
13A77
  8
0
  0
POLYLINE
  5
10B6C
  8
0
 66
     1
 10
0.0
 20
0.0
 30
0.0
 70
   128
  0
VERTEX
  5
13A78
  8
0
 10
345.44801856856782
 20
106.1402609571814
 30
0.0
  0
VERTEX
  5
13A79
  8
0
 10
345.44411990675133
 20
106.1417431570589
 30
0.0
  0
VERTEX
  5
13A7A
  8
0
 10
345.19766999466799
 20
106.207900121808
 30
0.0
  0
SEQEND
  5
13A7B
  8
0
  0
POLYLINE
  5
10B6D
  8
0
 66
     1
 10
0.0
 20
0.0
 30
0.0
 70
   128
  0
VERTEX
  5
13A7C
  8
0
 10
345.19766999466799
 20
106.207900121808
 30
0.0
  0
VERTEX
  5
13A7D
  8
0
 10
344.94910972382053
 20
106.2743728049099
 30
0.0
  0
VERTEX
  5
13A7E
  8
0
 10
344.7548272309358
 20
106.32585817947979
 30
0.0
  0
SEQEND
  5
13A7F
  8
0
  0
POLYLINE
  5
10B6E
  8
0
 66
     1
 10
0.0
 20
0.0
 30
0.0
 70
   128
  0
VERTEX
  5
13A80
  8
0
 10
344.30540765635658
 20
106.4109454397112
 30
0.0
  0
VERTEX
  5
13A81
  8
0
 10
344.42082983907301
 20
106.4053714741021
 30
0.0
  0
VERTEX
  5
13A82
  8
0
 10
344.7548272309358
 20
106.32585817947979
 30
0.0
  0
SEQEND
  5
13A83
  8
0
  0
LINE
  5
10B6F
  8
0
 10
344.30540765635658
 20
106.4109454397112
 30
0.0
 11
343.63191975746292
 21
106.4109454397112
 31
0.0
  0
POLYLINE
  5
10B70
  8
0
 66
     1
 10
0.0
 20
0.0
 30
0.0
 70
   128
  0
VERTEX
  5
13A84
  8
0
 10
343.21608690544952
 20
106.32585817947979
 30
0.0
  0
VERTEX
  5
13A85
  8
0
 10
343.40113953687239
 20
106.3856416381895
 30
0.0
  0
VERTEX
  5
13A86
  8
0
 10
343.63191975746292
 20
106.4109454397112
 30
0.0
  0
SEQEND
  5
13A87
  8
0
  0
POLYLINE
  5
10B71
  8
0
 66
     1
 10
0.0
 20
0.0
 30
0.0
 70
   128
  0
VERTEX
  5
13A88
  8
0
 10
341.06045885011542
 20
104.9516865983605
 30
0.0
  0
VERTEX
  5
13A89
  8
0
 10
341.05964859947551
 20
104.9529518000781
 30
0.0
  0
VERTEX
  5
13A8A
  8
0
 10
341.00000018253911
 20
105.1747855564886
 30
0.0
  0
VERTEX
  5
13A8B
  8
0
 10
341.11874357797188
 20
105.3998422808945
 30
0.0
  0
VERTEX
  5
13A8C
  8
0
 10
341.4028360787778
 20
105.6226118467748
 30
0.0
  0
VERTEX
  5
13A8D
  8
0
 10
341.86822448857117
 20
105.8574629947543
 30
0.0
  0
VERTEX
  5
13A8E
  8
0
 10
342.48203963972622
 20
106.09143124893311
 30
0.0
  0
VERTEX
  5
13A8F
  8
0
 10
343.21608690544952
 20
106.32585817947979
 30
0.0
  0
SEQEND
  5
13A90
  8
0
  0
POLYLINE
  5
10B74
  8
0
 66
     1
 10
0.0
 20
0.0
 30
0.0
 70
   128
  0
VERTEX
  5
13A91
  8
0
 10
348.88206881471058
 20
101.78297888487469
 30
0.0
  0
VERTEX
  5
13A92
  8
0
 10
349.00000056251872
 20
101.5902969669647
 30
0.0
  0
VERTEX
  5
13A93
  8
0
 10
348.95908802747709
 20
101.368310302496
 30
0.0
  0
SEQEND
  5
13A94
  8
0
  0
LINE
  5
10B75
  8
0
 10
347.47372887097288
 20
101.2560002505779
 30
0.0
 11
347.37793000414962
 21
99.997180886566653
 31
0.0
  0
ARC
  5
10B77
  8
0
 10
346.41164215604829
 20
99.91192451522447
 30
0.0
 40
0.9700416765492699
 50
318.4060188220497
 51
5.0421968277766114
  0
LINE
  5
10B78
  8
0
 10
347.13710512034578
 20
99.26796462386848
 30
0.0
 11
347.10984577424807
 21
99.255999922752395
 31
0.0
  0
POLYLINE
  5
10B9B
  8
0
 66
     1
 10
0.0
 20
0.0
 30
0.0
 70
   128
  0
VERTEX
  5
13A95
  8
0
 10
348.71143678203208
 20
104.72737103700641
 30
0.0
  0
VERTEX
  5
13A96
  8
0
 10
348.14764762297261
 20
104.12720954045651
 30
0.0
  0
VERTEX
  5
13A97
  8
0
 10
347.5990213267504
 20
103.5255188122392
 30
0.0
  0
SEQEND
  5
13A98
  8
0
  0
LINE
  5
10B9C
  8
0
 10
347.5990213267504
 20
103.5255188122392
 30
0.0
 11
347.5948205962776
 21
103.52039840072391
 31
0.0
  0
LINE
  5
10BA1
  8
0
 10
347.59507228620339
 20
102.42543965578081
 30
0.0
 11
347.63618226163078
 21
102.3910766467452
 31
0.0
  0
LINE
  5
10BA2
  8
0
 10
347.63618226163078
 20
102.3910766467452
 30
0.0
 11
347.70279045216728
 21
102.3390790447593
 31
0.0
  0
POLYLINE
  5
10BA4
  8
0
 66
     1
 10
0.0
 20
0.0
 30
0.0
 70
   128
  0
VERTEX
  5
13A99
  8
0
 10
347.94051007367659
 20
102.1609840914607
 30
0.0
  0
VERTEX
  5
13A9A
  8
0
 10
348.3436274621634
 20
101.8606167286634
 30
0.0
  0
VERTEX
  5
13A9B
  8
0
 10
348.95908802747709
 20
101.368310302496
 30
0.0
  0
SEQEND
  5
13A9C
  8
0
  0
LINE
  5
10BA7
  8
0
 10
347.70279045216728
 20
102.3390790447593
 30
0.0
 11
347.94025349430729
 21
102.16155219823121
 31
0.0
  0
LINE
  5
10BA8
  8
0
 10
347.94025349430729
 20
102.16155219823121
 30
0.0
 11
347.94051007367659
 21
102.1609840914607
 31
0.0
  0
LINE
  5
10BA9
  8
0
 10
347.69677503965778
 20
99.255999922752395
 30
0.0
 11
342.30322574537001
 21
99.256000198185461
 31
0.0
  0
ARC
  5
10BB3
  8
0
 10
348.21714369768898
 20
102.9418612643363
 30
0.0
 40
0.8084949713951587
 50
203.14623838507021
 51
219.69825368928369
  0
LINE
  5
10BB6
  8
0
 10
357.00000047683699
 20
116.30000025033949
 30
0.0
 11
333.00000026822079
 21
116.30000025033949
 31
0.0
  0
LINE
  5
10BB8
  8
0
 10
353.50000083446491
 20
130.80000076442951
 30
0.0
 11
336.49999991059292
 21
130.80000076442951
 31
0.0
  0
ARC
  5
10BB9
  8
0
 10
345.05967341852499
 20
102.9159446906763
 30
0.0
 40
29.106660749111771
 50
108.4864462736989
 51
110.58784532271321
  0
ARC
  5
10BBA
  8
0
 10
340.85330604132139
 20
113.5785591883712
 30
0.0
 40
17.646887767067199
 50
109.97649611781139
 51
112.94957798383039
  0
POLYLINE
  5
10BBB
  8
0
 66
     1
 10
0.0
 20
0.0
 30
0.0
 70
   128
  0
VERTEX
  5
13A9D
  8
0
 10
333.841570354998
 20
129.7273034229874
 30
0.0
  0
VERTEX
  5
13A9E
  8
0
 10
333.81331961601961
 20
129.7331353649497
 30
0.0
  0
VERTEX
  5
13A9F
  8
0
 10
333.85050546377892
 20
129.76845297962419
 30
0.0
  0
VERTEX
  5
13AA0
  8
0
 10
333.97241558879603
 20
129.8286667093634
 30
0.0
  0
SEQEND
  5
13AA1
  8
0
  0
ARC
  5
10BBC
  8
0
 10
333.52501568257952
 20
132.25518228037581
 30
0.0
 40
2.5476221027186949
 50
277.13773248011722
 51
287.73683231426861
  0
ARC
  5
10BBD
  8
0
 10
330.65707412771269
 20
142.46086286306789
 30
0.0
 40
13.14731009021804
 50
286.09147816043122
 51
290.71816412361591
  0
ARC
  5
10BBE
  8
0
 10
332.33966895576202
 20
138.43521320889241
 30
0.0
 40
8.7880114060004022
 50
289.74259691964841
 51
295.76206666461621
  0
POLYLINE
  5
10BBF
  8
0
 66
     1
 10
0.0
 20
0.0
 30
0.0
 70
   128
  0
VERTEX
  5
13AA2
  8
0
 10
336.29062648862589
 20
130.64176719635719
 30
0.0
  0
VERTEX
  5
13AA3
  8
0
 10
336.31837151944632
 20
130.63421789556739
 30
0.0
  0
VERTEX
  5
13AA4
  8
0
 10
336.28044713288529
 20
130.5907828733325
 30
0.0
  0
VERTEX
  5
13AA5
  8
0
 10
336.15924574434752
 20
130.5206710472703
 30
0.0
  0
SEQEND
  5
13AA6
  8
0
  0
ARC
  5
10BC0
  8
0
 10
336.52636844452428
 20
128.81155350159389
 30
0.0
 40
1.8453336929319679
 50
97.339610748248816
 51
112.15312076373419
  0
LINE
  5
10BC9
  8
0
 10
339.82864085584868
 20
114.6000003442168
 30
0.0
 11
339.82864085584868
 21
111.800000211224
 31
0.0
  0
LINE
  5
10BCA
  8
0
 10
346.90000040456641
 20
111.800000211224
 30
0.0
 11
352.0000005885957
 21
111.800000211224
 31
0.0
  0
LINE
  5
10BCB
  8
0
 10
346.10000036656839
 20
114.6000003442168
 30
0.0
 11
346.10000036656839
 21
113.80000030621891
 31
0.0
  0
LINE
  5
10BCC
  8
0
 10
346.10000036656839
 20
114.6000003442168
 30
0.0
 11
346.00000042002642
 21
114.6000003442168
 31
0.0
  0
LINE
  5
10BCD
  8
0
 10
351.00000042468298
 20
110.8000002219342
 30
0.0
 11
346.10000036656839
 21
110.8000002219342
 31
0.0
  0
LINE
  5
10BCF
  8
0
 10
339.82864085584868
 20
111.800000211224
 30
0.0
 11
339.92411161176989
 21
111.6927546252784
 31
0.0
  0
LINE
  5
10BD0
  8
0
 10
340.49095463007683
 20
111.056000192184
 30
0.0
 11
340.71884740143997
 21
110.8000002219342
 31
0.0
  0
ARC
  5
10BDB
  8
0
 10
338.86922929970689
 20
119.1120350947353
 30
0.0
 40
11.75273549834686
 50
109.72951940867461
 51
113.3558149753775
  0
ARC
  5
10BDC
  8
0
 10
342.48726931430463
 20
110.0272232091028
 30
0.0
 40
21.528284300493478
 50
108.3706271416501
 51
110.6312347730822
  0
ARC
  5
10BDD
  8
0
 10
336.25638618387973
 20
128.9899921223402
 30
0.0
 40
1.5694260298592519
 50
98.53085490221973
 51
110.6716399931113
  0
POLYLINE
  5
10BDE
  8
0
 66
     1
 10
0.0
 20
0.0
 30
0.0
 70
   128
  0
VERTEX
  5
13AA7
  8
0
 10
335.92168677598232
 20
130.45843262225389
 30
0.0
  0
VERTEX
  5
13AA8
  8
0
 10
336.02683216333378
 20
130.5193895474076
 30
0.0
  0
VERTEX
  5
13AA9
  8
0
 10
336.04029536247242
 20
130.5360546335578
 30
0.0
  0
VERTEX
  5
13AAA
  8
0
 10
336.02357439696777
 20
130.54205421358341
 30
0.0
  0
SEQEND
  5
13AAB
  8
0
  0
ARC
  5
10BDF
  8
0
 10
332.6696658408153
 20
137.40077970715751
 30
0.0
 40
7.6662783154561556
 50
289.51377267359641
 51
295.09991828737759
  0
ARC
  5
10BE0
  8
0
 10
330.76994576971208
 20
141.95089914847159
 30
0.0
 40
12.592524658994011
 50
286.89372643030168
 51
290.74559553329198
  0
ARC
  5
10BE1
  8
0
 10
333.9020694455034
 20
131.4403320295956
 30
0.0
 40
1.626362421148186
 50
277.31553090865151
 51
288.91580642907587
  0
POLYLINE
  5
10BE2
  8
0
 66
     1
 10
0.0
 20
0.0
 30
0.0
 70
   128
  0
VERTEX
  5
13AAC
  8
0
 10
334.20997455716122
 20
129.9017587676644
 30
0.0
  0
VERTEX
  5
13AAD
  8
0
 10
334.10552859306318
 20
129.84697837382549
 30
0.0
  0
VERTEX
  5
13AAE
  8
0
 10
334.09243699163193
 20
129.83237151056531
 30
0.0
  0
VERTEX
  5
13AAF
  8
0
 10
334.10915981978172
 20
129.82720825821161
 30
0.0
  0
SEQEND
  5
13AB0
  8
0
  0
LINE
  5
10BEE
  8
0
 10
340.71884740143997
 20
110.8000002219342
 30
0.0
 11
341.00000018253911
 21
110.8000002219342
 31
0.0
  0
ARC
  5
10BEF
  8
0
 10
350.99925370500063
 20
55.220990724974392
 30
0.0
 40
89.758251682495825
 50
90.084372796370587
 51
97.664560214221083
  0
POLYLINE
  5
10BF3
  8
0
 66
     1
 10
0.0
 20
0.0
 30
0.0
 70
   128
  0
VERTEX
  5
13AB1
  8
0
 10
339.12124941289659
 20
144.97843786772989
 30
0.0
  0
VERTEX
  5
13AB2
  8
0
 10
338.48555123433459
 20
144.9178637936711
 30
0.0
  0
VERTEX
  5
13AB3
  8
0
 10
337.98627618700249
 20
144.81532145291561
 30
0.0
  0
VERTEX
  5
13AB4
  8
0
 10
337.70494412630779
 20
144.6814084425568
 30
0.0
  0
VERTEX
  5
13AB5
  8
0
 10
337.64756347984058
 20
144.52413786202669
 30
0.0
  0
VERTEX
  5
13AB6
  8
0
 10
337.81001593917603
 20
144.352245517075
 30
0.0
  0
VERTEX
  5
13AB7
  8
0
 10
338.19148240610951
 20
144.17733196169129
 30
0.0
  0
SEQEND
  5
13AB8
  8
0
  0
LINE
  5
10BFC
  8
0
 10
332.82898988574732
 20
129.4638620689511
 30
0.0
 11
357.17101085931051
 21
129.4638620689511
 31
0.0
  0
LINE
  5
10BFE
  8
0
 10
476.69726384803641
 20
135.28350312262771
 30
0.0
 11
476.7791806533931
 21
135.40185932070011
 31
0.0
  0
LINE
  5
10BFF
  8
0
 10
476.72900425270188
 20
136.86897736042741
 30
0.0
 11
476.69726384803641
 21
136.9164971634745
 31
0.0
  0
LINE
  5
10C00
  8
0
 10
474.50904648751009
 20
111.056000192184
 30
0.0
 11
474.61455415934307
 21
111.056000192184
 31
0.0
  0
ARC
  5
10C01
  8
0
 10
476.32675042477729
 20
141.72286112011651
 30
0.0
 40
3.2897709389112659
 50
6.6634249212635313
 51
98.188375394161582
  0
LINE
  5
10C02
  8
0
 10
479.59429871290911
 20
132.59999956935641
 30
0.0
 11
479.59429871290911
 21
142.10459534078831
 31
0.0
  0
ARC
  5
10C03
  8
0
 10
479.09429844002341
 20
132.6000001981854
 30
0.0
 40
0.5
 50
270.0
 51
0.0
  0
LINE
  5
10C04
  8
0
 10
475.86106065645328
 20
144.97950894639251
 30
0.0
 11
471.13466246984888
 21
145.26566062122581
 31
0.0
  0
ARC
  5
10C05
  8
0
 10
463.44483358707049
 20
141.87506612745531
 30
0.0
 40
3.0476800348685771
 50
88.329721839257175
 51
175.70742498709001
  0
LINE
  5
10C06
  8
0
 10
460.40570277720678
 20
142.10318345576519
 30
0.0
 11
460.40570277720678
 21
132.59999956935641
 31
0.0
  0
LINE
  5
10C07
  8
0
 10
468.56813714999032
 20
145.2420175363003
 30
0.0
 11
464.11864420399058
 21
144.97828055173159
 31
0.0
  0
ARC
  5
10C08
  8
0
 10
460.90570305009288
 20
132.60000019818551
 30
0.0
 40
0.5000000000000142
 50
180.0
 51
270.0
  0
LINE
  5
10C09
  8
0
 10
462.50000091269601
 20
132.1000004187226
 30
0.0
 11
462.50000091269601
 21
130.80000076442951
 31
0.0
  0
LINE
  5
10C0A
  8
0
 10
477.50000057741988
 20
130.80000076442951
 30
0.0
 11
477.50000057741988
 21
132.1000004187226
 31
0.0
  0
LINE
  5
10C0B
  8
0
 10
474.00000093504769
 20
105.1373955793679
 30
0.0
 11
474.00000093504769
 21
110.8000002219342
 31
0.0
  0
LINE
  5
10C0C
  8
0
 10
474.00000093504769
 20
101.2560002505779
 30
0.0
 11
474.00000093504769
 21
101.5903254970908
 31
0.0
  0
LINE
  5
10C0D
  8
0
 10
466.00000055506808
 20
101.52275804430251
 30
0.0
 11
466.00000055506808
 21
101.2560002505779
 31
0.0
  0
LINE
  5
10C0E
  8
0
 10
466.00000055506808
 20
110.8000002219342
 30
0.0
 11
466.00000055506808
 21
105.17485244199629
 31
0.0
  0
LINE
  5
10C0F
  8
0
 10
466.00000055506808
 20
101.2560002505779
 30
0.0
 11
466.33730021305371
 21
99.997180886566653
 31
0.0
  0
ARC
  5
10C10
  8
0
 10
467.30322611789938
 20
100.2560001981854
 30
0.0
 40
1.0000000000000071
 50
194.99999999999989
 51
270.0
  0
ARC
  5
10C11
  8
0
 10
434.25050672956411
 20
133.33441446584951
 30
0.0
 40
44.843764119284288
 50
315.33028040858039
 51
317.61771450496599
  0
LINE
  5
10C12
  8
0
 10
466.0604592226444
 20
104.9516865983605
 30
0.0
 11
467.24641540087748
 21
103.7410915829241
 31
0.0
  0
ARC
  5
10C13
  8
0
 10
466.97577521832159
 20
103.3559075089662
 30
0.0
 40
0.4707577713057975
 50
327.99328511962761
 51
54.907141516197868
  0
ARC
  5
10C15
  8
0
 10
472.69677537221679
 20
100.2560001981854
 30
0.0
 40
1.0000000000000071
 50
270.0
 51
345.00000000000171
  0
ARC
  5
10C16
  8
0
 10
507.03330689018492
 20
134.5301377934538
 30
0.0
 40
46.5980791215785
 50
222.40423718276281
 51
224.64867552874369
  0
ARC
  5
10C17
  8
0
 10
472.97052518668698
 20
103.3397103890975
 30
0.0
 40
0.4168954507770646
 50
154.31563067609861
 51
214.03122142543739
  0
LINE
  5
10C18
  8
0
 10
473.66270127706218
 20
99.997180886566653
 30
0.0
 11
474.00000093504769
 21
101.2560002505779
 31
0.0
  0
LINE
  5
10C19
  8
0
 10
482.50000093132252
 20
116.80000033229589
 30
0.0
 11
482.50000093132252
 21
128.99401541799301
 31
0.0
  0
LINE
  5
10C1A
  8
0
 10
457.50000055879337
 20
128.99401541799301
 30
0.0
 11
457.50000055879337
 21
116.80000033229589
 31
0.0
  0
ARC
  5
10C1B
  8
0
 10
458.00000074505789
 20
128.99401549201579
 30
0.0
 40
0.5
 50
110.0000000000034
 51
180.0
  0
ARC
  5
10C1C
  8
0
 10
482.00000074505789
 20
128.99401549201571
 30
0.0
 40
0.5
 50
0.0
 51
69.999999999996504
  0
LINE
  5
10C1D
  8
0
 10
457.50000055879337
 20
116.80000033229589
 30
0.0
 11
458.00000064074982
 21
116.30000025033949
 31
0.0
  0
LINE
  5
10C1E
  8
0
 10
482.00000084936607
 20
116.30000025033949
 30
0.0
 11
482.50000093132252
 21
116.80000033229589
 31
0.0
  0
LINE
  5
10C1F
  8
0
 10
482.1710108167207
 20
129.4638618024087
 30
0.0
 11
478.50000120699389
 21
130.80000076442951
 31
0.0
  0
LINE
  5
10C22
  8
0
 10
461.50000028312189
 20
130.80000076442951
 30
0.0
 11
457.82899025827629
 21
129.4638620689511
 31
0.0
  0
ARC
  5
10C25
  8
0
 10
477.40000074505798
 20
115.9000001981854
 30
0.0
 40
0.4000000000000057
 50
90.0
 51
180.0
  0
ARC
  5
10C26
  8
0
 10
462.60000074505831
 20
115.9000001981854
 30
0.0
 40
0.4000000000000057
 50
0.0
 51
90.0
  0
LINE
  5
10C27
  8
0
 10
477.00000096112478
 20
114.6000003442168
 30
0.0
 11
477.00000096112478
 21
115.8999999985099
 31
0.0
  0
LINE
  5
10C28
  8
0
 10
463.00000052899111
 20
115.8999999985099
 30
0.0
 11
463.00000052899111
 21
111.800000211224
 31
0.0
  0
LINE
  5
10C29
  8
0
 10
463.00000052899111
 20
111.800000211224
 30
0.0
 11
464.00000069290388
 21
110.8000002219342
 31
0.0
  0
ARC
  5
10C2C
  8
0
 10
476.36428807982873
 20
136.71149350737011
 30
0.0
 40
0.3910234791284231
 50
31.61941872317437
 51
72.738213213621194
  0
ARC
  5
10C2D
  8
0
 10
476.36428807982873
 20
135.4885067787321
 30
0.0
 40
0.3910234791284231
 50
287.24134140066622
 51
328.38058127682598
  0
POLYLINE
  5
10C2F
  8
0
 66
     1
 10
0.0
 20
0.0
 30
0.0
 70
   128
  0
VERTEX
  5
13AB9
  8
0
 10
476.7791806533931
 20
135.40185932070011
 30
0.0
  0
VERTEX
  5
13ABA
  8
0
 10
476.86282785609347
 20
135.5809880420565
 30
0.0
  0
VERTEX
  5
13ABB
  8
0
 10
476.91920872777689
 20
135.79860832542181
 30
0.0
  0
VERTEX
  5
13ABC
  8
0
 10
476.9441420957445
 20
136.03858221322301
 30
0.0
  0
VERTEX
  5
13ABD
  8
0
 10
476.93577928468568
 20
136.28311026841399
 30
0.0
  0
VERTEX
  5
13ABE
  8
0
 10
476.89473962411267
 20
136.51405964046711
 30
0.0
  0
VERTEX
  5
13ABF
  8
0
 10
476.8240676075219
 20
136.71429771929979
 30
0.0
  0
VERTEX
  5
13AC0
  8
0
 10
476.72900425270188
 20
136.86897736042741
 30
0.0
  0
SEQEND
  5
13AC1
  8
0
  0
POLYLINE
  5
10C30
  8
0
 66
     1
 10
0.0
 20
0.0
 30
0.0
 70
   128
  0
VERTEX
  5
13AC2
  8
0
 10
475.08257312815408
 20
111.700262534532
 30
0.0
  0
VERTEX
  5
13AC3
  8
0
 10
475.04756653681392
 20
111.5560002159327
 30
0.0
  0
VERTEX
  5
13AC4
  8
0
 10
474.96810749173147
 20
111.3488934002817
 30
0.0
  0
VERTEX
  5
13AC5
  8
0
 10
474.86455420032132
 20
111.1899747862481
 30
0.0
  0
VERTEX
  5
13AC6
  8
0
 10
474.7439632937311
 20
111.09007437480609
 30
0.0
  0
VERTEX
  5
13AC7
  8
0
 10
474.61455415934307
 20
111.056000192184
 30
0.0
  0
VERTEX
  5
13AC8
  8
0
 10
474.52286483697378
 20
111.0715227348105
 30
0.0
  0
SEQEND
  5
13AC9
  8
0
  0
POLYLINE
  5
10C34
  8
0
 66
     1
 10
0.0
 20
0.0
 30
0.0
 70
   128
  0
VERTEX
  5
13ACA
  8
0
 10
476.35506706524973
 20
135.16315575607311
 30
0.0
  0
VERTEX
  5
13ACB
  8
0
 10
476.20881915092463
 20
135.54960619658229
 30
0.0
  0
VERTEX
  5
13ACC
  8
0
 10
476.16159364581102
 20
135.82028020173311
 30
0.0
  0
VERTEX
  5
13ACD
  8
0
 10
476.14571413025249
 20
136.10155079513791
 30
0.0
  0
VERTEX
  5
13ACE
  8
0
 10
476.16174265742291
 20
136.38101648539299
 30
0.0
  0
VERTEX
  5
13ACF
  8
0
 10
476.20887130498869
 20
136.65061388164759
 30
0.0
  0
VERTEX
  5
13AD0
  8
0
 10
476.35507415965031
 20
137.03685761054311
 30
0.0
  0
SEQEND
  5
13AD1
  8
0
  0
LINE
  5
10C35
  8
0
 10
479.09429863095272
 20
132.1000004187226
 30
0.0
 11
460.90523343630122
 21
132.1000004187226
 31
0.0
  0
ARC
  5
10C38
  8
0
 10
463.79816466206267
 20
146.32885634215731
 30
0.0
 40
2.1637559240937878
 50
263.24887539119248
 51
276.09507323267741
  0
ARC
  5
10C39
  8
0
 10
470.0295948048423
 20
125.91025647178709
 30
0.0
 40
19.38692457127614
 50
86.732331136992698
 51
94.323267771479905
  0
ARC
  5
10C3C
  8
0
 10
465.12512398680781
 20
142.05639853641739
 30
0.0
 40
2.6477741360606881
 50
126.67159470042429
 51
187.4998320855928
  0
ARC
  5
10C3E
  8
0
 10
462.99136812857552
 20
132.5913620333661
 30
0.0
 40
0.4914431278074884
 50
178.9929255026907
 51
268.95643170609839
  0
ARC
  5
10C47
  8
0
 10
463.35687256750299
 20
145.5476257940791
 30
0.0
 40
1.3802387363569979
 50
263.11788490281219
 51
277.78356698156659
  0
LINE
  5
10C48
  8
0
 10
462.50000091269601
 20
141.7108023539185
 30
0.0
 11
462.50000091269601
 21
132.59999956935641
 31
0.0
  0
POLYLINE
  5
10C4B
  8
0
 66
     1
 10
0.0
 20
0.0
 30
0.0
 70
   128
  0
VERTEX
  5
13AD2
  8
0
 10
464.11864420399058
 20
144.97828055173159
 30
0.0
  0
VERTEX
  5
13AD3
  8
0
 10
463.64849487319577
 20
144.93883345276109
 30
0.0
  0
VERTEX
  5
13AD4
  8
0
 10
463.21813210844982
 20
144.87368185073129
 30
0.0
  0
VERTEX
  5
13AD5
  8
0
 10
462.89827914908523
 20
144.78632751852271
 30
0.0
  0
VERTEX
  5
13AD6
  8
0
 10
462.70494449883688
 20
144.6814084425568
 30
0.0
  0
VERTEX
  5
13AD7
  8
0
 10
462.64050722122181
 20
144.56690419465301
 30
0.0
  0
VERTEX
  5
13AD8
  8
0
 10
462.69643407314999
 20
144.4431426003575
 30
0.0
  0
VERTEX
  5
13AD9
  8
0
 10
462.88026224821789
 20
144.31052599102259
 30
0.0
  0
VERTEX
  5
13ADA
  8
0
 10
463.19148277863849
 20
144.17733196169129
 30
0.0
  0
SEQEND
  5
13ADB
  8
0
  0
POLYLINE
  5
10C4D
  8
0
 66
     1
 10
0.0
 20
0.0
 30
0.0
 70
   128
  0
VERTEX
  5
13ADC
  8
0
 10
476.48031961816088
 20
137.08490486678761
 30
0.0
  0
VERTEX
  5
13ADD
  8
0
 10
476.35507404804218
 20
137.03685756772751
 30
0.0
  0
SEQEND
  5
13ADE
  8
0
  0
POLYLINE
  5
10C4E
  8
0
 66
     1
 10
0.0
 20
0.0
 30
0.0
 70
   128
  0
VERTEX
  5
13ADF
  8
0
 10
476.35506706312287
 20
135.16315575689069
 30
0.0
  0
VERTEX
  5
13AE0
  8
0
 10
476.48018636292898
 20
135.1150540384769
 30
0.0
  0
SEQEND
  5
13AE1
  8
0
  0
POLYLINE
  5
10C4F
  8
0
 66
     1
 10
0.0
 20
0.0
 30
0.0
 70
   128
  0
VERTEX
  5
13AE2
  8
0
 10
469.54807556350698
 20
102.7662608772516
 30
0.0
  0
VERTEX
  5
13AE3
  8
0
 10
469.75376048241731
 20
102.7059996500611
 30
0.0
  0
VERTEX
  5
13AE4
  8
0
 10
470.18255471077271
 20
102.69476231187581
 30
0.0
  0
VERTEX
  5
13AE5
  8
0
 10
470.55952648399392
 20
102.8133322484791
 30
0.0
  0
VERTEX
  5
13AE6
  8
0
 10
470.90206424938498
 20
103.0490853823721
 30
0.0
  0
VERTEX
  5
13AE7
  8
0
 10
471.20749806519592
 20
103.4261480905116
 30
0.0
  0
VERTEX
  5
13AE8
  8
0
 10
471.42624105792481
 20
103.96129675209519
 30
0.0
  0
VERTEX
  5
13AE9
  8
0
 10
471.48008209653187
 20
104.6005407348275
 30
0.0
  0
VERTEX
  5
13AEA
  8
0
 10
471.33254488464428
 20
105.23021444678309
 30
0.0
  0
VERTEX
  5
13AEB
  8
0
 10
470.98770139738912
 20
105.7711214758456
 30
0.0
  0
VERTEX
  5
13AEC
  8
0
 10
470.59817171422748
 20
106.0719614848494
 30
0.0
  0
VERTEX
  5
13AED
  8
0
 10
470.45204362249922
 20
106.1391675844788
 30
0.0
  0
SEQEND
  5
13AEE
  8
0
  0
POLYLINE
  5
10C50
  8
0
 66
     1
 10
0.0
 20
0.0
 30
0.0
 70
   128
  0
VERTEX
  5
13AEF
  8
0
 10
470.45204362249922
 20
106.1391675844788
 30
0.0
  0
VERTEX
  5
13AF0
  8
0
 10
470.44978985097248
 20
106.13977992907169
 30
0.0
  0
VERTEX
  5
13AF1
  8
0
 10
470.44801894109679
 20
106.1402609571814
 30
0.0
  0
SEQEND
  5
13AF2
  8
0
  0
POLYLINE
  5
10C51
  8
0
 66
     1
 10
0.0
 20
0.0
 30
0.0
 70
   128
  0
VERTEX
  5
13AF3
  8
0
 10
470.44801894109679
 20
106.1402609571814
 30
0.0
  0
VERTEX
  5
13AF4
  8
0
 10
470.20051021710958
 20
106.2074353918433
 30
0.0
  0
VERTEX
  5
13AF5
  8
0
 10
470.19767036719702
 20
106.207900121808
 30
0.0
  0
SEQEND
  5
13AF6
  8
0
  0
POLYLINE
  5
10C52
  8
0
 66
     1
 10
0.0
 20
0.0
 30
0.0
 70
   128
  0
VERTEX
  5
13AF7
  8
0
 10
470.19767036719702
 20
106.207900121808
 30
0.0
  0
VERTEX
  5
13AF8
  8
0
 10
469.9491100963495
 20
106.2743728049099
 30
0.0
  0
VERTEX
  5
13AF9
  8
0
 10
469.75482760346478
 20
106.32585817947979
 30
0.0
  0
SEQEND
  5
13AFA
  8
0
  0
POLYLINE
  5
10C53
  8
0
 66
     1
 10
0.0
 20
0.0
 30
0.0
 70
   128
  0
VERTEX
  5
13AFB
  8
0
 10
469.30540802888561
 20
106.4109454397112
 30
0.0
  0
VERTEX
  5
13AFC
  8
0
 10
469.42156595643598
 20
106.4053002279252
 30
0.0
  0
VERTEX
  5
13AFD
  8
0
 10
469.75482760346478
 20
106.32585817947979
 30
0.0
  0
SEQEND
  5
13AFE
  8
0
  0
LINE
  5
10C54
  8
0
 10
469.30540802888561
 20
106.4109454397112
 30
0.0
 11
468.6319201299919
 21
106.4109454397112
 31
0.0
  0
POLYLINE
  5
10C55
  8
0
 66
     1
 10
0.0
 20
0.0
 30
0.0
 70
   128
  0
VERTEX
  5
13AFF
  8
0
 10
468.21608727797849
 20
106.32585817947979
 30
0.0
  0
VERTEX
  5
13B00
  8
0
 10
468.36350597906852
 20
106.3765030354261
 30
0.0
  0
VERTEX
  5
13B01
  8
0
 10
468.6319201299919
 20
106.4109328668565
 30
0.0
  0
SEQEND
  5
13B02
  8
0
  0
POLYLINE
  5
10C56
  8
0
 66
     1
 10
0.0
 20
0.0
 30
0.0
 70
   128
  0
VERTEX
  5
13B03
  8
0
 10
466.0604592226444
 20
104.9516865983605
 30
0.0
  0
VERTEX
  5
13B04
  8
0
 10
466.05964897200448
 20
104.9529518000781
 30
0.0
  0
VERTEX
  5
13B05
  8
0
 10
466.00000055506808
 20
105.17485244199629
 30
0.0
  0
VERTEX
  5
13B06
  8
0
 10
466.11874395050103
 20
105.3998422808945
 30
0.0
  0
VERTEX
  5
13B07
  8
0
 10
466.40283645130683
 20
105.6226118467748
 30
0.0
  0
VERTEX
  5
13B08
  8
0
 10
466.8682248611002
 20
105.8574629947543
 30
0.0
  0
VERTEX
  5
13B09
  8
0
 10
467.4820400122552
 20
106.09143124893311
 30
0.0
  0
VERTEX
  5
13B0A
  8
0
 10
468.21608727797849
 20
106.32585817947979
 30
0.0
  0
SEQEND
  5
13B0B
  8
0
  0
POLYLINE
  5
10C59
  8
0
 66
     1
 10
0.0
 20
0.0
 30
0.0
 70
   128
  0
VERTEX
  5
13B0C
  8
0
 10
473.88206918724001
 20
101.78297888487469
 30
0.0
  0
VERTEX
  5
13B0D
  8
0
 10
474.00000093504769
 20
101.5903254970908
 30
0.0
  0
VERTEX
  5
13B0E
  8
0
 10
473.95908840000618
 20
101.368310302496
 30
0.0
  0
SEQEND
  5
13B0F
  8
0
  0
POLYLINE
  5
10C5A
  8
0
 66
     1
 10
0.0
 20
0.0
 30
0.0
 70
   128
  0
VERTEX
  5
13B10
  8
0
 10
473.71143715456122
 20
104.72737103700641
 30
0.0
  0
VERTEX
  5
13B11
  8
0
 10
473.9403525181113
 20
104.9529518000781
 30
0.0
  0
VERTEX
  5
13B12
  8
0
 10
474.00000093504769
 20
105.1373955793679
 30
0.0
  0
SEQEND
  5
13B13
  8
0
  0
LINE
  5
10C5B
  8
0
 10
473.71143715456122
 20
104.72737103700641
 30
0.0
 11
473.46410232596088
 21
104.72737103700641
 31
0.0
  0
POLYLINE
  5
10C5C
  8
0
 66
     1
 10
0.0
 20
0.0
 30
0.0
 70
   128
  0
VERTEX
  5
13B14
  8
0
 10
472.47372924350191
 20
102.9560001567006
 30
0.0
  0
VERTEX
  5
13B15
  8
0
 10
472.54010506905598
 20
103.52349597960711
 30
0.0
  0
VERTEX
  5
13B16
  8
0
 10
472.75939987041039
 20
104.1032242588699
 30
0.0
  0
VERTEX
  5
13B17
  8
0
 10
472.9105842579155
 20
104.3415781110525
 30
0.0
  0
VERTEX
  5
13B18
  8
0
 10
473.07990056462569
 20
104.5343111269176
 30
0.0
  0
VERTEX
  5
13B19
  8
0
 10
473.31874708645029
 20
104.6964520588517
 30
0.0
  0
VERTEX
  5
13B1A
  8
0
 10
473.46410232596088
 20
104.72737103700641
 30
0.0
  0
SEQEND
  5
13B1B
  8
0
  0
LINE
  5
10C5D
  8
0
 10
472.47372924350191
 20
102.9560001567006
 30
0.0
 11
472.47372924350191
 21
101.2560002505779
 31
0.0
  0
LINE
  5
10C5E
  8
0
 10
466.00000055506808
 20
101.2560002505779
 30
0.0
 11
472.47372924350191
 21
101.2560002505779
 31
0.0
  0
POLYLINE
  5
10C5F
  8
0
 66
     1
 10
0.0
 20
0.0
 30
0.0
 70
   128
  0
VERTEX
  5
13B1C
  8
0
 10
468.7619931809603
 20
102.86820391193029
 30
0.0
  0
VERTEX
  5
13B1D
  8
0
 10
468.04737167432887
 20
102.66011990606781
 30
0.0
  0
VERTEX
  5
13B1E
  8
0
 10
467.40407457575191
 20
102.4489453062415
 30
0.0
  0
VERTEX
  5
13B1F
  8
0
 10
466.86147975735349
 20
102.2391024976969
 30
0.0
  0
VERTEX
  5
13B20
  8
0
 10
466.43919784575689
 20
102.0298017188907
 30
0.0
  0
VERTEX
  5
13B21
  8
0
 10
466.14209639839822
 20
101.8083984032273
 30
0.0
  0
VERTEX
  5
13B22
  8
0
 10
466.00786324590428
 20
101.5903254970908
 30
0.0
  0
VERTEX
  5
13B23
  8
0
 10
466.00000055506808
 20
101.52275804430251
 30
0.0
  0
SEQEND
  5
13B24
  8
0
  0
LINE
  5
10C60
  8
0
 10
468.7619931809603
 20
102.86820391193029
 30
0.0
 11
469.1754239774308
 21
102.86820391193029
 31
0.0
  0
POLYLINE
  5
10C61
  8
0
 66
     1
 10
0.0
 20
0.0
 30
0.0
 70
   128
  0
VERTEX
  5
13B25
  8
0
 10
469.1754239774308
 20
102.86820391193029
 30
0.0
  0
VERTEX
  5
13B26
  8
0
 10
469.38119696453202
 20
102.8120675124228
 30
0.0
  0
VERTEX
  5
13B27
  8
0
 10
469.54445772455063
 20
102.76766251772639
 30
0.0
  0
SEQEND
  5
13B28
  8
0
  0
LINE
  5
10C62
  8
0
 10
469.54445772455063
 20
102.76766251772639
 30
0.0
 11
469.54807556350698
 21
102.7662608772516
 31
0.0
  0
LINE
  5
10C63
  8
0
 10
472.47372924350191
 20
101.2560002505779
 30
0.0
 11
472.37793037667859
 21
99.997180886566653
 31
0.0
  0
ARC
  5
10C64
  8
0
 10
471.41164252857772
 20
99.91192451522447
 30
0.0
 40
0.9700416765492462
 50
318.4060188220497
 51
5.0421968277766114
  0
LINE
  5
10C65
  8
0
 10
472.13710549287492
 20
99.26796462386848
 30
0.0
 11
472.10984614677722
 21
99.255999922752395
 31
0.0
  0
LINE
  5
10C66
  8
0
 10
472.69677537221679
 20
99.255999922752395
 30
0.0
 11
467.30322607792903
 21
99.255999922752395
 31
0.0
  0
POLYLINE
  5
10C89
  8
0
 66
     1
 10
0.0
 20
0.0
 30
0.0
 70
   128
  0
VERTEX
  5
13B29
  8
0
 10
473.71143715456122
 20
104.72737103700641
 30
0.0
  0
VERTEX
  5
13B2A
  8
0
 10
473.14764799550159
 20
104.12720954045651
 30
0.0
  0
VERTEX
  5
13B2B
  8
0
 10
472.59902169927938
 20
103.5255188122392
 30
0.0
  0
SEQEND
  5
13B2C
  8
0
  0
LINE
  5
10C8A
  8
0
 10
472.59902169927938
 20
103.5255188122392
 30
0.0
 11
472.59482096880657
 21
103.52039840072391
 31
0.0
  0
LINE
  5
10C8F
  8
0
 10
472.59507265873242
 20
102.42543965578081
 30
0.0
 11
472.63618263415981
 21
102.3910766467452
 31
0.0
  0
LINE
  5
10C90
  8
0
 10
472.63618263415981
 20
102.3910766467452
 30
0.0
 11
472.70279082469631
 21
102.3390790447593
 31
0.0
  0
POLYLINE
  5
10C92
  8
0
 66
     1
 10
0.0
 20
0.0
 30
0.0
 70
   128
  0
VERTEX
  5
13B2D
  8
0
 10
472.94051044620562
 20
102.1609840914607
 30
0.0
  0
VERTEX
  5
13B2E
  8
0
 10
473.34362783469248
 20
101.8606167286634
 30
0.0
  0
VERTEX
  5
13B2F
  8
0
 10
473.95908840000618
 20
101.368310302496
 30
0.0
  0
SEQEND
  5
13B30
  8
0
  0
LINE
  5
10C95
  8
0
 10
472.70279082469631
 20
102.3390790447593
 30
0.0
 11
472.94025386683631
 21
102.16155219823121
 31
0.0
  0
LINE
  5
10C96
  8
0
 10
472.94025386683631
 20
102.16155219823121
 30
0.0
 11
472.94051044620562
 21
102.1609840914607
 31
0.0
  0
ARC
  5
10CA1
  8
0
 10
473.21714407021852
 20
102.9418612643363
 30
0.0
 40
0.8084949713951326
 50
203.14623838507109
 51
219.698253689284
  0
LINE
  5
10CA5
  8
0
 10
482.00000084936607
 20
116.30000025033949
 30
0.0
 11
458.00000064074982
 21
116.30000025033949
 31
0.0
  0
ARC
  5
10CA6
  8
0
 10
466.20846713642618
 20
128.85905670283469
 30
0.0
 40
1.7155986768085929
 50
104.4491899667068
 51
130.606905362334
  0
POLYLINE
  5
10CA7
  8
0
 66
     1
 10
0.0
 20
0.0
 30
0.0
 70
   128
  0
VERTEX
  5
13B31
  8
0
 10
465.04733392968762
 20
129.8250699415803
 30
0.0
  0
VERTEX
  5
13B32
  8
0
 10
464.96438615024078
 20
129.96889594942331
 30
0.0
  0
VERTEX
  5
13B33
  8
0
 10
465.0043263845144
 20
130.06188105791799
 30
0.0
  0
VERTEX
  5
13B34
  8
0
 10
465.09184276685107
 20
130.16152698546651
 30
0.0
  0
SEQEND
  5
13B35
  8
0
  0
ARC
  5
10CA8
  8
0
 10
465.53465845574817
 20
130.9077878045772
 30
0.0
 40
1.187334478802246
 50
245.7677886640158
 51
273.8647843652239
  0
ARC
  5
10CA9
  8
0
 10
465.61682669208892
 20
132.89568218269389
 30
0.0
 40
3.172529454474303
 50
269.96136192696639
 51
284.56732093544213
  0
ARC
  5
10CAA
  8
0
 10
466.09422786121951
 20
131.3527723424412
 30
0.0
 40
1.5608995933750629
 50
281.85052808770621
 51
310.25095665995229
  0
POLYLINE
  5
10CAB
  8
0
 66
     1
 10
0.0
 20
0.0
 30
0.0
 70
   128
  0
VERTEX
  5
13B36
  8
0
 10
467.14782745577378
 20
130.52046243101361
 30
0.0
  0
VERTEX
  5
13B37
  8
0
 10
467.23178595304478
 20
130.38347233086819
 30
0.0
  0
VERTEX
  5
13B38
  8
0
 10
467.16743971221138
 20
130.23109119385481
 30
0.0
  0
VERTEX
  5
13B39
  8
0
 10
467.102782409638
 20
130.16145993024111
 30
0.0
  0
SEQEND
  5
13B3A
  8
0
  0
ARC
  5
10CAC
  8
0
 10
466.65396224759598
 20
129.6006819678135
 30
0.0
 40
1.04398225288226
 50
61.766952755079799
 51
94.036496696507825
  0
ARC
  5
10CAD
  8
0
 10
466.58957443581841
 20
127.89108869324259
 30
0.0
 40
2.7510008907483678
 50
90.189529927774302
 51
107.1061145443766
  0
POLYLINE
  5
10CAE
  8
0
 66
     1
 10
0.0
 20
0.0
 30
0.0
 70
   128
  0
VERTEX
  5
13B3B
  8
0
 10
469.2155990796162
 20
130.6180147454142
 30
0.0
  0
VERTEX
  5
13B3C
  8
0
 10
471.0859447531401
 20
130.2161471918225
 30
0.0
  0
VERTEX
  5
13B3D
  8
0
 10
472.94214468449343
 20
129.70809023827309
 30
0.0
  0
SEQEND
  5
13B3E
  8
0
  0
LINE
  5
10CAF
  8
0
 10
472.94214468449343
 20
129.70809023827309
 30
0.0
 11
472.68630594946433
 21
130.07206041365859
 31
0.0
  0
LINE
  5
10CB0
  8
0
 10
472.68630594946433
 20
130.07206041365859
 30
0.0
 11
477.44748655706633
 21
130.07206041365859
 31
0.0
  0
LINE
  5
10CB1
  8
0
 10
477.44748655706633
 20
130.07206041365859
 30
0.0
 11
478.15677065402258
 21
129.70809023827309
 31
0.0
  0
LINE
  5
10CB2
  8
0
 10
478.15677065402258
 20
129.70809023827309
 30
0.0
 11
478.15677065402258
 21
130.6180147454142
 31
0.0
  0
LINE
  5
10CB3
  8
0
 10
478.15677065402258
 20
130.6180147454142
 30
0.0
 11
469.2155990796162
 21
130.6180147454142
 31
0.0
  0
LINE
  5
10CB4
  8
0
 10
479.59145631641138
 20
130.21430503576991
 30
0.0
 11
479.8547551780938
 21
130.21942358464
 31
0.0
  0
LINE
  5
10CB5
  8
0
 10
479.86548028886313
 20
130.11140879243609
 30
0.0
 11
479.59145631641138
 21
130.21430503576991
 31
0.0
  0
LINE
  5
10CB6
  8
0
 10
480.12877915054548
 20
130.11638578027481
 30
0.0
 11
479.86548028886313
 21
130.11140879243609
 31
0.0
  0
LINE
  5
10CB7
  8
0
 10
480.90044323354948
 20
129.82618194073439
 30
0.0
 11
480.12877915054548
 21
130.11638578027481
 31
0.0
  0
LINE
  5
10CB8
  8
0
 10
480.5636779218911
 20
129.8141622915864
 30
0.0
 11
480.90044323354948
 21
129.82618194073439
 31
0.0
  0
LINE
  5
10CB9
  8
0
 10
480.83770189434279
 20
129.71141319721929
 30
0.0
 11
480.5636779218911
 21
129.8141622915864
 31
0.0
  0
LINE
  5
10CBA
  8
0
 10
481.26402132213099
 20
129.7169620171189
 30
0.0
 11
480.83770189434279
 21
129.71141319721929
 31
0.0
  0
LINE
  5
10CBB
  8
0
 10
478.87985136359919
 20
130.61175998300311
 30
0.0
 11
481.26402132213099
 21
129.7169620171189
 31
0.0
  0
LINE
  5
10CBC
  8
0
 10
478.79029817879189
 20
130.6196520105004
 30
0.0
 11
478.87985136359919
 21
130.61175998300311
 31
0.0
  0
LINE
  5
10CBD
  8
0
 10
479.8547551780938
 20
130.21942358464
 30
0.0
 11
478.79029817879189
 21
130.6196520105004
 31
0.0
  0
LINE
  5
10CBE
  8
0
 10
478.50000120699389
 20
130.80000076442951
 30
0.0
 11
461.50000028312189
 21
130.80000076442951
 31
0.0
  0
LINE
  5
10CC7
  8
0
 10
463.99348003789771
 20
130.62392491847271
 30
0.0
 11
463.69049845263351
 21
129.91131227463481
 31
0.0
  0
LINE
  5
10CC8
  8
0
 10
463.70819497853512
 20
130.61280306428671
 30
0.0
 11
463.99348003789771
 21
130.62392491847271
 31
0.0
  0
LINE
  5
10CC9
  8
0
 10
462.16915555298323
 20
129.71283439546821
 30
0.0
 11
463.70819497853512
 21
130.61280306428671
 31
0.0
  0
LINE
  5
10CCA
  8
0
 10
462.44317999109609
 20
129.72121257334939
 30
0.0
 11
462.16915555298323
 21
129.71283439546821
 31
0.0
  0
LINE
  5
10CCB
  8
0
 10
463.65832358598698
 20
130.4336482658982
 30
0.0
 11
462.44317999109609
 21
129.72121257334939
 31
0.0
  0
LINE
  5
10CCC
  8
0
 10
463.34300849586708
 20
129.7217620536685
 30
0.0
 11
463.65832358598698
 21
130.4336482658982
 31
0.0
  0
LINE
  5
10CCD
  8
0
 10
463.64009108394367
 20
129.71269842237231
 30
0.0
 11
463.34300849586708
 21
129.7217620536685
 31
0.0
  0
LINE
  5
10CCE
  8
0
 10
465.17913004383428
 20
130.61265591531989
 30
0.0
 11
463.64009108394367
 21
129.71269842237231
 31
0.0
  0
LINE
  5
10CCF
  8
0
 10
464.90510607138259
 20
130.62350396066901
 30
0.0
 11
465.17913004383428
 21
130.61265591531989
 31
0.0
  0
LINE
  5
10CD0
  8
0
 10
463.69049845263351
 20
129.91131227463481
 30
0.0
 11
464.90510607138259
 21
130.62350396066901
 31
0.0
  0
LINE
  5
10CD1
  8
0
 10
472.68630594946433
 20
130.06141725927591
 30
0.0
 11
472.94214468449343
 21
129.69744708389041
 31
0.0
  0
LINE
  5
10CD3
  8
0
 10
472.68630594946433
 20
130.06141725927591
 30
0.0
 11
472.68630594946433
 21
130.07206041365859
 31
0.0
  0
ARC
  5
10CDE
  8
0
 10
465.70241934617923
 20
131.91916991410741
 30
0.0
 40
2.095796204900477
 50
270.47495022591892
 51
285.40820715626501
  0
POLYLINE
  5
10CE1
  8
0
 66
     1
 10
0.0
 20
0.0
 30
0.0
 70
   128
  0
VERTEX
  5
13B3F
  8
0
 10
465.4135932959615
 20
130.17277177423239
 30
0.0
  0
VERTEX
  5
13B40
  8
0
 10
465.32183986157168
 20
130.06536979228261
 30
0.0
  0
VERTEX
  5
13B41
  8
0
 10
465.29662989079941
 20
129.96282186359161
 30
0.0
  0
VERTEX
  5
13B42
  8
0
 10
465.34763423725951
 20
129.8986611887812
 30
0.0
  0
SEQEND
  5
13B43
  8
0
  0
ARC
  5
10CE2
  8
0
 10
466.25451874229373
 20
129.25280932956471
 30
0.0
 40
1.2463893877468351
 50
104.8110555381206
 51
132.43001866623851
  0
ARC
  5
10CE3
  8
0
 10
466.49723414596002
 20
128.62697782930911
 30
0.0
 40
1.9149292701711931
 50
90.654224402615895
 51
107.04573766173419
  0
ARC
  5
10CE4
  8
0
 10
466.51419340696998
 20
129.8469550744841
 30
0.0
 40
0.6959110166803022
 50
61.380605382970963
 51
93.198132786064079
  0
POLYLINE
  5
10CE5
  8
0
 66
     1
 10
0.0
 20
0.0
 30
0.0
 70
   128
  0
VERTEX
  5
13B44
  8
0
 10
466.78103188052762
 20
130.1728574559092
 30
0.0
  0
VERTEX
  5
13B45
  8
0
 10
466.87179508618999
 20
130.27939330786461
 30
0.0
  0
VERTEX
  5
13B46
  8
0
 10
466.88985249958921
 20
130.41280340403321
 30
0.0
  0
VERTEX
  5
13B47
  8
0
 10
466.84752714820189
 20
130.45784030109641
 30
0.0
  0
SEQEND
  5
13B48
  8
0
  0
ARC
  5
10CE6
  8
0
 10
465.99816728692701
 20
131.02920844058031
 30
0.0
 40
1.160264616740893
 50
283.00457320323812
 51
312.43313639949542
  0
ARC
  5
10CE7
  8
0
 10
465.67872273192307
 20
130.57854474732221
 30
0.0
 40
0.7562150781838751
 50
244.03492589761709
 51
273.11321714306058
  0
LINE
  5
10CF7
  8
0
 10
477.00000096112478
 20
114.6000003442168
 30
0.0
 11
475.17136026173819
 21
114.6000003442168
 31
0.0
  0
LINE
  5
10CF8
  8
0
 10
475.17136026173819
 20
114.6000003442168
 30
0.0
 11
475.17136026173819
 21
111.800000211224
 31
0.0
  0
LINE
  5
10CF9
  8
0
 10
463.00000052899111
 20
111.800000211224
 30
0.0
 11
475.17136026173819
 21
111.800000211224
 31
0.0
  0
LINE
  5
10CFA
  8
0
 10
474.28115371614678
 20
110.8000002219342
 30
0.0
 11
464.00000069290388
 21
110.8000002219342
 31
0.0
  0
LINE
  5
10CFB
  8
0
 10
475.17136026173819
 20
111.800000211224
 30
0.0
 11
474.28115371614678
 21
110.8000002219342
 31
0.0
  0
ARC
  5
10D05
  8
0
 10
476.57267585700748
 20
46.75566000772946
 30
0.0
 40
98.226031873001176
 50
90.416764517847525
 51
97.337470228405195
  0
LINE
  5
10D10
  8
0
 10
457.82899025827629
 20
129.4638620689511
 30
0.0
 11
482.17101008440193
 21
129.4638620689511
 31
0.0
  0
ARC
  5
10D1E
  8
0
 10
408.75000055879337
 20
47.834936490538929
 30
0.0
 40
3.000000000000004
 50
280.52877936550988
 51
300.0
  0
ARC
  5
10D1F
  8
0
 10
408.75000055879337
 20
47.834936490538929
 30
0.0
 40
2.9999999999999978
 50
300.0
 51
319.47122063449302
  0
LINE
  5
10D20
  8
0
 10
408.57046693239852
 20
46.145898062715453
 30
0.0
 11
409.29818875621987
 21
44.885446969419718
 31
0.0
  0
LINE
  5
10D21
  8
0
 10
411.0302395466714
 20
45.885446667671211
 30
0.0
 11
410.30251773825182
 21
47.145898134467203
 31
0.0
  0
POLYLINE
  5
10D22
  8
0
 66
     1
 10
0.0
 20
0.0
 30
0.0
 70
   128
  0
VERTEX
  5
13B49
  8
0
 10
409.29818875621987
 20
44.885446969419718
 30
0.0
  0
VERTEX
  5
13B4A
  8
0
 10
409.32769782841189
 20
44.902483653277159
 30
0.0
  0
VERTEX
  5
13B4B
  8
0
 10
409.41421408671869
 20
44.952434208244092
 30
0.0
  0
VERTEX
  5
13B4C
  8
0
 10
409.55184179358167
 20
45.031893253326423
 30
0.0
  0
VERTEX
  5
13B4D
  8
0
 10
409.73120148293663
 20
45.135446544736631
 30
0.0
  0
VERTEX
  5
13B4E
  8
0
 10
409.94007036089891
 20
45.256037451326847
 30
0.0
  0
VERTEX
  5
13B4F
  8
0
 10
410.164214093238
 20
45.385446585714817
 30
0.0
  0
VERTEX
  5
13B50
  8
0
 10
410.38835805840779
 20
45.514856185764081
 30
0.0
  0
VERTEX
  5
13B51
  8
0
 10
410.59722693637002
 20
45.63544662669301
 30
0.0
  0
VERTEX
  5
13B52
  8
0
 10
410.77658662572492
 20
45.738999918103218
 30
0.0
  0
VERTEX
  5
13B53
  8
0
 10
410.91421421617258
 20
45.818459428846843
 30
0.0
  0
VERTEX
  5
13B54
  8
0
 10
411.00073035806412
 20
45.868409518152482
 30
0.0
  0
VERTEX
  5
13B55
  8
0
 10
411.0302395466714
 20
45.885446667671211
 30
0.0
  0
SEQEND
  5
13B56
  8
0
  0
LINE
  5
10D23
  8
0
 10
397.17956528067577
 20
42.947439197450883
 30
0.0
 11
396.84483770281059
 21
43.035165593028069
 31
0.0
  0
ARC
  5
10D26
  8
0
 10
397.10769571337988
 20
43.999999999999872
 30
0.0
 40
1.0000000000000191
 50
165.23972989608041
 51
254.76027010391931
  0
LINE
  5
10D28
  8
0
 10
396.14069543778879
 20
44.25477534532547
 30
0.0
 11
396.23208612203592
 21
44.588520843535669
 31
0.0
  0
LINE
  5
10D2A
  8
0
 10
418.85930567979801
 20
55.74522465467453
 30
0.0
 11
418.767914995551
 21
55.411479156464338
 31
0.0
  0
LINE
  5
10D2B
  8
0
 10
417.82043583691109
 20
57.052560802549131
 30
0.0
 11
418.15516341477621
 21
56.964834406971939
 31
0.0
  0
ARC
  5
10D2E
  8
0
 10
417.89230540420641
 20
56.000000000000121
 30
0.0
 40
1.000000000000016
 50
345.23972989608041
 51
74.760270103919353
  0
ARC
  5
10D31
  8
0
 10
401.5500005587931
 20
60.305702305034742
 30
0.0
 40
19.899999999999991
 50
336.36814517496782
 51
345.23972989608041
  0
ARC
  5
10D32
  8
0
 10
401.5500005587931
 20
60.305702305034742
 30
0.0
 40
19.899999999999991
 50
254.76027010391931
 51
263.63185482503269
  0
ARC
  5
10D34
  8
0
 10
397.10769571337988
 20
43.999999999999879
 30
0.0
 40
2.9999999999999969
 50
165.23972989608041
 51
204.00000000000139
  0
ARC
  5
10D36
  8
0
 10
397.10769571337988
 20
43.999999999999879
 30
0.0
 40
2.9999999999999929
 50
216.00000000000151
 51
254.76027010391931
  0
POLYLINE
  5
10D37
  8
0
 66
     1
 10
0.0
 20
0.0
 30
0.0
 70
   128
  0
VERTEX
  5
13B57
  8
0
 10
394.68064427375782
 20
42.23664402961731
 30
0.0
  0
VERTEX
  5
13B58
  8
0
 10
394.67950154095882
 20
42.238405160605907
 30
0.0
  0
VERTEX
  5
13B59
  8
0
 10
394.6765082702039
 20
42.243014276027679
 30
0.0
  0
VERTEX
  5
13B5A
  8
0
 10
394.6685743331908
 20
42.255231365561492
 30
0.0
  0
VERTEX
  5
13B5B
  8
0
 10
394.64874368160952
 20
42.285768035799272
 30
0.0
  0
VERTEX
  5
13B5C
  8
0
 10
394.59962014108879
 20
42.361410986632109
 30
0.0
  0
VERTEX
  5
13B5D
  8
0
 10
394.54363368451578
 20
42.447623051702983
 30
0.0
  0
VERTEX
  5
13B5E
  8
0
 10
394.52272549271572
 20
42.479818407446153
 30
0.0
  0
VERTEX
  5
13B5F
  8
0
 10
394.51645769178862
 20
42.489470168948181
 30
0.0
  0
VERTEX
  5
13B60
  8
0
 10
394.51154123991722
 20
42.497039958834648
 30
0.0
  0
VERTEX
  5
13B61
  8
0
 10
394.509822949767
 20
42.499687243253
 30
0.0
  0
VERTEX
  5
13B62
  8
0
 10
394.50961992144568
 20
42.500000167638071
 30
0.0
  0
SEQEND
  5
13B63
  8
0
  0
POLYLINE
  5
10D38
  8
0
 66
     1
 10
0.0
 20
0.0
 30
0.0
 70
   128
  0
VERTEX
  5
13B64
  8
0
 10
394.50961992144568
 20
42.500000167638071
 30
0.0
  0
VERTEX
  5
13B65
  8
0
 10
394.5094504207371
 20
42.500332184135921
 30
0.0
  0
VERTEX
  5
13B66
  8
0
 10
394.50801711529482
 20
42.50314477831126
 30
0.0
  0
VERTEX
  5
13B67
  8
0
 10
394.50391929596651
 20
42.511186748743057
 30
0.0
  0
VERTEX
  5
13B68
  8
0
 10
394.49869457632292
 20
42.521441075950861
 30
0.0
  0
VERTEX
  5
13B69
  8
0
 10
394.48126673698408
 20
42.555645294487483
 30
0.0
  0
VERTEX
  5
13B6A
  8
0
 10
394.43459816277021
 20
42.647237610071898
 30
0.0
  0
VERTEX
  5
13B6B
  8
0
 10
394.39365070313198
 20
42.72760096937418
 30
0.0
  0
VERTEX
  5
13B6C
  8
0
 10
394.37712065875519
 20
42.760042659938343
 30
0.0
  0
VERTEX
  5
13B6D
  8
0
 10
394.37050733715279
 20
42.773022502660758
 30
0.0
  0
VERTEX
  5
13B6E
  8
0
 10
394.36801232397539
 20
42.77791939675808
 30
0.0
  0
VERTEX
  5
13B6F
  8
0
 10
394.36705958098162
 20
42.779789958149202
 30
0.0
  0
SEQEND
  5
13B70
  8
0
  0
ARC
  5
10D3A
  8
0
 10
413.45000055879319
 20
39.69429769496525
 30
0.0
 40
19.90000000000002
 50
156.36814517496771
 51
165.23972989607969
  0
ARC
  5
10D3B
  8
0
 10
413.45000055879319
 20
39.69429769496525
 30
0.0
 40
19.899999999999991
 50
74.760270103919353
 51
83.631854825032761
  0
ARC
  5
10D3D
  8
0
 10
417.89230540420641
 20
56.000000000000121
 30
0.0
 40
3.000000000000028
 50
345.23972989608041
 51
24.000000000000519
  0
ARC
  5
10D3E
  8
0
 10
417.89230540420641
 20
56.000000000000121
 30
0.0
 40
3.0000000000000031
 50
36.000000000000917
 51
74.760270103919353
  0
POLYLINE
  5
10D3F
  8
0
 66
     1
 10
0.0
 20
0.0
 30
0.0
 70
   128
  0
VERTEX
  5
13B71
  8
0
 10
420.31935684382898
 20
57.76335597038269
 30
0.0
  0
VERTEX
  5
13B72
  8
0
 10
420.32049957662809
 20
57.7615948393941
 30
0.0
  0
VERTEX
  5
13B73
  8
0
 10
420.32349284738291
 20
57.756985723972321
 30
0.0
  0
VERTEX
  5
13B74
  8
0
 10
420.33142678439611
 20
57.744768634438522
 30
0.0
  0
VERTEX
  5
13B75
  8
0
 10
420.35125743597729
 20
57.714231964200742
 30
0.0
  0
VERTEX
  5
13B76
  8
0
 10
420.40038097649801
 20
57.638589013367898
 30
0.0
  0
VERTEX
  5
13B77
  8
0
 10
420.45636743307102
 20
57.552376948297031
 30
0.0
  0
VERTEX
  5
13B78
  8
0
 10
420.47727562487108
 20
57.520181592553861
 30
0.0
  0
VERTEX
  5
13B79
  8
0
 10
420.4835434257983
 20
57.510529831051826
 30
0.0
  0
VERTEX
  5
13B7A
  8
0
 10
420.4884598776697
 20
57.502960041165359
 30
0.0
  0
VERTEX
  5
13B7B
  8
0
 10
420.49017816781992
 20
57.500312756747007
 30
0.0
  0
VERTEX
  5
13B7C
  8
0
 10
420.49038119614107
 20
57.499999832361937
 30
0.0
  0
SEQEND
  5
13B7D
  8
0
  0
POLYLINE
  5
10D40
  8
0
 66
     1
 10
0.0
 20
0.0
 30
0.0
 70
   128
  0
VERTEX
  5
13B7E
  8
0
 10
420.49038119614107
 20
57.499999832361937
 30
0.0
  0
VERTEX
  5
13B7F
  8
0
 10
420.49055069684971
 20
57.499667815864093
 30
0.0
  0
VERTEX
  5
13B80
  8
0
 10
420.49198400229199
 20
57.496855221688747
 30
0.0
  0
VERTEX
  5
13B81
  8
0
 10
420.49608182162029
 20
57.48881325125695
 30
0.0
  0
VERTEX
  5
13B82
  8
0
 10
420.50130654126389
 20
57.478558924049139
 30
0.0
  0
VERTEX
  5
13B83
  8
0
 10
420.51873438060272
 20
57.444354705512531
 30
0.0
  0
VERTEX
  5
13B84
  8
0
 10
420.5654029548167
 20
57.35276238992811
 30
0.0
  0
VERTEX
  5
13B85
  8
0
 10
420.60635041445482
 20
57.27239903062582
 30
0.0
  0
VERTEX
  5
13B86
  8
0
 10
420.62288045883167
 20
57.239957340061672
 30
0.0
  0
VERTEX
  5
13B87
  8
0
 10
420.62949378043402
 20
57.226977497339249
 30
0.0
  0
VERTEX
  5
13B88
  8
0
 10
420.63198879361141
 20
57.22208060324192
 30
0.0
  0
VERTEX
  5
13B89
  8
0
 10
420.63294153660519
 20
57.220210041850812
 30
0.0
  0
SEQEND
  5
13B8A
  8
0
  0
POLYLINE
  5
10D42
  8
0
 66
     1
 10
0.0
 20
0.0
 30
0.0
 70
   128
  0
VERTEX
  5
13B8B
  8
0
 10
408.48736698273558
 20
47.490477981045849
 30
0.0
  0
VERTEX
  5
13B8C
  8
0
 10
408.48683869000507
 20
47.489562490955002
 30
0.0
  0
VERTEX
  5
13B8D
  8
0
 10
408.4072599117643
 20
47.297209920361638
 30
0.0
  0
SEQEND
  5
13B8E
  8
0
  0
POLYLINE
  5
10D43
  8
0
 66
     1
 10
0.0
 20
0.0
 30
0.0
 70
   128
  0
VERTEX
  5
13B8F
  8
0
 10
408.4072599117643
 20
47.297209920361638
 30
0.0
  0
VERTEX
  5
13B90
  8
0
 10
408.30387000925828
 20
46.911353664472699
 30
0.0
  0
VERTEX
  5
13B91
  8
0
 10
408.21753768716002
 20
46.589157031849027
 30
0.0
  0
VERTEX
  5
13B92
  8
0
 10
408.17007795441879
 20
46.412034844979651
 30
0.0
  0
VERTEX
  5
13B93
  8
0
 10
408.16643502796057
 20
46.398439165204771
 30
0.0
  0
SEQEND
  5
13B94
  8
0
  0
POLYLINE
  5
10D45
  8
0
 66
     1
 10
0.0
 20
0.0
 30
0.0
 70
   128
  0
VERTEX
  5
13B95
  8
0
 10
404.71417468972493
 20
52.377929631620653
 30
0.0
  0
VERTEX
  5
13B96
  8
0
 10
404.85427517443878
 20
52.340389648452408
 30
0.0
  0
VERTEX
  5
13B97
  8
0
 10
405.07779678329808
 20
52.280497225001461
 30
0.0
  0
VERTEX
  5
13B98
  8
0
 10
405.37447121925641
 20
52.20100372098387
 30
0.0
  0
VERTEX
  5
13B99
  8
0
 10
405.61294532846648
 20
52.13710474781692
 30
0.0
  0
SEQEND
  5
13B9A
  8
0
  0
LINE
  5
10D46
  8
0
 10
405.61294532846648
 20
52.13710474781692
 30
0.0
 11
405.82037391606713
 21
52.10984540171922
 31
0.0
  0
POLYLINE
  5
10D48
  8
0
 66
     1
 10
0.0
 20
0.0
 30
0.0
 70
   128
  0
VERTEX
  5
13B9B
  8
0
 10
410.28582642786188
 20
47.622070368379362
 30
0.0
  0
VERTEX
  5
13B9C
  8
0
 10
410.14572594314802
 20
47.659610351547599
 30
0.0
  0
VERTEX
  5
13B9D
  8
0
 10
409.92220433428872
 20
47.719502774998553
 30
0.0
  0
VERTEX
  5
13B9E
  8
0
 10
409.6255298983304
 20
47.798996279016137
 30
0.0
  0
VERTEX
  5
13B9F
  8
0
 10
409.38705578912038
 20
47.86289525218308
 30
0.0
  0
SEQEND
  5
13BA0
  8
0
  0
LINE
  5
10D49
  8
0
 10
409.38705578912038
 20
47.86289525218308
 30
0.0
 11
409.17962720151979
 21
47.890154598280787
 31
0.0
  0
POLYLINE
  5
10D4B
  8
0
 66
     1
 10
0.0
 20
0.0
 30
0.0
 70
   128
  0
VERTEX
  5
13BA1
  8
0
 10
406.51263413485128
 20
52.509522018954158
 30
0.0
  0
VERTEX
  5
13BA2
  8
0
 10
406.51316242758168
 20
52.510437509045012
 30
0.0
  0
VERTEX
  5
13BA3
  8
0
 10
406.59274120582262
 20
52.702790079638369
 30
0.0
  0
SEQEND
  5
13BA4
  8
0
  0
POLYLINE
  5
10D4C
  8
0
 66
     1
 10
0.0
 20
0.0
 30
0.0
 70
   128
  0
VERTEX
  5
13BA5
  8
0
 10
406.59274120582262
 20
52.702790079638369
 30
0.0
  0
VERTEX
  5
13BA6
  8
0
 10
406.69613110832859
 20
53.088646335527301
 30
0.0
  0
VERTEX
  5
13BA7
  8
0
 10
406.7824634304269
 20
53.41084296815098
 30
0.0
  0
VERTEX
  5
13BA8
  8
0
 10
406.82992316316802
 20
53.587965155020363
 30
0.0
  0
VERTEX
  5
13BA9
  8
0
 10
406.83356608962629
 20
53.601560834795237
 30
0.0
  0
SEQEND
  5
13BAA
  8
0
  0
ARC
  5
10D4D
  8
0
 10
405.82000055879308
 20
52.909845356715699
 30
0.0
 40
0.8000000000000026
 50
270.02674115721919
 51
329.9732588427791
  0
ARC
  5
10D4E
  8
0
 10
409.18000055879321
 20
47.090154643284308
 30
0.0
 40
0.8000000000000026
 50
90.026741157219192
 51
149.97325884277831
  0
LINE
  5
10D50
  8
0
 10
404.35664786957187
 20
52.473728498443968
 30
0.0
 11
404.71417468972493
 21
52.377929631620653
 31
0.0
  0
LINE
  5
10D51
  8
0
 10
408.16643502796057
 20
46.398439165204771
 30
0.0
 11
408.07063598651428
 21
46.040912345051773
 31
0.0
  0
LINE
  5
10D53
  8
0
 10
410.64335324801488
 20
47.526271501556039
 30
0.0
 11
410.28582642786188
 21
47.622070368379362
 31
0.0
  0
LINE
  5
10D54
  8
0
 10
406.83356608962629
 20
53.601560834795237
 30
0.0
 11
406.92936513107259
 21
53.959087654948242
 31
0.0
  0
ARC
  5
10D69
  8
0
 10
407.50000055879337
 20
50.0
 30
0.0
 40
6.0000000000000258
 50
314.47751218593248
 51
169.43602241094089
  0
LINE
  5
10D6A
  8
0
 10
403.65422365248219
 20
51.099999994039543
 30
0.0
 11
400.58696957305062
 21
51.099999994039543
 31
0.0
  0
ARC
  5
10D6B
  8
0
 10
407.50000055879337
 20
50.0
 30
0.0
 40
7.0
 50
312.37362511618932
 51
170.95890385142371
  0
LINE
  5
10D6C
  8
0
 10
412.21773706376541
 20
44.828640483319759
 30
0.0
 11
410.65308807458803
 21
47.538691584190047
 31
0.0
  0
ARC
  5
10D73
  8
0
 10
407.50000055879337
 20
50.0
 30
0.0
 40
7.0000000000000009
 50
170.95890385142371
 51
312.37362511618932
  0
CIRCLE
  5
10D77
  8
0
 10
407.50000055879337
 20
50.0
 30
0.0
 40
12.500000000000011
  0
LINE
  5
10E45
  8
1
 10
162.50000018626449
 20
175.30000068247321
 30
0.0
 11
162.50000018626449
 21
215.30000001192099
 31
0.0
  0
LINE
  5
10E46
  8
1
 10
142.50000052154061
 20
195.300000347197
 30
0.0
 11
182.49999985098839
 21
195.300000347197
 31
0.0
  0
LINE
  5
10EC9
  8
1
 10
407.50000055879337
 20
177.80000034719711
 30
0.0
 11
407.50000055879337
 21
212.80000034719711
 31
0.0
  0
LINE
  5
10ECA
  8
1
 10
390.00000055879337
 20
195.3000003471972
 30
0.0
 11
425.00000055879337
 21
195.30000034719711
 31
0.0
  0
LINE
  5
10ECB
  8
1
 10
390.17949277346207
 20
205.30000017955911
 30
0.0
 11
424.82050834412422
 21
185.3000005148352
 31
0.0
  0
CIRCLE
  5
10F34
  8
0
 10
162.50000018626449
 20
50.0
 30
0.0
 40
4.0
  0
LINE
  5
10F39
  8
1
 10
162.50000018626449
 20
70.000000000000014
 30
0.0
 11
162.50000018626449
 21
30.0
 31
0.0
  0
LINE
  5
10F3A
  8
1
 10
182.50000018626449
 20
50.0
 30
0.0
 11
142.50000018626449
 21
50.0
 31
0.0
  0
CIRCLE
  5
10F44
  8
1
 10
162.50000018626449
 20
50.0
 30
0.0
 40
10.5
  0
LINE
  5
10F45
  8
1
 10
165.80000018626441
 20
55.715767664977243
 30
0.0
 11
169.70000018626419
 21
62.470765814496019
 31
0.0
  0
LINE
  5
10F46
  8
1
 10
165.80000018626461
 20
44.284232335022772
 30
0.0
 11
169.7000001862645
 21
37.529234185504151
 31
0.0
  0
LINE
  5
10FA0
  8
0
 10
396.55399776995171
 20
49.227499996777631
 30
0.0
 11
397.44600363075722
 21
49.227499996777631
 31
0.0
  0
LINE
  5
10FA1
  8
0
 10
397.44600363075722
 20
49.227499996777631
 30
0.0
 11
397.89200656115997
 21
50.0
 31
0.0
  0
LINE
  5
10FA2
  8
0
 10
397.89200656115997
 20
50.0
 30
0.0
 11
397.44600363075722
 21
50.772500003222383
 31
0.0
  0
LINE
  5
10FA3
  8
0
 10
397.44600363075722
 20
50.772500003222383
 30
0.0
 11
396.55399776995171
 21
50.772500003222383
 31
0.0
  0
LINE
  5
10FA4
  8
0
 10
396.55399776995171
 20
50.772500003222383
 30
0.0
 11
396.10799483954889
 21
50.0
 31
0.0
  0
LINE
  5
10FA5
  8
0
 10
396.10799483954889
 20
50.0
 30
0.0
 11
396.55399776995171
 21
49.227499996777631
 31
0.0
  0
CIRCLE
  5
10FA6
  8
0
 10
397.00000055879337
 20
50.0
 30
0.0
 40
1.9000000000000119
  0
CIRCLE
  5
10FA7
  8
0
 10
412.75000055879337
 20
40.906733260263387
 30
0.0
 40
1.8999999999999979
  0
LINE
  5
10FA8
  8
0
 10
413.64200681447971
 20
40.90673308819531
 30
0.0
 11
413.19600341841573
 21
41.679233498871312
 31
0.0
  0
LINE
  5
10FA9
  8
0
 10
413.19600341841573
 20
41.679233498871312
 30
0.0
 11
412.30399755761022
 21
41.679233498871312
 31
0.0
  0
LINE
  5
10FAA
  8
0
 10
412.30399755761022
 20
41.679233498871312
 30
0.0
 11
411.85799416154612
 21
40.90673308819531
 31
0.0
  0
LINE
  5
10FAB
  8
0
 10
411.85799416154612
 20
40.90673308819531
 30
0.0
 11
412.30399755761022
 21
40.134233608841882
 31
0.0
  0
LINE
  5
10FAC
  8
0
 10
412.30399755761022
 20
40.134233608841882
 30
0.0
 11
413.19600341841573
 21
40.134233608841882
 31
0.0
  0
LINE
  5
10FAD
  8
0
 10
413.19600341841573
 20
40.134233608841882
 30
0.0
 11
413.64200681447971
 21
40.90673308819531
 31
0.0
  0
CIRCLE
  5
10FAE
  8
0
 10
412.75000055879292
 20
59.093266739736663
 30
0.0
 40
1.9000000000000139
  0
LINE
  5
10FAF
  8
0
 10
412.30399755761022
 20
59.865766391158111
 30
0.0
 11
411.85799416154612
 21
59.093266911804683
 31
0.0
  0
LINE
  5
10FB0
  8
0
 10
411.85799416154612
 20
59.093266911804683
 30
0.0
 11
412.30399755761022
 21
58.320766501128681
 31
0.0
  0
LINE
  5
10FB1
  8
0
 10
412.30399755761022
 20
58.320766501128681
 30
0.0
 11
413.19600341841573
 21
58.320766501128681
 31
0.0
  0
LINE
  5
10FB2
  8
0
 10
413.19600341841573
 20
58.320766501128681
 30
0.0
 11
413.64200681447971
 21
59.093266911804683
 31
0.0
  0
LINE
  5
10FB3
  8
0
 10
413.64200681447971
 20
59.093266911804683
 30
0.0
 11
413.19600341841573
 21
59.865766391158111
 31
0.0
  0
LINE
  5
10FB4
  8
0
 10
413.19600341841573
 20
59.865766391158111
 30
0.0
 11
412.30399755761022
 21
59.865766391158111
 31
0.0
  0
LINE
  5
10FDD
  8
1
 10
407.50000055879337
 20
67.500000000000014
 30
0.0
 11
407.50000055879337
 21
32.5
 31
0.0
  0
LINE
  5
10FDE
  8
1
 10
425.00000055879337
 20
50.0
 30
0.0
 11
390.00000055879337
 21
50.0
 31
0.0
  0
CIRCLE
  5
10FDF
  8
1
 10
407.50000055879337
 20
50.0
 30
0.0
 40
10.5
  0
LINE
  5
10FE0
  8
1
 10
410.8000005587931
 20
55.715767664977243
 30
0.0
 11
414.70000055879319
 21
62.470765814496019
 31
0.0
  0
LINE
  5
10FE1
  8
1
 10
410.8000005587935
 20
44.284232335022772
 30
0.0
 11
414.70000055879319
 21
37.529234185504151
 31
0.0
  0
CIRCLE
  5
10FED
  8
0
 10
407.50000055879292
 20
50.0
 30
0.0
 40
4.0
  0
LINE
  5
1100A
  8
1
 10
424.82050863448228
 20
60.00000000000005
 30
0.0
 11
390.17949248310458
 21
40.00000000000005
 31
0.0
  0
LINE
  5
1108F
  8
0
 10
171.00000064820051
 20
130.80000076442951
 30
0.0
 11
174.67101067304611
 21
129.4638620689511
 31
0.0
  0
LINE
  5
110D2
  8
3
 10
152.7999998621641
 20
114.80000030621891
 30
0.0
 11
152.7999998621641
 21
116.30000025033949
 31
0.0
  0
LINE
  5
110D3
  8
3
 10
153.00000049173829
 20
114.4535890542507
 30
0.0
 11
152.7999998621641
 21
114.80000030621891
 31
0.0
  0
LINE
  5
110D4
  8
0
 10
151.00000016391269
 20
114.80000030621891
 30
0.0
 11
153.00000049173829
 21
114.80000030621891
 31
0.0
  0
LINE
  5
110D6
  8
3
 10
151.19999986216419
 20
114.80000030621891
 30
0.0
 11
151.19999986216419
 21
116.30000025033949
 31
0.0
  0
LINE
  5
110D8
  8
3
 10
150.9999992325902
 20
114.4535890542507
 30
0.0
 11
151.1999998621643
 21
114.80000030621891
 31
0.0
  0
LINE
  5
110DC
  8
3
 10
168.55000011548381
 20
114.80000030621891
 30
0.0
 11
168.55000011548381
 21
116.30000025033949
 31
0.0
  0
LINE
  5
110DD
  8
3
 10
168.750000745058
 20
114.4535890542507
 30
0.0
 11
168.55000011548381
 21
114.80000030621891
 31
0.0
  0
LINE
  5
110DE
  8
0
 10
166.75000041723251
 20
114.80000030621891
 30
0.0
 11
168.750000745058
 21
114.80000030621891
 31
0.0
  0
LINE
  5
110DF
  8
3
 10
166.9500001154839
 20
114.80000030621891
 30
0.0
 11
166.9500001154839
 21
116.30000025033949
 31
0.0
  0
LINE
  5
110E0
  8
3
 10
166.74999948590991
 20
114.4535890542507
 30
0.0
 11
166.95000011548399
 21
114.80000030621891
 31
0.0
  0
LINE
  5
110E8
  8
1
 10
162.50000018626449
 20
95.000000000000014
 30
0.0
 11
162.50000018626449
 21
150.300000347197
 31
0.0
  0
LINE
  5
110ED
  8
1
 10
151.9999998621642
 20
109.800000211224
 30
0.0
 11
151.9999998621642
 21
118.30000025033949
 31
0.0
  0
LINE
  5
110EE
  8
1
 10
167.75000058114529
 20
109.800000211224
 30
0.0
 11
167.75000058114529
 21
118.30000025033949
 31
0.0
  0
LINE
  5
11188
  8
0
 10
87.828989513218403
 20
129.4638620689511
 30
0.0
 11
91.499999538064003
 21
130.80000076442951
 31
0.0
  0
LINE
  5
1119E
  8
3
 10
109.8932666789738
 20
114.80000030621891
 30
0.0
 11
109.8932666789738
 21
116.30000025033949
 31
0.0
  0
LINE
  5
1119F
  8
3
 10
110.09326730854811
 20
114.4535890542507
 30
0.0
 11
109.8932666789738
 21
114.80000030621891
 31
0.0
  0
LINE
  5
111A0
  8
0
 10
108.0932669807225
 20
114.80000030621891
 30
0.0
 11
110.09326730854811
 21
114.80000030621891
 31
0.0
  0
LINE
  5
111A1
  8
3
 10
108.29326667897389
 20
114.80000030621891
 30
0.0
 11
108.29326667897389
 21
116.30000025033949
 31
0.0
  0
LINE
  5
111A2
  8
3
 10
108.0932660493999
 20
114.4535890542507
 30
0.0
 11
108.29326667897401
 21
114.80000030621891
 31
0.0
  0
LINE
  5
111A3
  8
1
 10
109.093266678974
 20
109.800000211224
 30
0.0
 11
109.093266678974
 21
118.30000025033949
 31
0.0
  0
LINE
  5
111A4
  8
3
 10
100.7999999999998
 20
114.80000030621891
 30
0.0
 11
100.7999999999998
 21
116.30000025033949
 31
0.0
  0
LINE
  5
111A5
  8
3
 10
101.000000629574
 20
114.4535890542507
 30
0.0
 11
100.7999999999998
 21
114.80000030621891
 31
0.0
  0
LINE
  5
111A6
  8
0
 10
99.000000301748514
 20
114.80000030621891
 30
0.0
 11
101.000000629574
 21
114.80000030621891
 31
0.0
  0
LINE
  5
111A7
  8
3
 10
99.199999999999946
 20
114.80000030621891
 30
0.0
 11
99.199999999999946
 21
116.30000025033949
 31
0.0
  0
LINE
  5
111A8
  8
3
 10
98.999999370425925
 20
114.4535890542507
 30
0.0
 11
99.200000000000045
 21
114.80000030621891
 31
0.0
  0
LINE
  5
111A9
  8
1
 10
100.0
 20
95.000000000000014
 30
0.0
 11
100.0
 21
150.30000019818539
 31
0.0
  0
LINE
  5
111AA
  8
3
 10
91.706733321025794
 20
114.80000030621891
 30
0.0
 11
91.706733321025794
 21
116.30000025033949
 31
0.0
  0
LINE
  5
111AB
  8
3
 10
91.906733950600014
 20
114.4535890542507
 30
0.0
 11
91.706733321025794
 21
114.80000030621891
 31
0.0
  0
LINE
  5
111AC
  8
0
 10
89.906733622774482
 20
114.80000030621891
 30
0.0
 11
91.906733950600014
 21
114.80000030621891
 31
0.0
  0
LINE
  5
111AD
  8
3
 10
90.106733321025885
 20
114.80000030621891
 30
0.0
 11
90.106733321025885
 21
116.30000025033949
 31
0.0
  0
LINE
  5
111AE
  8
3
 10
89.906732691451893
 20
114.4535890542507
 30
0.0
 11
90.106733321026013
 21
114.80000030621891
 31
0.0
  0
LINE
  5
111AF
  8
1
 10
90.906733321025953
 20
109.800000211224
 30
0.0
 11
90.906733321025953
 21
118.30000025033949
 31
0.0
  0
LINE
  5
1125E
  8
0
 10
233.500000834465
 20
130.80000076442951
 30
0.0
 11
237.1710108593106
 21
129.4638620689511
 31
0.0
  0
LINE
  5
1126E
  8
3
 10
216.7067336935549
 20
114.80000030621891
 30
0.0
 11
216.7067336935549
 21
116.30000025033949
 31
0.0
  0
LINE
  5
1126F
  8
3
 10
216.90673432312909
 20
114.4535890542507
 30
0.0
 11
216.7067336935549
 21
114.80000030621891
 31
0.0
  0
LINE
  5
11270
  8
0
 10
214.90673399530351
 20
114.80000030621891
 30
0.0
 11
216.90673432312909
 21
114.80000030621891
 31
0.0
  0
LINE
  5
11271
  8
3
 10
215.1067336935549
 20
114.80000030621891
 30
0.0
 11
215.1067336935549
 21
116.30000025033949
 31
0.0
  0
LINE
  5
11272
  8
3
 10
214.90673306398091
 20
114.4535890542507
 30
0.0
 11
215.10673369355499
 21
114.80000030621891
 31
0.0
  0
LINE
  5
11273
  8
1
 10
215.906733693555
 20
109.800000211224
 30
0.0
 11
215.906733693555
 21
118.30000025033949
 31
0.0
  0
LINE
  5
11274
  8
3
 10
234.8932670515029
 20
114.80000030621891
 30
0.0
 11
234.8932670515029
 21
116.30000025033949
 31
0.0
  0
LINE
  5
11275
  8
3
 10
235.09326768107709
 20
114.4535890542507
 30
0.0
 11
234.8932670515029
 21
114.80000030621891
 31
0.0
  0
LINE
  5
11276
  8
0
 10
233.0932673532516
 20
114.80000030621891
 30
0.0
 11
235.09326768107709
 21
114.80000030621891
 31
0.0
  0
LINE
  5
11277
  8
3
 10
233.29326705150299
 20
114.80000030621891
 30
0.0
 11
233.29326705150299
 21
116.30000025033949
 31
0.0
  0
LINE
  5
11278
  8
3
 10
233.093266421929
 20
114.4535890542507
 30
0.0
 11
233.29326705150311
 21
114.80000030621891
 31
0.0
  0
LINE
  5
11279
  8
1
 10
234.09326705150309
 20
109.800000211224
 30
0.0
 11
234.09326705150309
 21
118.30000025033949
 31
0.0
  0
LINE
  5
1127A
  8
1
 10
225.000000372529
 20
150.30000019818539
 30
0.0
 11
225.000000372529
 21
95.000000000000014
 31
0.0
  0
LINE
  5
1131D
  8
0
 10
395.10000020265568
 20
113.80000030621891
 30
0.0
 11
395.10000020265568
 21
111.800000211224
 31
0.0
  0
LINE
  5
1131E
  8
0
 10
398.90000026673067
 20
111.800000211224
 30
0.0
 11
398.90000026673067
 21
113.80000030621891
 31
0.0
  0
LINE
  5
1131F
  8
0
 10
398.00000086426718
 20
113.80000030621891
 30
0.0
 11
398.00000086426718
 21
116.30000025033949
 31
0.0
  0
LINE
  5
11320
  8
0
 10
396.00000053644169
 20
116.30000025033949
 30
0.0
 11
396.00000053644169
 21
113.80000030621891
 31
0.0
  0
LINE
  5
11321
  8
0
 10
410.85000045597542
 20
113.80000030621891
 30
0.0
 11
410.85000045597542
 21
111.800000211224
 31
0.0
  0
LINE
  5
11322
  8
0
 10
414.65000052005041
 20
111.800000211224
 30
0.0
 11
414.65000052005041
 21
113.80000030621891
 31
0.0
  0
LINE
  5
11323
  8
0
 10
413.75000065192569
 20
113.80000030621891
 30
0.0
 11
413.75000065192569
 21
116.30000025033949
 31
0.0
  0
LINE
  5
11324
  8
0
 10
411.75000078976137
 20
116.30000025033949
 30
0.0
 11
411.75000078976137
 21
113.80000030621891
 31
0.0
  0
LINE
  5
11340
  8
0
 10
395.10000020265568
 20
113.80000030621891
 30
0.0
 11
398.90000026673067
 21
113.80000030621891
 31
0.0
  0
LINE
  5
11341
  8
0
 10
395.10000020265568
 20
111.800000211224
 30
0.0
 11
398.90000026673067
 21
111.800000211224
 31
0.0
  0
LINE
  5
11342
  8
0
 10
410.85000045597542
 20
113.80000030621891
 30
0.0
 11
414.65000052005041
 21
113.80000030621891
 31
0.0
  0
LINE
  5
11388
  8
3
 10
397.8000002346929
 20
114.80000030621891
 30
0.0
 11
397.8000002346929
 21
116.30000025033949
 31
0.0
  0
LINE
  5
11389
  8
3
 10
398.00000086426718
 20
114.4535890542507
 30
0.0
 11
397.8000002346929
 21
114.80000030621891
 31
0.0
  0
LINE
  5
1138A
  8
0
 10
396.00000053644169
 20
114.80000030621891
 30
0.0
 11
398.00000086426718
 21
114.80000030621891
 31
0.0
  0
LINE
  5
1138B
  8
3
 10
396.20000023469299
 20
114.80000030621891
 30
0.0
 11
396.20000023469299
 21
116.30000025033949
 31
0.0
  0
LINE
  5
1138C
  8
3
 10
395.99999960511911
 20
114.4535890542507
 30
0.0
 11
396.20000023469299
 21
114.80000030621891
 31
0.0
  0
LINE
  5
1138D
  8
3
 10
413.55000048801259
 20
114.80000030621891
 30
0.0
 11
413.55000048801259
 21
116.30000025033949
 31
0.0
  0
LINE
  5
1138E
  8
3
 10
413.75000111758698
 20
114.4535890542507
 30
0.0
 11
413.55000048801259
 21
114.80000030621891
 31
0.0
  0
LINE
  5
1138F
  8
0
 10
411.75000078976137
 20
114.80000030621891
 30
0.0
 11
413.75000111758698
 21
114.80000030621891
 31
0.0
  0
LINE
  5
11390
  8
3
 10
411.95000048801268
 20
114.80000030621891
 30
0.0
 11
411.95000048801268
 21
116.30000025033949
 31
0.0
  0
LINE
  5
11391
  8
3
 10
411.7499998584388
 20
114.4535890542507
 30
0.0
 11
411.95000048801268
 21
114.80000030621891
 31
0.0
  0
LINE
  5
11393
  8
1
 10
397.00000023469318
 20
109.800000211224
 30
0.0
 11
397.00000023469318
 21
118.30000025033949
 31
0.0
  0
LINE
  5
11394
  8
1
 10
412.7500009536742
 20
109.800000211224
 30
0.0
 11
412.7500009536742
 21
118.30000025033949
 31
0.0
  0
ARC
  5
11396
  8
0
 10
419.99038119614102
 20
132.59999956935641
 30
0.0
 40
0.5
 50
270.0
 51
0.0
  0
ARC
  5
11397
  8
0
 10
396.52216649799618
 20
141.79700432321951
 30
0.0
 40
2.4160559887550561
 50
108.7878965621815
 51
182.07553030791351
  0
LINE
  5
113A7
  8
0
 10
416.00000102072943
 20
130.80000076442951
 30
0.0
 11
419.67101104557503
 21
129.4638620689511
 31
0.0
  0
LINE
  5
113BA
  8
1
 10
407.50000055879337
 20
94.256000060468907
 30
0.0
 11
407.50000055879337
 21
150.2995835590331
 31
0.0
  0
LINE
  5
114E3
  8
0
 10
332.82898988574732
 20
129.4638620689511
 30
0.0
 11
336.49999991059292
 21
130.80000076442951
 31
0.0
  0
POLYLINE
  5
114F9
  8
0
 66
     1
 10
0.0
 20
0.0
 30
0.0
 70
   128
  0
VERTEX
  5
13BAB
  8
0
 10
351.77918028086413
 20
135.40185932070011
 30
0.0
  0
VERTEX
  5
13BAC
  8
0
 10
351.8628274835645
 20
135.5809880420565
 30
0.0
  0
VERTEX
  5
13BAD
  8
0
 10
351.91920835524792
 20
135.79860832542181
 30
0.0
  0
VERTEX
  5
13BAE
  8
0
 10
351.94414172321552
 20
136.03858221322301
 30
0.0
  0
VERTEX
  5
13BAF
  8
0
 10
351.93577891215671
 20
136.28311026841399
 30
0.0
  0
VERTEX
  5
13BB0
  8
0
 10
351.8947392515837
 20
136.51405964046711
 30
0.0
  0
VERTEX
  5
13BB1
  8
0
 10
351.82406723499292
 20
136.71429771929979
 30
0.0
  0
VERTEX
  5
13BB2
  8
0
 10
351.7290038801728
 20
136.86897736042741
 30
0.0
  0
SEQEND
  5
13BB3
  8
0
  0
POLYLINE
  5
114FA
  8
0
 66
     1
 10
0.0
 20
0.0
 30
0.0
 70
   128
  0
VERTEX
  5
13BB4
  8
0
 10
351.48050494639608
 20
137.08484711263799
 30
0.0
  0
VERTEX
  5
13BB5
  8
0
 10
351.35487250983698
 20
137.03660983592269
 30
0.0
  0
SEQEND
  5
13BB6
  8
0
  0
LINE
  5
11510
  8
0
 10
343.10000034049142
 20
113.80000030621891
 30
0.0
 11
343.10000034049142
 21
111.800000211224
 31
0.0
  0
LINE
  5
11511
  8
0
 10
346.90000040456641
 20
111.800000211224
 30
0.0
 11
346.90000040456641
 21
113.80000030621891
 31
0.0
  0
LINE
  5
11512
  8
0
 10
346.00000042002642
 20
113.80000030621891
 30
0.0
 11
346.00000042002642
 21
116.30000025033949
 31
0.0
  0
LINE
  5
11513
  8
0
 10
344.00000032503152
 20
116.30000025033949
 30
0.0
 11
344.00000032503152
 21
113.80000030621891
 31
0.0
  0
LINE
  5
11514
  8
0
 10
334.00673389434797
 20
113.80000030621891
 30
0.0
 11
334.00673389434797
 21
111.800000211224
 31
0.0
  0
LINE
  5
11515
  8
0
 10
337.80673349276168
 20
111.800000211224
 30
0.0
 11
337.80673349276168
 21
113.80000030621891
 31
0.0
  0
LINE
  5
11516
  8
0
 10
336.90673362463701
 20
113.80000030621891
 30
0.0
 11
336.90673362463701
 21
116.30000025033949
 31
0.0
  0
LINE
  5
11517
  8
0
 10
334.90673329681152
 20
116.30000025033949
 30
0.0
 11
334.90673329681152
 21
113.80000030621891
 31
0.0
  0
LINE
  5
11518
  8
0
 10
352.1932672522961
 20
113.80000030621891
 30
0.0
 11
352.1932672522961
 21
111.800000211224
 31
0.0
  0
LINE
  5
11519
  8
0
 10
355.9932668507098
 20
111.800000211224
 30
0.0
 11
355.9932668507098
 21
113.80000030621891
 31
0.0
  0
LINE
  5
1151A
  8
0
 10
355.09326744824642
 20
113.80000030621891
 30
0.0
 11
355.09326744824642
 21
116.30000025033949
 31
0.0
  0
LINE
  5
1151B
  8
0
 10
353.09326712042082
 20
116.30000025033949
 30
0.0
 11
353.09326712042082
 21
113.80000030621891
 31
0.0
  0
LINE
  5
1151C
  8
0
 10
343.10000034049142
 20
113.80000030621891
 30
0.0
 11
346.90000040456641
 21
113.80000030621891
 31
0.0
  0
LINE
  5
1151D
  8
0
 10
343.10000034049142
 20
111.800000211224
 30
0.0
 11
346.90000040456641
 21
111.800000211224
 31
0.0
  0
LINE
  5
1151E
  8
0
 10
334.00673389434797
 20
113.80000030621891
 30
0.0
 11
337.80673349276168
 21
113.80000030621891
 31
0.0
  0
LINE
  5
1151F
  8
0
 10
334.00673389434797
 20
111.800000211224
 30
0.0
 11
337.80673349276168
 21
111.800000211224
 31
0.0
  0
LINE
  5
11520
  8
0
 10
352.1932672522961
 20
113.80000030621891
 30
0.0
 11
355.9932668507098
 21
113.80000030621891
 31
0.0
  0
LINE
  5
11521
  8
0
 10
352.1932672522961
 20
111.800000211224
 30
0.0
 11
355.9932668507098
 21
111.800000211224
 31
0.0
  0
LINE
  5
11522
  8
0
 10
346.10000036656839
 20
114.6000003442168
 30
0.0
 11
346.00000042002642
 21
114.6000003442168
 31
0.0
  0
LINE
  5
11523
  8
0
 10
346.10000036656839
 20
114.6000003442168
 30
0.0
 11
346.10000036656839
 21
113.80000030621891
 31
0.0
  0
LINE
  5
11524
  8
3
 10
354.89326705150268
 20
114.80000030621891
 30
0.0
 11
354.89326705150268
 21
116.30000025033949
 31
0.0
  0
LINE
  5
11525
  8
3
 10
355.09326768107701
 20
114.4535890542507
 30
0.0
 11
354.89326705150268
 21
114.80000030621891
 31
0.0
  0
LINE
  5
11526
  8
0
 10
353.09326735325152
 20
114.80000030621891
 30
0.0
 11
355.09326768107701
 21
114.80000030621891
 31
0.0
  0
LINE
  5
11527
  8
3
 10
353.29326705150282
 20
114.80000030621891
 30
0.0
 11
353.29326705150282
 21
116.30000025033949
 31
0.0
  0
LINE
  5
11528
  8
3
 10
353.09326642192889
 20
114.4535890542507
 30
0.0
 11
353.29326705150282
 21
114.80000030621891
 31
0.0
  0
LINE
  5
11529
  8
1
 10
354.09326705150289
 20
109.800000211224
 30
0.0
 11
354.09326705150289
 21
118.30000025033949
 31
0.0
  0
LINE
  5
1152A
  8
3
 10
345.80000037252859
 20
114.80000030621891
 30
0.0
 11
345.80000037252859
 21
116.30000025033949
 31
0.0
  0
LINE
  5
1152B
  8
3
 10
346.00000100210298
 20
114.4535890542507
 30
0.0
 11
345.80000037252859
 21
114.80000030621891
 31
0.0
  0
LINE
  5
1152C
  8
0
 10
344.00000067427737
 20
114.80000030621891
 30
0.0
 11
346.00000100210298
 21
114.80000030621891
 31
0.0
  0
LINE
  5
1152D
  8
3
 10
344.20000037252868
 20
114.80000030621891
 30
0.0
 11
344.20000037252868
 21
116.30000025033949
 31
0.0
  0
LINE
  5
1152E
  8
3
 10
343.9999997429548
 20
114.4535890542507
 30
0.0
 11
344.20000037252868
 21
114.80000030621891
 31
0.0
  0
LINE
  5
1152F
  8
1
 10
345.00000037252892
 20
94.256000060468907
 30
0.0
 11
345.00000037252892
 21
150.30000019818539
 31
0.0
  0
LINE
  5
11530
  8
3
 10
336.70673369355461
 20
114.80000030621891
 30
0.0
 11
336.70673369355461
 21
116.30000025033949
 31
0.0
  0
LINE
  5
11531
  8
3
 10
336.90673432312889
 20
114.4535890542507
 30
0.0
 11
336.70673369355461
 21
114.80000030621891
 31
0.0
  0
LINE
  5
11532
  8
0
 10
334.9067339953034
 20
114.80000030621891
 30
0.0
 11
336.90673432312889
 21
114.80000030621891
 31
0.0
  0
LINE
  5
11533
  8
3
 10
335.1067336935547
 20
114.80000030621891
 30
0.0
 11
335.1067336935547
 21
116.30000025033949
 31
0.0
  0
LINE
  5
11534
  8
3
 10
334.90673306398082
 20
114.4535890542507
 30
0.0
 11
335.1067336935547
 21
114.80000030621891
 31
0.0
  0
LINE
  5
11535
  8
1
 10
335.90673369355488
 20
109.800000211224
 30
0.0
 11
335.90673369355488
 21
118.30000025033949
 31
0.0
  0
LINE
  5
11580
  8
0
 10
346.100000366568
 20
111.800000211224
 30
0.0
 11
346.100000366568
 21
110.8000002219341
 31
0.0
  0
LINE
  5
11581
  8
0
 10
344.00000032503152
 20
114.6000003442168
 30
0.0
 11
338.00000015646208
 21
114.6000003442168
 31
0.0
  0
LINE
  5
1178C
  8
0
 10
477.19326762482513
 20
113.80000030621891
 30
0.0
 11
477.19326762482513
 21
111.800000211224
 31
0.0
  0
LINE
  5
1178D
  8
0
 10
480.99326722323877
 20
111.800000211224
 30
0.0
 11
480.99326722323877
 21
113.80000030621891
 31
0.0
  0
LINE
  5
1178E
  8
0
 10
480.0932678207754
 20
113.80000030621891
 30
0.0
 11
480.0932678207754
 21
116.30000025033949
 31
0.0
  0
LINE
  5
1178F
  8
0
 10
478.09326749294979
 20
116.30000025033949
 30
0.0
 11
478.09326749294979
 21
113.80000030621891
 31
0.0
  0
LINE
  5
11790
  8
0
 10
459.00673426687712
 20
113.80000030621891
 30
0.0
 11
459.00673426687712
 21
111.800000211224
 31
0.0
  0
LINE
  5
11791
  8
0
 10
462.80673386529082
 20
111.800000211224
 30
0.0
 11
462.80673386529082
 21
113.80000030621891
 31
0.0
  0
LINE
  5
11792
  8
0
 10
461.90673399716599
 20
113.80000030621891
 30
0.0
 11
461.90673399716599
 21
116.30000025033949
 31
0.0
  0
LINE
  5
11793
  8
0
 10
459.9067336693405
 20
116.30000025033949
 30
0.0
 11
459.9067336693405
 21
113.80000030621891
 31
0.0
  0
LINE
  5
11794
  8
0
 10
477.19326762482513
 20
113.80000030621891
 30
0.0
 11
480.99326722323877
 21
113.80000030621891
 31
0.0
  0
LINE
  5
11795
  8
0
 10
477.19326762482513
 20
111.800000211224
 30
0.0
 11
480.99326722323877
 21
111.800000211224
 31
0.0
  0
LINE
  5
11796
  8
0
 10
459.00673426687712
 20
113.80000030621891
 30
0.0
 11
462.80673386529082
 21
113.80000030621891
 31
0.0
  0
LINE
  5
11797
  8
0
 10
459.00673426687712
 20
111.800000211224
 30
0.0
 11
462.80673386529082
 21
111.800000211224
 31
0.0
  0
LINE
  5
11798
  8
3
 10
461.70673406608358
 20
114.80000030621891
 30
0.0
 11
461.70673406608358
 21
116.30000025033949
 31
0.0
  0
LINE
  5
11799
  8
3
 10
461.90673469565797
 20
114.4535890542507
 30
0.0
 11
461.70673406608358
 21
114.80000030621891
 31
0.0
  0
LINE
  5
1179A
  8
0
 10
459.90673436783243
 20
114.80000030621891
 30
0.0
 11
461.90673469565797
 21
114.80000030621891
 31
0.0
  0
LINE
  5
1179B
  8
3
 10
460.10673406608367
 20
114.80000030621891
 30
0.0
 11
460.10673406608367
 21
116.30000025033949
 31
0.0
  0
LINE
  5
1179C
  8
3
 10
459.9067334365098
 20
114.4535890542507
 30
0.0
 11
460.10673406608419
 21
114.80000030621891
 31
0.0
  0
LINE
  5
1179D
  8
1
 10
460.90673406608391
 20
109.800000211224
 30
0.0
 11
460.90673406608391
 21
118.30000025033949
 31
0.0
  0
LINE
  5
1179E
  8
3
 10
479.89326742403171
 20
114.80000030621891
 30
0.0
 11
479.89326742403171
 21
116.30000025033949
 31
0.0
  0
LINE
  5
1179F
  8
3
 10
480.09326805360598
 20
114.4535890542507
 30
0.0
 11
479.89326742403171
 21
114.80000030621891
 31
0.0
  0
LINE
  5
117A0
  8
0
 10
478.09326772578049
 20
114.80000030621891
 30
0.0
 11
480.09326805360598
 21
114.80000030621891
 31
0.0
  0
LINE
  5
117A1
  8
3
 10
478.2932674240318
 20
114.80000030621891
 30
0.0
 11
478.2932674240318
 21
116.30000025033949
 31
0.0
  0
LINE
  5
117A2
  8
3
 10
478.09326679445792
 20
114.4535890542507
 30
0.0
 11
478.29326742403219
 21
114.80000030621891
 31
0.0
  0
LINE
  5
117A3
  8
1
 10
479.09326742403198
 20
109.800000211224
 30
0.0
 11
479.09326742403198
 21
118.30000025033949
 31
0.0
  0
LINE
  5
117ED
  8
1
 10
470.00000074505789
 20
150.2995835795108
 30
0.0
 11
470.00000074505789
 21
94.255999922752395
 31
0.0
  0
TEXT
  5
127C4
  8
0
 62
     3
 10
325.68666666666661
 20
-189.34136863427679
 30
0.0
 40
3.2000000000000002
  1
3mmを超え6mm未満のプレートに固定する場合
 72
     1
 11
367.5
 21
-189.7680353009435
 31
0.0
 73
     1
  0
TEXT
  5
127C5
  8
0
 62
     3
 10
168.4333333333332
 20
-295.14510668029988
 30
0.0
 40
3.2000000000000002
  1
組付け状態
 72
     1
 11
177.49999999999989
 21
-295.14510668029988
 31
0.0
  0
TEXT
  5
127C6
  8
0
 62
     3
 10
240.2466666666667
 20
-295.14510668029988
 30
0.0
 40
3.2000000000000002
  1
取付け穴
 72
     1
 11
247.5
 21
-295.14510668029988
 31
0.0
  0
TEXT
  5
127C7
  8
0
 62
     3
 10
294.69999999999999
 20
-196.34136863427679
 30
0.0
 40
3.2000000000000002
  1
For installation on plate of over 3 to 6 mm thickness.
 72
     1
 11
367.5
 21
-196.7680353009435
 31
0.0
 73
     1
  0
TEXT
  5
127C8
  8
0
 62
     3
 10
152.53999999999979
 20
-302.14510668029988
 30
0.0
 40
3.2000000000000002
  1
Installed condition
 72
     1
 11
177.49999999999989
 21
-302.14510668029988
 31
0.0
  0
TEXT
  5
127C9
  8
0
 62
     3
 10
225.4733333333333
 20
-302.14510668029988
 30
0.0
 40
3.2000000000000002
  1
Installation hole
 72
     1
 11
247.5
 21
-302.14510668029988
 31
0.0
  0
LINE
  5
127D3
  8
1
 10
402.5
 20
-34.094764855300532
 30
0.0
 11
402.5
 21
-70.094764855300525
 31
0.0
  0
LINE
  5
127D4
  8
1
 10
420.5
 20
-52.094764855300532
 30
0.0
 11
384.5
 21
-52.094764855300532
 31
0.0
  0
CIRCLE
  5
127D5
  8
0
 10
402.5
 20
-52.094764855300532
 30
0.0
 40
7.0
  0
CIRCLE
  5
127D6
  8
1
 10
402.5
 20
-52.094764855300532
 30
0.0
 40
10.5
  0
CIRCLE
  5
127D7
  8
0
 10
392.0
 20
-52.094764855300532
 30
0.0
 40
1.1999999999999991
  0
CIRCLE
  5
127D8
  8
2
 10
392.0
 20
-52.094764855300532
 30
0.0
 40
2.2000000000000002
  0
LINE
  5
127D9
  8
1
 10
405.64999999999992
 20
-46.638804811458549
 30
0.0
 11
409.85000000000002
 21
-39.364191419669282
 31
0.0
  0
LINE
  5
127DA
  8
1
 10
405.64999999999981
 20
-57.550724899142551
 30
0.0
 11
409.85000000000002
 21
-64.825338290931768
 31
0.0
  0
CIRCLE
  5
127DB
  8
2
 10
407.74999999999989
 20
-43.001498115563919
 30
0.0
 40
2.2000000000000002
  0
CIRCLE
  5
127DC
  8
0
 10
407.74999999999989
 20
-43.001498115563919
 30
0.0
 40
1.1999999999999991
  0
CIRCLE
  5
127DD
  8
0
 10
407.74999999999989
 20
-61.188031595037131
 30
0.0
 40
1.1999999999999991
  0
CIRCLE
  5
127DE
  8
2
 10
407.74999999999989
 20
-61.188031595037131
 30
0.0
 40
2.2000000000000002
  0
LINE
  5
127DF
  8
1
 10
402.5
 20
-90.373270445643016
 30
0.0
 11
402.49999999999977
 21
-120.373270445643
 31
0.0
  0
LINE
  5
127E0
  8
0
 10
395.5
 20
-110.373270445643
 30
0.0
 11
395.5
 21
-114.3732704456429
 31
0.0
  0
LINE
  5
127E1
  8
0
 10
409.49999999999989
 20
-110.3732704456429
 30
0.0
 11
409.49999999999989
 21
-114.373270445643
 31
0.0
  0
LINE
  5
127E2
  8
1
 10
392.0
 20
-107.373270445643
 30
0.0
 11
392.0
 21
-117.373270445643
 31
0.0
  0
LINE
  5
127E3
  8
0
 10
389.5
 20
-109.373270445643
 30
0.0
 11
415.5
 21
-109.373270445643
 31
0.0
  0
LINE
  5
127E4
  8
0
 10
390.7999999999999
 20
-109.873270445643
 30
0.0
 11
393.19999999999999
 21
-109.873270445643
 31
0.0
  0
LINE
  5
127E5
  8
0
 10
389.80000000000001
 20
-111.873270445643
 30
0.0
 11
394.2000000000001
 21
-111.8732704456429
 31
0.0
  0
LINE
  5
127E6
  8
0
 10
395.5
 20
-110.373270445643
 30
0.0
 11
409.49999999999989
 21
-110.373270445643
 31
0.0
  0
LINE
  5
127E7
  8
0
 10
380.0
 20
-115.373270445643
 30
0.0
 11
425.0
 21
-115.373270445643
 31
0.0
  0
LINE
  5
127E8
  8
0
 10
389.80000000000001
 20
-114.873270445643
 30
0.0
 11
394.2000000000001
 21
-114.8732704456429
 31
0.0
  0
LINE
  5
127E9
  8
0
 10
395.5
 20
-114.373270445643
 30
0.0
 11
409.49999999999989
 21
-114.373270445643
 31
0.0
  0
LINE
  5
127EA
  8
0
 10
410.5
 20
-115.373270445643
 30
0.0
 11
409.49999999999989
 21
-114.373270445643
 31
0.0
  0
LINE
  5
127EB
  8
0
 10
410.5
 20
-109.373270445643
 30
0.0
 11
409.49999999999989
 21
-110.373270445643
 31
0.0
  0
LINE
  5
127EC
  8
0
 10
394.5
 20
-109.373270445643
 30
0.0
 11
395.5
 21
-110.373270445643
 31
0.0
  0
LINE
  5
127ED
  8
0
 10
395.5
 20
-114.373270445643
 30
0.0
 11
394.5
 21
-115.373270445643
 31
0.0
  0
LINE
  5
127EE
  8
0
 10
390.7999999999999
 20
-111.873270445643
 30
0.0
 11
390.7999999999999
 21
-109.873270445643
 31
0.0
  0
LINE
  5
127EF
  8
0
 10
393.19999999999999
 20
-111.873270445643
 30
0.0
 11
393.19999999999999
 21
-109.873270445643
 31
0.0
  0
LINE
  5
127F0
  8
0
 10
394.2000000000001
 20
-111.8732704456429
 30
0.0
 11
394.2000000000001
 21
-114.8732704456429
 31
0.0
  0
LINE
  5
127F1
  8
0
 10
389.80000000000001
 20
-111.873270445643
 30
0.0
 11
389.80000000000001
 21
-114.873270445643
 31
0.0
  0
LINE
  5
127F2
  8
0
 10
390.30000000000001
 20
-109.373270445643
 30
0.0
 11
390.7999999999999
 21
-109.873270445643
 31
0.0
  0
LINE
  5
127F3
  8
0
 10
393.19999999999999
 20
-109.873270445643
 30
0.0
 11
393.7000000000001
 21
-109.373270445643
 31
0.0
  0
LINE
  5
127F4
  8
0
 10
389.80000000000001
 20
-114.873270445643
 30
0.0
 11
389.30000000000001
 21
-115.373270445643
 31
0.0
  0
LINE
  5
127F5
  8
0
 10
394.2000000000001
 20
-114.8732704456429
 30
0.0
 11
394.60000000000002
 21
-115.27327044564301
 31
0.0
  0
TEXT
  5
1299C
  8
0
 62
     3
 10
185.0866666666665
 20
-19.168098188633859
 30
0.0
 40
3.2000000000000002
  1
6mmのプレートに固定する場合
 72
     1
 11
212.49999999999989
 21
-19.594764855300522
 31
0.0
 73
     1
  0
TEXT
  5
1299D
  8
0
 62
     3
 10
324.3533333333333
 20
-19.168098188633859
 30
0.0
 40
3.2000000000000002
  1
6mmを超え20mm以下のプレートに固定する場合
 72
     1
 11
367.5
 21
-19.594764855300522
 31
0.0
 73
     1
  0
TEXT
  5
1299E
  8
0
 62
     3
 10
168.4333333333332
 20
-139.97327044564301
 30
0.0
 40
3.2000000000000002
  1
組付け状態
 72
     1
 11
177.49999999999989
 21
-139.97327044564301
 31
0.0
  0
TEXT
  5
1299F
  8
0
 62
     3
 10
240.2466666666667
 20
-139.97327044564301
 30
0.0
 40
3.2000000000000002
  1
取付け穴
 72
     1
 11
247.5
 21
-139.97327044564301
 31
0.0
  0
TEXT
  5
129A0
  8
0
 62
     3
 10
323.43333333333322
 20
-139.97327044564301
 30
0.0
 40
3.2000000000000002
  1
組付け状態
 72
     1
 11
332.49999999999989
 21
-139.97327044564301
 31
0.0
  0
TEXT
  5
129A1
  8
0
 62
     3
 10
395.24666666666673
 20
-139.97327044564301
 30
0.0
 40
3.2000000000000002
  1
取付け穴
 72
     1
 11
402.5
 21
-139.97327044564301
 31
0.0
  0
TEXT
  5
129A2
  8
0
 62
     3
 10
153.77999999999989
 20
-26.168098188633859
 30
0.0
 40
3.2000000000000002
  1
For installation on plate of 6 mm thickness.
 72
     1
 11
212.49999999999989
 21
-26.594764855300529
 31
0.0
 73
     1
  0
TEXT
  5
129A3
  8
0
 62
     3
 10
293.36666666666667
 20
-26.168098188633859
 30
0.0
 40
3.2000000000000002
  1
For installation on plate of over 6 to 20 mm thickness.
 72
     1
 11
367.5
 21
-26.594764855300529
 31
0.0
 73
     1
  0
TEXT
  5
129A4
  8
0
 62
     3
 10
152.53999999999979
 20
-146.97327044564301
 30
0.0
 40
3.2000000000000002
  1
Installed condition
 72
     1
 11
177.49999999999989
 21
-146.97327044564301
 31
0.0
  0
TEXT
  5
129A5
  8
0
 62
     3
 10
225.4733333333333
 20
-146.97327044564301
 30
0.0
 40
3.2000000000000002
  1
Installation hole
 72
     1
 11
247.5
 21
-146.97327044564301
 31
0.0
  0
TEXT
  5
129A6
  8
0
 62
     3
 10
307.53999999999991
 20
-146.97327044564301
 30
0.0
 40
3.2000000000000002
  1
Installed condition
 72
     1
 11
332.49999999999989
 21
-146.97327044564301
 31
0.0
  0
TEXT
  5
129A7
  8
0
 62
     3
 10
380.4733333333333
 20
-146.97327044564301
 30
0.0
 40
3.2000000000000002
  1
Installation hole
 72
     1
 11
402.5
 21
-146.97327044564301
 31
0.0
  0
LINE
  5
12A36
  8
1
 10
247.5
 20
-36.594764855300532
 30
0.0
 11
247.5
 21
-67.594764855300525
 31
0.0
  0
LINE
  5
12A37
  8
1
 10
263.0
 20
-52.094764855300532
 30
0.0
 11
232.0
 21
-52.094764855300532
 31
0.0
  0
CIRCLE
  5
12A38
  8
0
 10
247.5
 20
-52.094764855300532
 30
0.0
 40
7.0
  0
CIRCLE
  5
12A39
  8
1
 10
247.5
 20
-52.094764855300532
 30
0.0
 40
10.5
  0
CIRCLE
  5
12A3A
  8
0
 10
237.0
 20
-52.094764855300532
 30
0.0
 40
1.1999999999999991
  0
CIRCLE
  5
12A3B
  8
2
 10
237.0
 20
-52.094764855300532
 30
0.0
 40
2.2000000000000002
  0
LINE
  5
12A3C
  8
1
 10
250.65000000000001
 20
-46.638804811458549
 30
0.0
 11
254.84999999999999
 21
-39.364191419669282
 31
0.0
  0
LINE
  5
12A3D
  8
1
 10
250.64999999999989
 20
-57.550724899142551
 30
0.0
 11
254.84999999999999
 21
-64.825338290931768
 31
0.0
  0
CIRCLE
  5
12A3E
  8
2
 10
252.75
 20
-43.001498115563919
 30
0.0
 40
2.2000000000000002
  0
CIRCLE
  5
12A3F
  8
0
 10
252.75
 20
-43.001498115563919
 30
0.0
 40
1.1999999999999991
  0
CIRCLE
  5
12A40
  8
0
 10
252.75
 20
-61.188031595037131
 30
0.0
 40
1.1999999999999991
  0
CIRCLE
  5
12A41
  8
2
 10
252.75
 20
-61.188031595037131
 30
0.0
 40
2.2000000000000002
  0
LINE
  5
12A42
  8
1
 10
247.5
 20
-90.373270445642959
 30
0.0
 11
247.5
 21
-106.3732704456429
 31
0.0
  0
LINE
  5
12A43
  8
0
 10
240.5
 20
-96.373270445642959
 30
0.0
 11
240.5
 21
-100.3732704456429
 31
0.0
  0
LINE
  5
12A44
  8
0
 10
254.5
 20
-96.373270445642902
 30
0.0
 11
254.5
 21
-100.3732704456429
 31
0.0
  0
LINE
  5
12A45
  8
1
 10
237.0
 20
-93.373270445642945
 30
0.0
 11
237.0
 21
-103.3732704456429
 31
0.0
  0
LINE
  5
12A46
  8
0
 10
225.0
 20
-95.373270445642959
 30
0.0
 11
270.0
 21
-95.373270445642959
 31
0.0
  0
LINE
  5
12A47
  8
0
 10
235.80000000000001
 20
-95.873270445642945
 30
0.0
 11
238.2000000000001
 21
-95.873270445642945
 31
0.0
  0
LINE
  5
12A48
  8
0
 10
234.7999999999999
 20
-97.873270445642959
 30
0.0
 11
239.19999999999999
 21
-97.873270445642845
 31
0.0
  0
LINE
  5
12A49
  8
0
 10
240.5
 20
-96.373270445642959
 30
0.0
 11
254.5
 21
-96.373270445642959
 31
0.0
  0
LINE
  5
12A4A
  8
0
 10
225.0
 20
-101.3732704456429
 30
0.0
 11
270.0
 21
-101.3732704456429
 31
0.0
  0
LINE
  5
12A4B
  8
0
 10
234.7999999999999
 20
-100.8732704456429
 30
0.0
 11
239.19999999999999
 21
-100.8732704456429
 31
0.0
  0
LINE
  5
12A4C
  8
0
 10
240.5
 20
-100.3732704456429
 30
0.0
 11
254.5
 21
-100.3732704456429
 31
0.0
  0
LINE
  5
12A4D
  8
0
 10
255.5
 20
-101.3732704456429
 30
0.0
 11
254.5
 21
-100.3732704456429
 31
0.0
  0
LINE
  5
12A4E
  8
0
 10
255.5
 20
-95.373270445642959
 30
0.0
 11
254.5
 21
-96.373270445642959
 31
0.0
  0
LINE
  5
12A4F
  8
0
 10
239.5
 20
-95.373270445642959
 30
0.0
 11
240.5
 21
-96.373270445642959
 31
0.0
  0
LINE
  5
12A50
  8
0
 10
240.5
 20
-100.3732704456429
 30
0.0
 11
239.5
 21
-101.3732704456429
 31
0.0
  0
LINE
  5
12A51
  8
0
 10
235.80000000000001
 20
-97.873270445642959
 30
0.0
 11
235.80000000000001
 21
-95.873270445642945
 31
0.0
  0
LINE
  5
12A52
  8
0
 10
238.2000000000001
 20
-97.873270445642959
 30
0.0
 11
238.2000000000001
 21
-95.873270445642945
 31
0.0
  0
LINE
  5
12A53
  8
0
 10
239.19999999999999
 20
-97.873270445642916
 30
0.0
 11
239.19999999999999
 21
-100.8732704456429
 31
0.0
  0
LINE
  5
12A54
  8
0
 10
234.7999999999999
 20
-97.873270445642959
 30
0.0
 11
234.7999999999999
 21
-100.8732704456429
 31
0.0
  0
LINE
  5
12A55
  8
0
 10
235.30000000000001
 20
-95.373270445642959
 30
0.0
 11
235.80000000000001
 21
-95.873270445642945
 31
0.0
  0
LINE
  5
12A56
  8
0
 10
238.2000000000001
 20
-95.873270445642945
 30
0.0
 11
238.69999999999999
 21
-95.373270445642959
 31
0.0
  0
LINE
  5
12A57
  8
0
 10
234.7999999999999
 20
-100.8732704456429
 30
0.0
 11
234.2999999999999
 21
-101.3732704456429
 31
0.0
  0
LINE
  5
12A58
  8
0
 10
239.19999999999999
 20
-100.8732704456429
 30
0.0
 11
239.59999999999999
 21
-101.27327044564279
 31
0.0
  0
LINE
  5
12A59
  8
0
 10
170.4999999999996
 20
-95.773270497796887
 30
0.0
 11
170.4999999999996
 21
-100.3732704456428
 31
0.0
  0
LINE
  5
12A5A
  8
0
 10
184.4999999999996
 20
-95.773270497796887
 30
0.0
 11
184.4999999999996
 21
-100.3732704456428
 31
0.0
  0
LINE
  5
12A5C
  8
0
 10
154.9999999999996
 20
-95.373270445642774
 30
0.0
 11
199.9999999999996
 21
-95.373270445642774
 31
0.0
  0
LINE
  5
12A5D
  8
0
 10
165.79999999999961
 20
-95.873270445642788
 30
0.0
 11
165.9999999776478
 21
-95.873270445642788
 31
0.0
  0
LINE
  5
12A5E
  8
0
 10
168.00000030547341
 20
-95.873270445642788
 30
0.0
 11
168.1999999999997
 21
-95.873270445642788
 31
0.0
  0
LINE
  5
12A5F
  8
0
 10
164.79999999999961
 20
-97.873270445642774
 30
0.0
 11
169.1999999999997
 21
-97.873270445642731
 31
0.0
  0
LINE
  5
12A60
  8
0
 10
154.9999999999996
 20
-101.3732704456428
 30
0.0
 11
173.49999981000991
 21
-101.3732704456428
 31
0.0
  0
LINE
  5
12A61
  8
0
 10
181.50000018998929
 20
-101.3732704456428
 30
0.0
 11
199.9999999999996
 21
-101.3732704456428
 31
0.0
  0
LINE
  5
12A62
  8
0
 10
164.79999999999961
 20
-100.8732704456428
 30
0.0
 11
169.1999999999997
 21
-100.8732704456428
 31
0.0
  0
LINE
  5
12A63
  8
0
 10
170.4999999999996
 20
-100.3732704456428
 30
0.0
 11
171.09433209823061
 21
-100.3732704456428
 31
0.0
  0
LINE
  5
12A64
  8
0
 10
184.00000016787041
 20
-100.3732704456428
 30
0.0
 11
184.4999999999996
 21
-100.3732704456428
 31
0.0
  0
LINE
  5
12A65
  8
0
 10
185.4999999999996
 20
-101.3732704456428
 30
0.0
 11
184.4999999999996
 21
-100.3732704456428
 31
0.0
  0
LINE
  5
12A66
  8
0
 10
185.4999999999996
 20
-95.373270445642774
 30
0.0
 11
184.4999999999996
 21
-96.373270445642802
 31
0.0
  0
LINE
  5
12A67
  8
0
 10
169.4999999999996
 20
-95.373270445642774
 30
0.0
 11
170.4999999999996
 21
-96.373270445642802
 31
0.0
  0
LINE
  5
12A68
  8
0
 10
170.4999999999996
 20
-100.3732704456428
 30
0.0
 11
169.4999999999996
 21
-101.3732704456428
 31
0.0
  0
LINE
  5
12A69
  8
0
 10
165.79999999999961
 20
-97.873270445642774
 30
0.0
 11
165.79999999999961
 21
-95.873270445642788
 31
0.0
  0
LINE
  5
12A6A
  8
0
 10
168.1999999999997
 20
-97.873270445642774
 30
0.0
 11
168.1999999999997
 21
-95.873270445642788
 31
0.0
  0
LINE
  5
12A6B
  8
0
 10
169.1999999999997
 20
-97.873270445642774
 30
0.0
 11
169.1999999999997
 21
-100.8732704456428
 31
0.0
  0
LINE
  5
12A6C
  8
0
 10
164.79999999999961
 20
-97.873270445642774
 30
0.0
 11
164.79999999999961
 21
-100.8732704456428
 31
0.0
  0
LINE
  5
12A6D
  8
0
 10
165.29999999999961
 20
-95.373270445642774
 30
0.0
 11
165.79999999999961
 21
-95.873270445642788
 31
0.0
  0
LINE
  5
12A6E
  8
0
 10
168.1999999999997
 20
-95.873270445642788
 30
0.0
 11
168.6999999999997
 21
-95.373270445642774
 31
0.0
  0
LINE
  5
12A6F
  8
0
 10
164.79999999999961
 20
-100.8732704456428
 30
0.0
 11
164.29999999999961
 21
-101.3732704456428
 31
0.0
  0
LINE
  5
12A70
  8
0
 10
169.1999999999997
 20
-100.8732704456428
 30
0.0
 11
169.59999999999971
 21
-101.27327044564269
 31
0.0
  0
LINE
  5
12A71
  8
0
 10
165.09999964386191
 20
-97.873270389763434
 30
0.0
 11
165.09999964386191
 21
-99.873270484758336
 31
0.0
  0
LINE
  5
12A72
  8
0
 10
168.8999997079369
 20
-99.873270484758336
 30
0.0
 11
168.8999997079369
 21
-97.873270389763434
 31
0.0
  0
LINE
  5
12A73
  8
0
 10
168.00000030547341
 20
-97.873270389763434
 30
0.0
 11
168.00000030547341
 21
-95.373270445642774
 31
0.0
  0
LINE
  5
12A74
  8
0
 10
165.99999997764789
 20
-95.373270445642774
 30
0.0
 11
165.99999997764789
 21
-97.873270389763434
 31
0.0
  0
ARC
  5
12A75
  8
0
 10
183.00252115012461
 20
-69.16250223334356
 30
0.0
 40
2.4974856259058771
 50
359.87032919989292
 51
87.379702125490766
  0
ARC
  5
12A76
  8
0
 10
171.99716824592679
 20
-69.162255040787898
 30
0.0
 40
2.4971743928040659
 50
92.840799175244129
 51
180.1231358141475
  0
LINE
  5
12A77
  8
0
 10
185.50000037997921
 20
-74.137742043612377
 30
0.0
 11
185.50000037997921
 21
-69.168154494045154
 31
0.0
  0
LINE
  5
12A78
  8
0
 10
185.50000037997921
 20
-79.073271126625912
 30
0.0
 11
185.50000037997921
 21
-77.009106398699657
 31
0.0
  0
ARC
  5
12A79
  8
0
 10
184.9999999999996
 20
-79.073270497796898
 30
0.0
 40
0.5
 50
270.0
 51
0.0
  0
LINE
  5
12A7A
  8
0
 10
169.49999962001999
 20
-77.009056107280628
 30
0.0
 11
169.49999962001999
 21
-79.073271126625912
 31
0.0
  0
LINE
  5
12A7B
  8
0
 10
169.49999962001999
 20
-69.167621777532474
 30
0.0
 11
169.49999962001999
 21
-74.137434707162754
 31
0.0
  0
ARC
  5
12A7C
  8
0
 10
169.9999999999996
 20
-79.073270497796898
 30
0.0
 40
0.5
 50
180.0
 51
270.0
  0
LINE
  5
12A7D
  8
0
 10
177.4999999999996
 20
-66.373270348785297
 30
0.0
 11
171.87340581789579
 21
-66.668149427650349
 31
0.0
  0
LINE
  5
12A7E
  8
0
 10
183.1166984140869
 20
-66.667627887008564
 30
0.0
 11
177.4999999999996
 21
-66.373270348785297
 31
0.0
  0
LINE
  5
12A7F
  8
0
 10
170.00000016763769
 20
-79.573270277259724
 30
0.0
 11
170.00000016763769
 21
-80.873269931552784
 31
0.0
  0
LINE
  5
12A80
  8
0
 10
184.9999998323616
 20
-80.873269931552784
 30
0.0
 11
184.9999998323616
 21
-79.573270277259724
 31
0.0
  0
ARC
  5
12A81
  8
0
 10
165.25400477734931
 20
-100.0420701985274
 30
0.0
 40
12.74695575248812
 50
313.7529142781525
 51
318.3123486220245
  0
LINE
  5
12A82
  8
0
 10
181.50000018998941
 20
-106.2018995817283
 30
0.0
 11
181.50000018998941
 21
-100.8732704740481
 31
0.0
  0
LINE
  5
12A83
  8
0
 10
173.4999998100098
 20
-100.8732704740481
 30
0.0
 11
173.4999998100098
 21
-106.2018995817283
 31
0.0
  0
LINE
  5
12A84
  8
0
 10
190.00000018626409
 20
-94.873270363686402
 30
0.0
 11
190.00000018626409
 21
-82.679255277989284
 31
0.0
  0
LINE
  5
12A85
  8
0
 10
164.99999981373509
 20
-82.679255277989284
 30
0.0
 11
164.99999981373509
 21
-94.873270363686402
 31
0.0
  0
LINE
  5
12A86
  8
0
 10
164.99999981373509
 20
-94.873270363686402
 30
0.0
 11
165.4999998956915
 21
-95.373270445642774
 31
0.0
  0
LINE
  5
12A87
  8
0
 10
189.50000010430779
 20
-95.373270445642774
 30
0.0
 11
190.00000018626409
 21
-94.873270363686402
 31
0.0
  0
ARC
  5
12A88
  8
0
 10
165.4999999999996
 20
-82.679255203966591
 30
0.0
 40
0.5
 50
109.9999999999965
 51
180.0
  0
ARC
  5
12A89
  8
0
 10
189.4999999999996
 20
-82.679255203966591
 30
0.0
 40
0.5
 50
0.0
 51
69.999999999996476
  0
LINE
  5
12A8A
  8
0
 10
168.99999953806361
 20
-80.873269931552784
 30
0.0
 11
165.328989513218
 21
-82.209408627031209
 31
0.0
  0
ARC
  5
12A8B
  8
0
 10
184.89999999999949
 20
-95.773270497796887
 30
0.0
 40
0.4000000000000057
 50
90.0
 51
180.0
  0
ARC
  5
12A8C
  8
0
 10
170.09999999999951
 20
-95.773270497796887
 30
0.0
 40
0.4000000000000057
 50
0.0
 51
90.0
  0
LINE
  5
12A8D
  8
0
 10
183.50000005215369
 20
-100.8732704740481
 30
0.0
 11
184.5000002160665
 21
-99.873270484758336
 31
0.0
  0
LINE
  5
12A8E
  8
0
 10
165.09999964386191
 20
-99.873270484758336
 30
0.0
 11
168.8999997079369
 21
-99.873270484758336
 31
0.0
  0
ARC
  5
12A8F
  8
0
 10
204.42744677007639
 20
-75.573424221156927
 30
0.0
 40
18.981817883567381
 50
175.66231429958921
 51
184.33768570040749
  0
LINE
  5
12A90
  8
0
 10
184.9999998323616
 20
-79.573270277259724
 30
0.0
 11
170.00000016763769
 21
-79.573270277259724
 31
0.0
  0
ARC
  5
12A91
  8
0
 10
150.53248650002431
 20
-75.571189706143954
 30
0.0
 40
19.021935068355351
 50
355.66488199763029
 51
359.99373510751502
  0
POLYLINE
  5
12A92
  8
0
 66
     1
 10
0.0
 20
0.0
 30
0.0
 70
   128
  0
VERTEX
  5
13BB7
  8
0
 10
169.49999962001999
 20
-74.137434707162754
 30
0.0
  0
VERTEX
  5
13BB8
  8
0
 10
169.5079922303554
 20
-74.247181759355442
 30
0.0
  0
VERTEX
  5
13BB9
  8
0
 10
169.5272268354889
 20
-74.558627204177753
 30
0.0
  0
VERTEX
  5
13BBA
  8
0
 10
169.54645212739669
 20
-75.02412457871236
 30
0.0
  0
VERTEX
  5
13BBB
  8
0
 10
169.5523548498746
 20
-75.293656782386677
 30
0.0
  0
VERTEX
  5
13BBC
  8
0
 10
169.5544214546677
 20
-75.573269621608631
 30
0.0
  0
SEQEND
  5
13BBD
  8
0
  0
ARC
  5
12A93
  8
0
 10
181.97223720789509
 20
-126.72757025686261
 30
0.0
 40
19.018590479542521
 50
101.0419481548431
 51
115.495030815306
  0
LINE
  5
12A94
  8
0
 10
174.06915944069601
 20
-109.2495633001902
 30
0.0
 11
173.78601176664199
 21
-109.56096031623871
 31
0.0
  0
ARC
  5
12A95
  8
0
 10
187.44090924035331
 20
-108.0699159728315
 30
0.0
 40
6.22767095968684
 50
162.5451445210129
 51
179.11080688118139
  0
LINE
  5
12A96
  8
0
 10
181.2139882333573
 20
-107.97327046203399
 30
0.0
 11
181.2139882333573
 21
-109.67327036815669
 31
0.0
  0
LINE
  5
12A97
  8
0
 10
173.78601176664199
 20
-109.67327036815669
 30
0.0
 11
181.2139882333573
 21
-109.67327036815669
 31
0.0
  0
LINE
  5
12A98
  8
0
 10
178.32965171895879
 20
-108.0610667068043
 30
0.0
 11
178.74293880071451
 21
-108.0610667068043
 31
0.0
  0
POLYLINE
  5
12A99
  8
0
 66
     1
 10
0.0
 20
0.0
 30
0.0
 70
   128
  0
VERTEX
  5
13BBE
  8
0
 10
178.74293880071451
 20
-108.0610667068043
 30
0.0
  0
VERTEX
  5
13BBF
  8
0
 10
178.94002283923291
 20
-108.11720357197311
 30
0.0
  0
VERTEX
  5
13BC0
  8
0
 10
179.09247592091521
 20
-108.1616081010082
 30
0.0
  0
SEQEND
  5
13BC1
  8
0
  0
LINE
  5
12A9A
  8
0
 10
179.09247592091521
 20
-108.1616081010082
 30
0.0
 11
179.0957984142002
 21
-108.1630027565637
 31
0.0
  0
POLYLINE
  5
12A9B
  8
0
 66
     1
 10
0.0
 20
0.0
 30
0.0
 70
   128
  0
VERTEX
  5
13BC2
  8
0
 10
179.0957984142002
 20
-108.1630027565637
 30
0.0
  0
VERTEX
  5
13BC3
  8
0
 10
179.22841327730529
 20
-108.20939472797301
 30
0.0
  0
VERTEX
  5
13BC4
  8
0
 10
179.61090361699419
 20
-108.2413130152503
 30
0.0
  0
VERTEX
  5
13BC5
  8
0
 10
179.72144345752861
 20
-108.2202627967575
 30
0.0
  0
VERTEX
  5
13BC6
  8
0
 10
180.05242851562761
 20
-108.0549679409245
 30
0.0
  0
VERTEX
  5
13BC7
  8
0
 10
180.30695571564101
 20
-107.77548222723389
 30
0.0
  0
VERTEX
  5
13BC8
  8
0
 10
180.51105482503729
 20
-107.34755161139159
 30
0.0
  0
VERTEX
  5
13BC9
  8
0
 10
180.6296333763745
 20
-106.76814743238479
 30
0.0
  0
VERTEX
  5
13BCA
  8
0
 10
180.62273111194341
 20
-106.1203124645629
 30
0.0
  0
VERTEX
  5
13BCB
  8
0
 10
180.4772596899416
 20
-105.51171691077739
 30
0.0
  0
VERTEX
  5
13BCC
  8
0
 10
180.34924195148011
 20
-105.2455309491137
 30
0.0
  0
VERTEX
  5
13BCD
  8
0
 10
180.1817109901454
 20
-105.018073571054
 30
0.0
  0
VERTEX
  5
13BCE
  8
0
 10
179.87848609685861
 20
-104.7904685783663
 30
0.0
  0
SEQEND
  5
13BCF
  8
0
  0
POLYLINE
  5
12A9C
  8
0
 66
     1
 10
0.0
 20
0.0
 30
0.0
 70
   128
  0
VERTEX
  5
13BD0
  8
0
 10
179.87848609685861
 20
-104.7904685783663
 30
0.0
  0
VERTEX
  5
13BD1
  8
0
 10
179.87684417515959
 20
-104.7894909224936
 30
0.0
  0
VERTEX
  5
13BD2
  8
0
 10
179.87541063688661
 20
-104.7890098943838
 30
0.0
  0
SEQEND
  5
13BD3
  8
0
  0
POLYLINE
  5
12A9D
  8
0
 66
     1
 10
0.0
 20
0.0
 30
0.0
 70
   128
  0
VERTEX
  5
13BD4
  8
0
 10
179.87541063688661
 20
-104.7890098943838
 30
0.0
  0
VERTEX
  5
13BD5
  8
0
 10
179.87225298769741
 20
-104.78752746167569
 30
0.0
  0
VERTEX
  5
13BD6
  8
0
 10
179.66874340549069
 20
-104.7213707297572
 30
0.0
  0
SEQEND
  5
13BD7
  8
0
  0
POLYLINE
  5
12A9E
  8
0
 66
     1
 10
0.0
 20
0.0
 30
0.0
 70
   128
  0
VERTEX
  5
13BD8
  8
0
 10
179.66874340549069
 20
-104.7213707297572
 30
0.0
  0
VERTEX
  5
13BD9
  8
0
 10
179.45576553232931
 20
-104.6548975809941
 30
0.0
  0
VERTEX
  5
13BDA
  8
0
 10
179.283913467079
 20
-104.6034124392548
 30
0.0
  0
SEQEND
  5
13BDB
  8
0
  0
POLYLINE
  5
12A9F
  8
0
 66
     1
 10
0.0
 20
0.0
 30
0.0
 70
   128
  0
VERTEX
  5
13BDC
  8
0
 10
178.86808061506559
 20
-104.51832517902341
 30
0.0
  0
VERTEX
  5
13BDD
  8
0
 10
178.97734768688639
 20
-104.52389914463249
 30
0.0
  0
VERTEX
  5
13BDE
  8
0
 10
179.283913467079
 20
-104.6034124392548
 30
0.0
  0
SEQEND
  5
13BDF
  8
0
  0
LINE
  5
12AA0
  8
0
 10
178.86808061506559
 20
-104.51832517902341
 30
0.0
 11
178.194592716172
 21
-104.51832517902341
 31
0.0
  0
POLYLINE
  5
12AA1
  8
0
 66
     1
 10
0.0
 20
0.0
 30
0.0
 70
   128
  0
VERTEX
  5
13BE0
  8
0
 10
177.74517314159269
 20
-104.6034124392548
 30
0.0
  0
VERTEX
  5
13BE1
  8
0
 10
177.94862463255379
 20
-104.54362898054509
 30
0.0
  0
VERTEX
  5
13BE2
  8
0
 10
178.19459306541791
 20
-104.51833775187821
 30
0.0
  0
SEQEND
  5
13BE3
  8
0
  0
POLYLINE
  5
12AA2
  8
0
 66
     1
 10
0.0
 20
0.0
 30
0.0
 70
   128
  0
VERTEX
  5
13BE4
  8
0
 10
173.5399400442835
 20
-106.2018995817283
 30
0.0
  0
VERTEX
  5
13BE5
  8
0
 10
173.7434517219659
 20
-105.97631881865649
 30
0.0
  0
VERTEX
  5
13BE6
  8
0
 10
174.10842749290131
 20
-105.7544186423996
 30
0.0
  0
VERTEX
  5
13BE7
  8
0
 10
174.62242837995251
 20
-105.5294283378401
 30
0.0
  0
VERTEX
  5
13BE8
  8
0
 10
175.2594658266749
 20
-105.3066587719598
 30
0.0
  0
VERTEX
  5
13BE9
  8
0
 10
176.03198695927821
 20
-105.07180785681101
 30
0.0
  0
VERTEX
  5
13BEA
  8
0
 10
176.87339889584069
 20
-104.8378396026322
 30
0.0
  0
VERTEX
  5
13BEB
  8
0
 10
177.74517314159269
 20
-104.6034124392548
 30
0.0
  0
SEQEND
  5
13BEC
  8
0
  0
LINE
  5
12AA3
  8
0
 10
173.5399400442835
 20
-106.2018995817283
 30
0.0
 11
173.4999998100098
 21
-106.2018995817283
 31
0.0
  0
ARC
  5
12AA4
  8
0
 10
167.58781520024581
 20
-108.0652780206384
 30
0.0
 40
6.1988794202278781
 50
0.8504502206130005
 51
17.493598377195362
  0
LINE
  5
12AA5
  8
0
 10
173.78601176664199
 20
-107.97327046203399
 30
0.0
 11
173.78601176664191
 21
-109.67327036815669
 31
0.0
  0
POLYLINE
  5
12AA6
  8
0
 66
     1
 10
0.0
 20
0.0
 30
0.0
 70
   128
  0
VERTEX
  5
13BED
  8
0
 10
173.5399400442835
 20
-106.2018995817283
 30
0.0
  0
VERTEX
  5
13BEE
  8
0
 10
174.13155898451771
 20
-106.8020610782781
 30
0.0
  0
VERTEX
  5
13BEF
  8
0
 10
174.73083828575869
 20
-107.40375227215679
 30
0.0
  0
SEQEND
  5
13BF0
  8
0
  0
LINE
  5
12AA7
  8
0
 10
174.04773971997159
 20
-110.932089732168
 30
0.0
 11
173.78601176664199
 21
-109.67327036815669
 31
0.0
  0
LINE
  5
12AA8
  8
0
 10
181.2139882333573
 20
-109.67327036815669
 30
0.0
 11
180.95226028002759
 21
-110.932089732168
 31
0.0
  0
LINE
  5
12AA9
  8
0
 10
180.16699306666811
 20
-111.6732706959823
 30
0.0
 11
174.83300693333109
 21
-111.6732706959823
 31
0.0
  0
POLYLINE
  5
12AAA
  8
0
 66
     1
 10
0.0
 20
0.0
 30
0.0
 70
   128
  0
VERTEX
  5
13BF1
  8
0
 10
174.83300693333109
 20
-111.6732706959823
 30
0.0
  0
VERTEX
  5
13BF2
  8
0
 10
174.83247840777
 20
-111.6732706959823
 30
0.0
  0
VERTEX
  5
13BF3
  8
0
 10
174.70568535849421
 20
-111.6613059948662
 30
0.0
  0
SEQEND
  5
13BF4
  8
0
  0
ARC
  5
12AAB
  8
0
 10
174.9417748537094
 20
-110.7868624356462
 30
0.0
 40
0.9057537126683503
 50
189.22655123110019
 51
254.89105181565921
  0
ARC
  5
12AAC
  8
0
 10
180.08890536576871
 20
-110.8145440955701
 30
0.0
 40
0.8713200816336721
 50
283.63553682816979
 51
352.24686012507283
  0
LINE
  5
12AAD
  8
0
 10
180.29431464150511
 20
-111.6613059948662
 30
0.0
 11
180.16699306666811
 21
-111.6732706959823
 31
0.0
  0
ARC
  5
12AAE
  8
0
 10
174.15094253667149
 20
-107.99513967930871
 30
0.0
 40
0.8282383319073717
 50
1.5130421379929311
 51
45.186342064513333
  0
LINE
  5
12AAF
  8
0
 10
174.73083828575869
 20
-107.40375227215679
 30
0.0
 11
174.73468767479031
 21
-107.4075851302126
 31
0.0
  0
ARC
  5
12AB0
  8
0
 10
174.24586762867651
 20
-108.00924569104779
 30
0.0
 40
0.7339067283369956
 50
315.93261558500791
 51
2.8096964803821169
  0
LINE
  5
12AB1
  8
0
 10
186.0000004619356
 20
-80.873269931552784
 30
0.0
 11
168.99999953806369
 21
-80.873269931552784
 31
0.0
  0
LINE
  5
12AB2
  8
0
 10
183.50000005215369
 20
-100.8732704740481
 30
0.0
 11
171.60169525071939
 21
-100.8732704740481
 31
0.0
  0
LINE
  5
12AB3
  8
0
 10
171.60169525071939
 20
-100.8732704740481
 30
0.0
 11
170.58696901425679
 21
-99.873270484758336
 31
0.0
  0
LINE
  5
12AB4
  8
0
 10
170.58696901425679
 20
-99.873270484758336
 30
0.0
 11
184.5000002160665
 21
-99.873270484758336
 31
0.0
  0
LINE
  5
12AB5
  8
0
 10
170.58696901425679
 20
-97.073270351765473
 30
0.0
 11
170.49999978393279
 21
-97.073270351765473
 31
0.0
  0
LINE
  5
12AB6
  8
0
 10
170.58696901425679
 20
-97.073270351765473
 30
0.0
 11
170.58696901425679
 21
-99.873270484758336
 31
0.0
  0
LINE
  5
12AB7
  8
0
 10
165.328989513218
 20
-82.209408627031209
 30
0.0
 11
189.6710104867812
 21
-82.209408627031209
 31
0.0
  0
LINE
  5
12AB8
  8
0
 10
186.0000004619356
 20
-80.873269931552784
 30
0.0
 11
189.6710104867812
 21
-82.209408627031209
 31
0.0
  0
LINE
  5
12AB9
  8
3
 10
167.79999967589919
 20
-96.873270389763434
 30
0.0
 11
167.79999967589919
 21
-95.373270445642774
 31
0.0
  0
LINE
  5
12ABA
  8
3
 10
168.00000030547341
 20
-97.219681641731654
 30
0.0
 11
167.79999967589919
 21
-96.873270389763434
 31
0.0
  0
LINE
  5
12ABB
  8
0
 10
165.99999997764789
 20
-96.873270389763434
 30
0.0
 11
168.00000030547341
 21
-96.873270389763434
 31
0.0
  0
LINE
  5
12ABC
  8
3
 10
166.19999967589931
 20
-96.873270389763434
 30
0.0
 11
166.19999967589931
 21
-95.373270445642774
 31
0.0
  0
LINE
  5
12ABD
  8
3
 10
165.99999904632531
 20
-97.219681641731654
 30
0.0
 11
166.19999967589939
 21
-96.873270389763434
 31
0.0
  0
LINE
  5
12ABE
  8
1
 10
177.4999999999996
 20
-116.6732706959823
 30
0.0
 11
177.4999999999996
 21
-61.373270348785297
 31
0.0
  0
LINE
  5
12ABF
  8
1
 10
166.9999996758994
 20
-101.87327048475829
 30
0.0
 11
166.9999996758994
 21
-93.373270445642788
 31
0.0
  0
CIRCLE
  5
12AC0
  8
0
 10
402.5
 20
-52.094764855300532
 30
0.0
 40
13.0
  0
LINE
  5
12AC9
  8
0
 10
380.0
 20
-95.373270445643016
 30
0.0
 11
425.0
 21
-95.373270445643016
 31
0.0
  0
LINE
  5
12ACA
  8
0
 10
389.5
 20
-109.373270445643
 30
0.0
 11
389.5
 21
-95.873270445643016
 31
0.0
  0
LINE
  5
12ACB
  8
0
 10
415.5
 20
-109.373270445643
 30
0.0
 11
415.5
 21
-95.873270445643016
 31
0.0
  0
LINE
  5
12AD0
  8
0
 10
415.5
 20
-95.873270445643016
 30
0.0
 11
416.0
 21
-95.373270445643016
 31
0.0
  0
LINE
  5
12AD2
  8
0
 10
389.5
 20
-95.873270445643016
 30
0.0
 11
389.0
 21
-95.373270445643016
 31
0.0
  0
LINE
  5
12AD4
  8
0
 10
389.5
 20
-95.873270445643016
 30
0.0
 11
415.5
 21
-95.873270445643016
 31
0.0
  0
LINE
  5
12ADD
  8
0
 10
325.49999999999972
 20
-109.7732704977969
 30
0.0
 11
325.49999999999972
 21
-114.3732704456428
 31
0.0
  0
LINE
  5
12AE0
  8
0
 10
319.49999999999972
 20
-109.3732704456428
 30
0.0
 11
345.4999999999996
 21
-109.3732704456428
 31
0.0
  0
LINE
  5
12AE1
  8
0
 10
320.79999999999961
 20
-109.8732704456428
 30
0.0
 11
320.9999999776478
 21
-109.8732704456428
 31
0.0
  0
LINE
  5
12AE2
  8
0
 10
319.79999999999961
 20
-111.8732704456428
 30
0.0
 11
324.1999999999997
 21
-111.8732704456428
 31
0.0
  0
LINE
  5
12AE4
  8
0
 10
309.9999999999996
 20
-115.3732704456428
 30
0.0
 11
328.49999981001002
 21
-115.3732704456428
 31
0.0
  0
LINE
  5
12AE5
  8
0
 10
309.9999999999996
 20
-95.373270445642845
 30
0.0
 11
322.62625974154111
 21
-95.373270445642845
 31
0.0
  0
LINE
  5
12AE6
  8
0
 10
319.49999999999972
 20
-95.873270445642845
 30
0.0
 11
318.99999999999972
 21
-95.373270445642845
 31
0.0
  0
LINE
  5
12AE7
  8
0
 10
345.4999999999996
 20
-95.873270445642845
 30
0.0
 11
345.99999999999972
 21
-95.373270445642845
 31
0.0
  0
LINE
  5
12AE8
  8
0
 10
319.79999999999961
 20
-114.8732704456428
 30
0.0
 11
324.1999999999997
 21
-114.8732704456428
 31
0.0
  0
LINE
  5
12AE9
  8
0
 10
325.49999999999972
 20
-114.3732704456428
 30
0.0
 11
326.09433209823072
 21
-114.3732704456429
 31
0.0
  0
LINE
  5
12AEA
  8
0
 10
340.49999999999972
 20
-115.3732704456428
 30
0.0
 11
339.4999999999996
 21
-114.3732704456428
 31
0.0
  0
LINE
  5
12AEB
  8
0
 10
340.49999999999972
 20
-109.3732704456428
 30
0.0
 11
339.4999999999996
 21
-110.3732704456428
 31
0.0
  0
LINE
  5
12AEC
  8
0
 10
324.4999999999996
 20
-109.3732704456428
 30
0.0
 11
325.49999999999972
 21
-110.3732704456428
 31
0.0
  0
LINE
  5
12AED
  8
0
 10
325.49999999999972
 20
-114.3732704456428
 30
0.0
 11
324.4999999999996
 21
-115.3732704456428
 31
0.0
  0
LINE
  5
12AEE
  8
0
 10
320.79999999999961
 20
-111.8732704456428
 30
0.0
 11
320.79999999999961
 21
-109.8732704456428
 31
0.0
  0
LINE
  5
12AEF
  8
0
 10
323.1999999999997
 20
-111.8732704456428
 30
0.0
 11
323.1999999999997
 21
-109.8732704456428
 31
0.0
  0
LINE
  5
12AF0
  8
0
 10
324.1999999999997
 20
-111.8732704456428
 30
0.0
 11
324.1999999999997
 21
-114.8732704456428
 31
0.0
  0
LINE
  5
12AF1
  8
0
 10
319.79999999999961
 20
-111.8732704456428
 30
0.0
 11
319.79999999999961
 21
-114.8732704456428
 31
0.0
  0
LINE
  5
12AF2
  8
0
 10
320.29999999999961
 20
-109.3732704456428
 30
0.0
 11
320.79999999999961
 21
-109.8732704456428
 31
0.0
  0
LINE
  5
12AF3
  8
0
 10
323.1999999999997
 20
-109.8732704456428
 30
0.0
 11
323.6999999999997
 21
-109.3732704456428
 31
0.0
  0
LINE
  5
12AF4
  8
0
 10
319.79999999999961
 20
-114.8732704456428
 30
0.0
 11
319.29999999999961
 21
-115.3732704456428
 31
0.0
  0
LINE
  5
12AF5
  8
0
 10
324.1999999999997
 20
-114.8732704456428
 30
0.0
 11
324.59999999999968
 21
-115.27327044564269
 31
0.0
  0
LINE
  5
12AF6
  8
0
 10
319.49999999999972
 20
-109.3732704456428
 30
0.0
 11
319.49999999999972
 21
-95.873270445642845
 31
0.0
  0
LINE
  5
12AF7
  8
0
 10
345.4999999999996
 20
-109.3732704456428
 30
0.0
 11
345.4999999999996
 21
-95.873270445642845
 31
0.0
  0
LINE
  5
12AF8
  8
0
 10
319.49999999999972
 20
-95.873270445642845
 30
0.0
 11
321.25252135746888
 21
-95.873270445642845
 31
0.0
  0
LINE
  5
12AF9
  8
0
 10
320.09999964386191
 20
-111.8732703897635
 30
0.0
 11
320.09999964386191
 21
-113.87327048475839
 31
0.0
  0
LINE
  5
12AFA
  8
0
 10
323.8999997079369
 20
-113.87327048475839
 30
0.0
 11
323.8999997079369
 21
-111.8732703897635
 31
0.0
  0
LINE
  5
12AFB
  8
0
 10
323.00000030547352
 20
-111.8732703897635
 30
0.0
 11
323.00000030547352
 21
-109.3732704456428
 31
0.0
  0
LINE
  5
12AFC
  8
0
 10
320.99999997764792
 20
-109.3732704456428
 30
0.0
 11
320.99999997764792
 21
-111.8732703897635
 31
0.0
  0
ARC
  5
12B01
  8
0
 10
338.00252115012461
 20
-83.162502233343588
 30
0.0
 40
2.4974856259058771
 50
359.87032919989292
 51
87.379702125490766
  0
ARC
  5
12B02
  8
0
 10
326.99716824592679
 20
-83.162255040787926
 30
0.0
 40
2.4971743928040659
 50
92.840799175244129
 51
180.1231358141475
  0
LINE
  5
12B03
  8
0
 10
340.50000037997933
 20
-88.137742043612434
 30
0.0
 11
340.50000037997933
 21
-83.168154494045183
 31
0.0
  0
LINE
  5
12B04
  8
0
 10
340.50000037997933
 20
-93.073271126625954
 30
0.0
 11
340.50000037997933
 21
-91.009106398699714
 31
0.0
  0
ARC
  5
12B05
  8
0
 10
339.99999999999972
 20
-93.073270497796898
 30
0.0
 40
0.5
 50
270.0
 51
0.0
  0
LINE
  5
12B06
  8
0
 10
324.49999962001999
 20
-91.009056107280685
 30
0.0
 11
324.49999962001999
 21
-93.073271126625954
 31
0.0
  0
LINE
  5
12B07
  8
0
 10
324.49999962001999
 20
-83.167621777532503
 30
0.0
 11
324.49999962001999
 21
-88.137434707162797
 31
0.0
  0
ARC
  5
12B08
  8
0
 10
324.9999999999996
 20
-93.073270497796898
 30
0.0
 40
0.5
 50
180.0
 51
270.0
  0
LINE
  5
12B09
  8
0
 10
332.49999999999972
 20
-80.373270348785326
 30
0.0
 11
326.87340581789579
 21
-80.668149427650377
 31
0.0
  0
LINE
  5
12B0A
  8
0
 10
338.11669841408701
 20
-80.667627887008592
 30
0.0
 11
332.49999999999972
 21
-80.373270348785326
 31
0.0
  0
LINE
  5
12B0B
  8
0
 10
325.00000016763772
 20
-93.573270277259766
 30
0.0
 11
325.00000016763772
 21
-94.873269931552827
 31
0.0
  0
LINE
  5
12B0C
  8
0
 10
339.9999998323616
 20
-94.873269931552827
 30
0.0
 11
339.9999998323616
 21
-93.573270277259766
 31
0.0
  0
ARC
  5
12B0D
  8
0
 10
320.25400477734928
 20
-114.0420701985275
 30
0.0
 40
12.74695575248812
 50
313.7529142781525
 51
318.3123486220245
  0
LINE
  5
12B0E
  8
0
 10
336.50000018998952
 20
-120.2018995817283
 30
0.0
 11
336.50000018998952
 21
-114.8732704740482
 31
0.0
  0
LINE
  5
12B0F
  8
0
 10
328.49999981000991
 20
-114.8732704740482
 30
0.0
 11
328.49999981000991
 21
-120.2018995817283
 31
0.0
  0
LINE
  5
12B10
  8
0
 10
345.00000018626417
 20
-108.8732703636864
 30
0.0
 11
345.00000018626417
 21
-96.679255277989355
 31
0.0
  0
LINE
  5
12B11
  8
0
 10
319.99999981373509
 20
-96.679255277989355
 30
0.0
 11
319.99999981373509
 21
-108.8732703636864
 31
0.0
  0
LINE
  5
12B12
  8
0
 10
319.99999981373509
 20
-108.8732703636864
 30
0.0
 11
320.49999989569147
 21
-109.3732704456428
 31
0.0
  0
LINE
  5
12B13
  8
0
 10
344.50000010430779
 20
-109.3732704456428
 30
0.0
 11
345.00000018626417
 21
-108.8732703636864
 31
0.0
  0
ARC
  5
12B14
  8
0
 10
320.4999999999996
 20
-96.679255203966591
 30
0.0
 40
0.5
 50
109.9999999999965
 51
180.0
  0
ARC
  5
12B15
  8
0
 10
344.49999999999972
 20
-96.679255203966591
 30
0.0
 40
0.5
 50
0.0
 51
69.999999999996476
  0
LINE
  5
12B16
  8
0
 10
323.99999953806372
 20
-94.873269931552827
 30
0.0
 11
320.32898951321812
 21
-96.209408627031294
 31
0.0
  0
ARC
  5
12B17
  8
0
 10
339.89999999999952
 20
-109.7732704977969
 30
0.0
 40
0.4000000000000057
 50
90.0
 51
180.0
  0
ARC
  5
12B18
  8
0
 10
325.09999999999962
 20
-109.7732704977969
 30
0.0
 40
0.4000000000000057
 50
0.0
 51
90.0
  0
LINE
  5
12B19
  8
0
 10
338.50000005215372
 20
-114.8732704740482
 30
0.0
 11
339.5000002160665
 21
-113.87327048475839
 31
0.0
  0
LINE
  5
12B1A
  8
0
 10
339.5000002160665
 20
-114.3732706617097
 30
0.0
 11
339.5000002160665
 21
-109.7732706974724
 31
0.0
  0
LINE
  5
12B1D
  8
0
 10
320.09999964386191
 20
-113.87327048475839
 30
0.0
 11
323.8999997079369
 21
-113.87327048475839
 31
0.0
  0
ARC
  5
12B1F
  8
0
 10
359.42744677007641
 20
-89.573424221156984
 30
0.0
 40
18.981817883567381
 50
175.66231429958921
 51
184.33768570040749
  0
LINE
  5
12B20
  8
0
 10
339.9999998323616
 20
-93.573270277259766
 30
0.0
 11
325.00000016763772
 21
-93.573270277259766
 31
0.0
  0
ARC
  5
12B21
  8
0
 10
305.53248650002439
 20
-89.571189706143969
 30
0.0
 40
19.021935068355351
 50
355.66488199763029
 51
359.99373510751502
  0
POLYLINE
  5
12B22
  8
0
 66
     1
 10
0.0
 20
0.0
 30
0.0
 70
   128
  0
VERTEX
  5
13BF5
  8
0
 10
324.49999962001999
 20
-88.137434707162797
 30
0.0
  0
VERTEX
  5
13BF6
  8
0
 10
324.5079922303554
 20
-88.247181759355485
 30
0.0
  0
VERTEX
  5
13BF7
  8
0
 10
324.52722683548888
 20
-88.558627204177796
 30
0.0
  0
VERTEX
  5
13BF8
  8
0
 10
324.54645212739672
 20
-89.024124578712403
 30
0.0
  0
VERTEX
  5
13BF9
  8
0
 10
324.55235484987458
 20
-89.293656782386719
 30
0.0
  0
VERTEX
  5
13BFA
  8
0
 10
324.5544214546677
 20
-89.573269621608674
 30
0.0
  0
SEQEND
  5
13BFB
  8
0
  0
ARC
  5
12B23
  8
0
 10
336.97223720789509
 20
-140.72757025686269
 30
0.0
 40
19.018590479542521
 50
101.0419481548431
 51
115.495030815306
  0
LINE
  5
12B24
  8
0
 10
329.06915944069601
 20
-123.2495633001902
 30
0.0
 11
328.78601176664199
 21
-123.56096031623871
 31
0.0
  0
ARC
  5
12B25
  8
0
 10
342.44090924035328
 20
-122.0699159728315
 30
0.0
 40
6.22767095968684
 50
162.5451445210129
 51
179.11080688118139
  0
LINE
  5
12B26
  8
0
 10
336.21398823335733
 20
-121.97327046203409
 30
0.0
 11
336.21398823335733
 21
-123.67327036815681
 31
0.0
  0
LINE
  5
12B27
  8
0
 10
328.78601176664199
 20
-123.67327036815681
 30
0.0
 11
336.21398823335733
 21
-123.67327036815681
 31
0.0
  0
LINE
  5
12B28
  8
0
 10
333.32965171895893
 20
-122.0610667068044
 30
0.0
 11
333.74293880071463
 21
-122.0610667068044
 31
0.0
  0
POLYLINE
  5
12B29
  8
0
 66
     1
 10
0.0
 20
0.0
 30
0.0
 70
   128
  0
VERTEX
  5
13BFC
  8
0
 10
333.74293880071463
 20
-122.0610667068044
 30
0.0
  0
VERTEX
  5
13BFD
  8
0
 10
333.94002283923288
 20
-122.11720357197321
 30
0.0
  0
VERTEX
  5
13BFE
  8
0
 10
334.09247592091532
 20
-122.1616081010083
 30
0.0
  0
SEQEND
  5
13BFF
  8
0
  0
LINE
  5
12B2A
  8
0
 10
334.09247592091532
 20
-122.1616081010083
 30
0.0
 11
334.0957984142002
 21
-122.1630027565638
 31
0.0
  0
POLYLINE
  5
12B2B
  8
0
 66
     1
 10
0.0
 20
0.0
 30
0.0
 70
   128
  0
VERTEX
  5
13C00
  8
0
 10
334.0957984142002
 20
-122.1630027565638
 30
0.0
  0
VERTEX
  5
13C01
  8
0
 10
334.22841327730532
 20
-122.20939472797311
 30
0.0
  0
VERTEX
  5
13C02
  8
0
 10
334.61090361699428
 20
-122.2413130152503
 30
0.0
  0
VERTEX
  5
13C03
  8
0
 10
334.72144345752861
 20
-122.22026279675759
 30
0.0
  0
VERTEX
  5
13C04
  8
0
 10
335.05242851562758
 20
-122.0549679409245
 30
0.0
  0
VERTEX
  5
13C05
  8
0
 10
335.30695571564098
 20
-121.77548222723399
 30
0.0
  0
VERTEX
  5
13C06
  8
0
 10
335.51105482503738
 20
-121.34755161139169
 30
0.0
  0
VERTEX
  5
13C07
  8
0
 10
335.6296333763745
 20
-120.76814743238479
 30
0.0
  0
VERTEX
  5
13C08
  8
0
 10
335.62273111194338
 20
-120.120312464563
 30
0.0
  0
VERTEX
  5
13C09
  8
0
 10
335.47725968994172
 20
-119.51171691077739
 30
0.0
  0
VERTEX
  5
13C0A
  8
0
 10
335.34924195148022
 20
-119.2455309491137
 30
0.0
  0
VERTEX
  5
13C0B
  8
0
 10
335.18171099014552
 20
-119.0180735710541
 30
0.0
  0
VERTEX
  5
13C0C
  8
0
 10
334.87848609685858
 20
-118.7904685783664
 30
0.0
  0
SEQEND
  5
13C0D
  8
0
  0
POLYLINE
  5
12B2C
  8
0
 66
     1
 10
0.0
 20
0.0
 30
0.0
 70
   128
  0
VERTEX
  5
13C0E
  8
0
 10
334.87848609685858
 20
-118.7904685783664
 30
0.0
  0
VERTEX
  5
13C0F
  8
0
 10
334.87684417515959
 20
-118.7894909224937
 30
0.0
  0
VERTEX
  5
13C10
  8
0
 10
334.87541063688661
 20
-118.7890098943839
 30
0.0
  0
SEQEND
  5
13C11
  8
0
  0
POLYLINE
  5
12B2D
  8
0
 66
     1
 10
0.0
 20
0.0
 30
0.0
 70
   128
  0
VERTEX
  5
13C12
  8
0
 10
334.87541063688661
 20
-118.7890098943839
 30
0.0
  0
VERTEX
  5
13C13
  8
0
 10
334.87225298769738
 20
-118.78752746167579
 30
0.0
  0
VERTEX
  5
13C14
  8
0
 10
334.66874340549077
 20
-118.7213707297573
 30
0.0
  0
SEQEND
  5
13C15
  8
0
  0
POLYLINE
  5
12B2E
  8
0
 66
     1
 10
0.0
 20
0.0
 30
0.0
 70
   128
  0
VERTEX
  5
13C16
  8
0
 10
334.66874340549077
 20
-118.7213707297573
 30
0.0
  0
VERTEX
  5
13C17
  8
0
 10
334.45576553232928
 20
-118.6548975809941
 30
0.0
  0
VERTEX
  5
13C18
  8
0
 10
334.28391346707912
 20
-118.6034124392549
 30
0.0
  0
SEQEND
  5
13C19
  8
0
  0
POLYLINE
  5
12B2F
  8
0
 66
     1
 10
0.0
 20
0.0
 30
0.0
 70
   128
  0
VERTEX
  5
13C1A
  8
0
 10
333.86808061506559
 20
-118.51832517902351
 30
0.0
  0
VERTEX
  5
13C1B
  8
0
 10
333.97734768688639
 20
-118.52389914463259
 30
0.0
  0
VERTEX
  5
13C1C
  8
0
 10
334.28391346707912
 20
-118.6034124392549
 30
0.0
  0
SEQEND
  5
13C1D
  8
0
  0
LINE
  5
12B30
  8
0
 10
333.86808061506559
 20
-118.51832517902351
 30
0.0
 11
333.194592716172
 21
-118.51832517902351
 31
0.0
  0
POLYLINE
  5
12B31
  8
0
 66
     1
 10
0.0
 20
0.0
 30
0.0
 70
   128
  0
VERTEX
  5
13C1E
  8
0
 10
332.74517314159277
 20
-118.6034124392549
 30
0.0
  0
VERTEX
  5
13C1F
  8
0
 10
332.94862463255379
 20
-118.54362898054519
 30
0.0
  0
VERTEX
  5
13C20
  8
0
 10
333.19459306541802
 20
-118.51833775187821
 30
0.0
  0
SEQEND
  5
13C21
  8
0
  0
POLYLINE
  5
12B32
  8
0
 66
     1
 10
0.0
 20
0.0
 30
0.0
 70
   128
  0
VERTEX
  5
13C22
  8
0
 10
328.53994004428353
 20
-120.2018995817283
 30
0.0
  0
VERTEX
  5
13C23
  8
0
 10
328.74345172196593
 20
-119.97631881865659
 30
0.0
  0
VERTEX
  5
13C24
  8
0
 10
329.10842749290128
 20
-119.7544186423997
 30
0.0
  0
VERTEX
  5
13C25
  8
0
 10
329.62242837995262
 20
-119.5294283378402
 30
0.0
  0
VERTEX
  5
13C26
  8
0
 10
330.25946582667501
 20
-119.3066587719599
 30
0.0
  0
VERTEX
  5
13C27
  8
0
 10
331.03198695927819
 20
-119.07180785681101
 30
0.0
  0
VERTEX
  5
13C28
  8
0
 10
331.87339889584069
 20
-118.8378396026323
 30
0.0
  0
VERTEX
  5
13C29
  8
0
 10
332.74517314159277
 20
-118.6034124392549
 30
0.0
  0
SEQEND
  5
13C2A
  8
0
  0
LINE
  5
12B33
  8
0
 10
328.53994004428353
 20
-120.2018995817283
 30
0.0
 11
328.49999981000991
 21
-120.2018995817283
 31
0.0
  0
ARC
  5
12B34
  8
0
 10
322.58781520024581
 20
-122.0652780206384
 30
0.0
 40
6.1988794202278781
 50
0.8504502206130005
 51
17.493598377195362
  0
LINE
  5
12B35
  8
0
 10
328.78601176664199
 20
-121.97327046203409
 30
0.0
 11
328.78601176664188
 21
-123.67327036815681
 31
0.0
  0
POLYLINE
  5
12B36
  8
0
 66
     1
 10
0.0
 20
0.0
 30
0.0
 70
   128
  0
VERTEX
  5
13C2B
  8
0
 10
328.53994004428353
 20
-120.2018995817283
 30
0.0
  0
VERTEX
  5
13C2C
  8
0
 10
329.13155898451771
 20
-120.8020610782782
 30
0.0
  0
VERTEX
  5
13C2D
  8
0
 10
329.73083828575869
 20
-121.40375227215679
 30
0.0
  0
SEQEND
  5
13C2E
  8
0
  0
LINE
  5
12B37
  8
0
 10
329.04773971997167
 20
-124.93208973216809
 30
0.0
 11
328.78601176664199
 21
-123.67327036815681
 31
0.0
  0
LINE
  5
12B38
  8
0
 10
336.21398823335733
 20
-123.67327036815681
 30
0.0
 11
335.95226028002759
 21
-124.93208973216809
 31
0.0
  0
LINE
  5
12B39
  8
0
 10
335.16699306666823
 20
-125.6732706959823
 30
0.0
 11
329.83300693333109
 21
-125.6732706959823
 31
0.0
  0
POLYLINE
  5
12B3A
  8
0
 66
     1
 10
0.0
 20
0.0
 30
0.0
 70
   128
  0
VERTEX
  5
13C2F
  8
0
 10
329.83300693333109
 20
-125.6732706959823
 30
0.0
  0
VERTEX
  5
13C30
  8
0
 10
329.83247840777011
 20
-125.6732706959823
 30
0.0
  0
VERTEX
  5
13C31
  8
0
 10
329.70568535849418
 20
-125.6613059948662
 30
0.0
  0
SEQEND
  5
13C32
  8
0
  0
ARC
  5
12B3B
  8
0
 10
329.94177485370938
 20
-124.7868624356462
 30
0.0
 40
0.9057537126683503
 50
189.22655123110019
 51
254.89105181565921
  0
ARC
  5
12B3C
  8
0
 10
335.08890536576871
 20
-124.8145440955702
 30
0.0
 40
0.8713200816336721
 50
283.63553682816979
 51
352.24686012507283
  0
LINE
  5
12B3D
  8
0
 10
335.29431464150508
 20
-125.6613059948662
 30
0.0
 11
335.16699306666823
 21
-125.6732706959823
 31
0.0
  0
ARC
  5
12B3E
  8
0
 10
329.15094253667161
 20
-121.99513967930871
 30
0.0
 40
0.8282383319073717
 50
1.5130421379929311
 51
45.186342064513333
  0
LINE
  5
12B3F
  8
0
 10
329.73083828575869
 20
-121.40375227215679
 30
0.0
 11
329.73468767479028
 21
-121.40758513021269
 31
0.0
  0
ARC
  5
12B40
  8
0
 10
329.24586762867648
 20
-122.00924569104779
 30
0.0
 40
0.7339067283369956
 50
315.93261558500791
 51
2.8096964803821169
  0
LINE
  5
12B4A
  8
0
 10
341.00000046193571
 20
-94.873269931552827
 30
0.0
 11
323.99999953806378
 21
-94.873269931552827
 31
0.0
  0
LINE
  5
12B55
  8
0
 10
338.50000005215372
 20
-114.8732704740482
 30
0.0
 11
326.60169525071939
 21
-114.8732704740482
 31
0.0
  0
LINE
  5
12B56
  8
0
 10
326.60169525071939
 20
-114.8732704740482
 30
0.0
 11
325.58696901425679
 21
-113.87327048475839
 31
0.0
  0
LINE
  5
12B57
  8
0
 10
325.58696901425679
 20
-113.87327048475839
 30
0.0
 11
339.5000002160665
 21
-113.87327048475839
 31
0.0
  0
LINE
  5
12B58
  8
0
 10
325.58696901425679
 20
-111.0732703517655
 30
0.0
 11
325.49999978393282
 21
-111.0732703517655
 31
0.0
  0
LINE
  5
12B59
  8
0
 10
325.58696901425679
 20
-111.0732703517655
 30
0.0
 11
325.58696901425679
 21
-113.87327048475839
 31
0.0
  0
LINE
  5
12B62
  8
0
 10
320.32898951321812
 20
-96.209408627031294
 30
0.0
 11
344.67101048678131
 21
-96.209408627031294
 31
0.0
  0
LINE
  5
12B63
  8
0
 10
341.00000046193571
 20
-94.873269931552827
 30
0.0
 11
344.67101048678131
 21
-96.209408627031294
 31
0.0
  0
LINE
  5
12B64
  8
3
 10
322.79999967589919
 20
-110.8732703897635
 30
0.0
 11
322.79999967589919
 21
-109.3732704456428
 31
0.0
  0
LINE
  5
12B65
  8
3
 10
323.00000030547352
 20
-111.2196816417316
 30
0.0
 11
322.79999967589919
 21
-110.8732703897635
 31
0.0
  0
LINE
  5
12B66
  8
0
 10
320.99999997764792
 20
-110.8732703897635
 30
0.0
 11
323.00000030547352
 21
-110.8732703897635
 31
0.0
  0
LINE
  5
12B67
  8
3
 10
321.19999967589939
 20
-110.8732703897635
 30
0.0
 11
321.19999967589939
 21
-109.3732704456428
 31
0.0
  0
LINE
  5
12B68
  8
3
 10
320.99999904632529
 20
-111.2196816417316
 30
0.0
 11
321.19999967589939
 21
-110.8732703897635
 31
0.0
  0
LINE
  5
12B6E
  8
1
 10
332.49999999999972
 20
-130.6732706959823
 30
0.0
 11
332.49999999999972
 21
-75.373270348785326
 31
0.0
  0
LINE
  5
12B6F
  8
1
 10
321.9999996758994
 20
-115.87327048475839
 30
0.0
 11
321.9999996758994
 21
-107.3732704456428
 31
0.0
  0
LINE
  5
12B71
  8
0
 10
343.74747864253038
 20
-95.873270445642845
 30
0.0
 11
345.4999999999996
 21
-95.873270445642845
 31
0.0
  0
LINE
  5
12B72
  8
0
 10
342.37374025845833
 20
-95.373270445642845
 30
0.0
 11
354.99999999999972
 21
-95.373270445642845
 31
0.0
  0
LINE
  5
12B73
  8
0
 10
339.00000016787038
 20
-114.3732704456429
 30
0.0
 11
339.4999999999996
 21
-114.3732704456428
 31
0.0
  0
LINE
  5
12B74
  8
0
 10
336.50000018998941
 20
-115.3732704456428
 30
0.0
 11
354.99999999999972
 21
-115.3732704456428
 31
0.0
  0
LINE
  5
12B75
  8
0
 10
323.00000030547352
 20
-109.8732704456428
 30
0.0
 11
323.1999999999997
 21
-109.8732704456428
 31
0.0
  0
TEXT
  5
12BED
  8
0
 62
     3
 10
141.00146734992691
 20
-170.1413686342768
 30
0.0
 40
3.2000000000000002
  1
スペーサー(QCASP)を使用する場合
 72
     1
 11
173.85480068326021
 21
-170.1413686342768
 31
0.0
  0
TEXT
  5
12BEE
  8
0
 62
     3
 10
141.57746734992691
 20
-177.1413686342768
 30
0.0
 40
3.2000000000000002
  1
To use with a spacer(QCASP)
 41
0.85
 72
     1
 11
173.85480068326021
 21
-177.1413686342768
 31
0.0
  0
LINE
  5
12BF1
  8
1
 10
247.5
 20
-206.76660086569501
 30
0.0
 11
247.5
 21
-237.76660086569501
 31
0.0
  0
LINE
  5
12BF2
  8
1
 10
263.0
 20
-222.26660086569501
 30
0.0
 11
232.0
 21
-222.26660086569501
 31
0.0
  0
CIRCLE
  5
12BF3
  8
0
 10
247.5
 20
-222.26660086569501
 30
0.0
 40
7.0
  0
CIRCLE
  5
12BF4
  8
1
 10
247.5
 20
-222.26660086569501
 30
0.0
 40
10.5
  0
CIRCLE
  5
12BF5
  8
0
 10
237.0
 20
-222.26660086569501
 30
0.0
 40
1.1999999999999991
  0
CIRCLE
  5
12BF6
  8
2
 10
237.0
 20
-222.26660086569501
 30
0.0
 40
2.5
  0
LINE
  5
12BF7
  8
1
 10
250.5
 20
-217.07044844298841
 30
0.0
 11
255.0
 21
-209.2762198089284
 31
0.0
  0
LINE
  5
12BF8
  8
1
 10
250.49999999999989
 20
-227.4627532884017
 30
0.0
 11
255.0
 21
-235.25698192246159
 31
0.0
  0
CIRCLE
  5
12BF9
  8
2
 10
252.75
 20
-213.17333412595841
 30
0.0
 40
2.5
  0
CIRCLE
  5
12BFA
  8
0
 10
252.75
 20
-213.17333412595841
 30
0.0
 40
1.1999999999999991
  0
CIRCLE
  5
12BFB
  8
0
 10
252.75
 20
-231.35986760543159
 30
0.0
 40
1.1999999999999991
  0
CIRCLE
  5
12BFC
  8
2
 10
252.75
 20
-231.35986760543159
 30
0.0
 40
2.5
  0
LINE
  5
12BFD
  8
1
 10
247.5
 20
-260.54510645603739
 30
0.0
 11
247.50000000000011
 21
-273.54510645603739
 31
0.0
  0
LINE
  5
12BFE
  8
0
 10
240.5
 20
-266.54510645603739
 30
0.0
 11
240.5
 21
-268.04510645603739
 31
0.0
  0
LINE
  5
12BFF
  8
0
 10
254.5
 20
-266.54510645603739
 30
0.0
 11
254.5
 21
-268.04510645603739
 31
0.0
  0
LINE
  5
12C00
  8
1
 10
237.0
 20
-263.54510645603739
 30
0.0
 11
237.0
 21
-270.54510645603739
 31
0.0
  0
LINE
  5
12C01
  8
0
 10
225.0
 20
-265.54510645603739
 30
0.0
 11
270.0
 21
-265.54510645603739
 31
0.0
  0
LINE
  5
12C04
  8
0
 10
240.5
 20
-266.54510645603739
 30
0.0
 11
254.5
 21
-266.54510645603739
 31
0.0
  0
LINE
  5
12C07
  8
0
 10
240.5
 20
-268.04510645603739
 30
0.0
 11
254.5
 21
-268.04510645603739
 31
0.0
  0
LINE
  5
12C08
  8
0
 10
255.0
 20
-268.54510645603739
 30
0.0
 11
254.5
 21
-268.04510645603739
 31
0.0
  0
LINE
  5
12C09
  8
0
 10
255.5
 20
-265.54510645603739
 30
0.0
 11
254.5
 21
-266.54510645603739
 31
0.0
  0
LINE
  5
12C0A
  8
0
 10
239.5
 20
-265.54510645603739
 30
0.0
 11
240.5
 21
-266.54510645603739
 31
0.0
  0
LINE
  5
12C0B
  8
0
 10
240.5
 20
-268.04510645603739
 30
0.0
 11
240.0
 21
-268.54510645603739
 31
0.0
  0
LINE
  5
12C0C
  8
0
 10
235.80000000000001
 20
-267.24510645603772
 30
0.0
 11
235.80000000000001
 21
-265.54510645603739
 31
0.0
  0
LINE
  5
12C0D
  8
0
 10
238.2000000000001
 20
-267.24510645603738
 30
0.0
 11
238.2000000000001
 21
-265.54510645603739
 31
0.0
  0
LINE
  5
12C0F
  8
0
 10
235.80000000000001
 20
-267.24510645603749
 30
0.0
 11
234.5
 21
-268.5451064560375
 31
0.0
  0
LINE
  5
12C1F
  8
0
 10
225.0
 20
-268.54510645603739
 30
0.0
 11
270.0
 21
-268.54510645603739
 31
0.0
  0
LINE
  5
12C2D
  8
0
 10
238.2000000000001
 20
-267.24510645603749
 30
0.0
 11
239.5
 21
-268.5451064560375
 31
0.0
  0
LINE
  5
12C2E
  8
0
 10
235.80000000000001
 20
-267.24510645603772
 30
0.0
 11
238.2000000000001
 21
-267.24510645603738
 31
0.0
  0
LINE
  5
12C47
  8
0
 10
170.4999999999998
 20
-266.54510645603739
 30
0.0
 11
170.4999999999998
 21
-268.04510645603739
 31
0.0
  0
LINE
  5
12C4A
  8
0
 10
154.9999999999998
 20
-265.54510645603739
 30
0.0
 11
199.9999999999998
 21
-265.54510645603739
 31
0.0
  0
LINE
  5
12C4B
  8
0
 10
154.9999999999998
 20
-268.54510645603739
 30
0.0
 11
173.49999981000991
 21
-268.54510645603739
 31
0.0
  0
LINE
  5
12C4C
  8
0
 10
170.4999999999998
 20
-266.54510645603739
 30
0.0
 11
170.58696901425691
 21
-266.54510645603739
 31
0.0
  0
LINE
  5
12C4D
  8
0
 10
170.4999999999998
 20
-268.04510645603739
 30
0.0
 11
184.49999999999969
 21
-268.04510645603739
 31
0.0
  0
LINE
  5
12C4E
  8
0
 10
184.9999999999998
 20
-268.54510645603739
 30
0.0
 11
184.49999999999969
 21
-268.04510645603739
 31
0.0
  0
LINE
  5
12C4F
  8
0
 10
185.49999999999969
 20
-265.54510645603739
 30
0.0
 11
184.49999999999969
 21
-266.54510645603739
 31
0.0
  0
LINE
  5
12C50
  8
0
 10
169.4999999999998
 20
-265.54510645603739
 30
0.0
 11
170.4999999999998
 21
-266.54510645603739
 31
0.0
  0
LINE
  5
12C51
  8
0
 10
170.4999999999998
 20
-268.04510645603739
 30
0.0
 11
169.99999999999969
 21
-268.54510645603739
 31
0.0
  0
LINE
  5
12C52
  8
0
 10
165.7999999999997
 20
-267.24510645603772
 30
0.0
 11
165.7999999999997
 21
-265.54510645603739
 31
0.0
  0
LINE
  5
12C53
  8
0
 10
168.19999999999979
 20
-267.24510645603738
 30
0.0
 11
168.19999999999979
 21
-265.54510645603739
 31
0.0
  0
LINE
  5
12C54
  8
0
 10
165.79999999999981
 20
-267.24510645603749
 30
0.0
 11
164.49999999999969
 21
-268.5451064560375
 31
0.0
  0
LINE
  5
12C55
  8
0
 10
168.19999999999979
 20
-267.24510645603749
 30
0.0
 11
169.4999999999998
 21
-268.5451064560375
 31
0.0
  0
LINE
  5
12C56
  8
0
 10
165.7999999999997
 20
-267.24510645603772
 30
0.0
 11
165.99999995250229
 21
-267.24510645603772
 31
0.0
  0
LINE
  5
12CD0
  8
0
 10
345.00000018626429
 20
-267.24510649999581
 30
0.0
 11
345.00000018626429
 21
-264.84510638600187
 31
0.0
  0
LINE
  5
12CD1
  8
0
 10
344.69999976456143
 20
-267.54510645603739
 30
0.0
 11
345.00000018626429
 21
-267.24510649999581
 31
0.0
  0
LINE
  5
12CD2
  8
0
 10
345.00000018626429
 20
-264.84510638600187
 30
0.0
 11
344.69999976456143
 21
-264.5451064299603
 31
0.0
  0
LINE
  5
12CD9
  8
0
 10
319.99999981373531
 20
-264.84510638600187
 30
0.0
 11
319.99999981373531
 21
-267.24510649999581
 31
0.0
  0
LINE
  5
12CDB
  8
0
 10
319.99999981373531
 20
-267.24510649999581
 30
0.0
 11
320.30000023543812
 21
-267.54510645603739
 31
0.0
  0
LINE
  5
12CDD
  8
0
 10
320.30000023543812
 20
-264.5451064299603
 30
0.0
 11
344.69999976456143
 21
-264.5451064299603
 31
0.0
  0
LINE
  5
12CDE
  8
0
 10
320.30000023543812
 20
-264.5451064299603
 30
0.0
 11
319.99999981373531
 21
-264.84510638600187
 31
0.0
  0
LINE
  5
12D03
  8
0
 10
324.00000009499468
 20
-270.34510648716679
 30
0.0
 11
323.00000004749722
 21
-269.34510642511748
 31
0.0
  0
LINE
  5
12D04
  8
0
 10
320.99999995250232
 20
-269.34510642511748
 30
0.0
 11
319.99999990500493
 21
-270.34510648716679
 31
0.0
  0
LINE
  5
12D05
  8
0
 10
324.00000009499468
 20
-270.54510648211442
 30
0.0
 11
324.00000009499468
 21
-270.34510648716679
 31
0.0
  0
LINE
  5
12D06
  8
0
 10
319.99999990500493
 20
-270.34510648716679
 30
0.0
 11
319.99999990500493
 21
-270.54510648211442
 31
0.0
  0
LINE
  5
12D07
  8
0
 10
323.00000004749722
 20
-269.34510642511748
 30
0.0
 11
323.00000004749722
 21
-267.54510645603739
 31
0.0
  0
LINE
  5
12D0B
  8
0
 10
320.99999995250232
 20
-267.54510645603739
 30
0.0
 11
320.99999995250232
 21
-269.34510642511748
 31
0.0
  0
LINE
  5
12D0C
  8
0
 10
323.00000004749722
 20
-269.34510642511748
 30
0.0
 11
320.99999995250232
 21
-269.34510642511748
 31
0.0
  0
LINE
  5
12D0D
  8
0
 10
324.00000009499468
 20
-270.34510648716679
 30
0.0
 11
319.99999990500493
 21
-270.34510648716679
 31
0.0
  0
LINE
  5
12D11
  8
0
 10
321.00000030174829
 20
-268.99869618133562
 30
0.0
 11
323.00000062957389
 21
-268.99869618133562
 31
0.0
  0
LINE
  5
12D12
  8
3
 10
321.19999999999982
 20
-268.99869618133562
 30
0.0
 11
321.19999999999982
 21
-267.54510645603739
 31
0.0
  0
LINE
  5
12D14
  8
3
 10
322.79999999999973
 20
-268.99869618133562
 30
0.0
 11
322.79999999999973
 21
-267.54510645603739
 31
0.0
  0
LINE
  5
12D16
  8
3
 10
323.00000062957389
 20
-269.34510743330378
 30
0.0
 11
322.79999999999973
 21
-268.99869618133562
 31
0.0
  0
LINE
  5
12D17
  8
3
 10
320.99999937042571
 20
-269.34510743330378
 30
0.0
 11
321.19999999999982
 21
-268.99869618133562
 31
0.0
  0
LINE
  5
12D19
  8
1
 10
321.99999999999989
 20
-272.54510645603739
 30
0.0
 11
321.99999999999989
 21
-262.5451064299603
 31
0.0
  0
LINE
  5
12D29
  8
0
 10
190.00000018626429
 20
-265.24510649999581
 30
0.0
 11
190.00000018626429
 21
-262.84510638600187
 31
0.0
  0
LINE
  5
12D2A
  8
0
 10
189.6999997645614
 20
-265.54510645603739
 30
0.0
 11
190.00000018626429
 21
-265.24510649999581
 31
0.0
  0
LINE
  5
12D2B
  8
0
 10
190.00000018626429
 20
-262.84510638600187
 30
0.0
 11
189.6999997645614
 21
-262.5451064299603
 31
0.0
  0
LINE
  5
12D2D
  8
0
 10
164.9999998137352
 20
-262.84510638600187
 30
0.0
 11
164.9999998137352
 21
-265.24510649999581
 31
0.0
  0
LINE
  5
12D2F
  8
0
 10
164.9999998137352
 20
-265.24510649999581
 30
0.0
 11
165.30000023543809
 21
-265.54510645603739
 31
0.0
  0
LINE
  5
12D31
  8
0
 10
165.30000023543809
 20
-262.5451064299603
 30
0.0
 11
189.6999997645614
 21
-262.5451064299603
 31
0.0
  0
LINE
  5
12D32
  8
0
 10
165.30000023543809
 20
-262.5451064299603
 30
0.0
 11
164.9999998137352
 21
-262.84510638600187
 31
0.0
  0
LINE
  5
12D36
  8
0
 10
169.0000000949947
 20
-268.34510648716679
 30
0.0
 11
168.0000000474972
 21
-267.34510642511748
 31
0.0
  0
LINE
  5
12D37
  8
0
 10
165.99999995250229
 20
-267.34510642511748
 30
0.0
 11
164.99999990500481
 21
-268.34510648716679
 31
0.0
  0
LINE
  5
12D38
  8
0
 10
169.0000000949947
 20
-268.54510648211442
 30
0.0
 11
169.0000000949947
 21
-268.34510648716679
 31
0.0
  0
LINE
  5
12D39
  8
0
 10
164.99999990500481
 20
-268.34510648716679
 30
0.0
 11
164.99999990500481
 21
-268.54510648211442
 31
0.0
  0
LINE
  5
12D3A
  8
0
 10
168.0000000474972
 20
-267.34510642511748
 30
0.0
 11
168.0000000474972
 21
-265.54510645603739
 31
0.0
  0
LINE
  5
12D3E
  8
0
 10
165.99999995250229
 20
-265.54510645603739
 30
0.0
 11
165.99999995250229
 21
-267.34510642511748
 31
0.0
  0
LINE
  5
12D3F
  8
0
 10
168.0000000474972
 20
-267.34510642511748
 30
0.0
 11
165.99999995250229
 21
-267.34510642511748
 31
0.0
  0
LINE
  5
12D40
  8
0
 10
169.0000000949947
 20
-268.34510648716679
 30
0.0
 11
164.99999990500481
 21
-268.34510648716679
 31
0.0
  0
LINE
  5
12D44
  8
0
 10
166.00000030174829
 20
-266.99869618133562
 30
0.0
 11
168.0000006295738
 21
-266.99869618133562
 31
0.0
  0
LINE
  5
12D45
  8
3
 10
166.19999999999979
 20
-266.99869618133562
 30
0.0
 11
166.19999999999979
 21
-265.54510645603739
 31
0.0
  0
LINE
  5
12D47
  8
3
 10
167.7999999999997
 20
-266.99869618133562
 30
0.0
 11
167.7999999999997
 21
-265.54510645603739
 31
0.0
  0
LINE
  5
12D49
  8
3
 10
168.0000006295738
 20
-267.34510743330378
 30
0.0
 11
167.7999999999997
 21
-266.99869618133562
 31
0.0
  0
LINE
  5
12D4A
  8
3
 10
165.99999937042571
 20
-267.34510743330378
 30
0.0
 11
166.19999999999979
 21
-266.99869618133562
 31
0.0
  0
LINE
  5
12D4C
  8
1
 10
166.99999999999969
 20
-270.54510645603739
 30
0.0
 11
166.99999999999969
 21
-260.54510642996041
 31
0.0
  0
LINE
  5
12D4D
  8
0
 10
168.0000000474972
 20
-267.24510645603738
 30
0.0
 11
168.19999999999979
 21
-267.24510645603738
 31
0.0
  0
ARC
  5
12D66
  8
0
 10
183.00252115012469
 20
-236.33433821766121
 30
0.0
 40
2.4974856259058771
 50
359.87032919989127
 51
87.379702125490766
  0
ARC
  5
12D67
  8
0
 10
171.99716824592701
 20
-236.33409102510549
 30
0.0
 40
2.4971743928040659
 50
92.840799175244115
 51
180.1231358141475
  0
LINE
  5
12D68
  8
0
 10
185.5000003799793
 20
-241.30957802793
 30
0.0
 11
185.5000003799793
 21
-236.33999047836269
 31
0.0
  0
LINE
  5
12D69
  8
0
 10
185.5000003799793
 20
-246.24510711094351
 30
0.0
 11
185.5000003799793
 21
-244.1809423830172
 31
0.0
  0
ARC
  5
12D6A
  8
0
 10
184.9999999999998
 20
-246.24510648211449
 30
0.0
 40
0.5
 50
270.0
 51
0.0
  0
LINE
  5
12D6B
  8
0
 10
169.49999962002011
 20
-244.1808920915982
 30
0.0
 11
169.49999962002011
 21
-246.24510711094351
 31
0.0
  0
LINE
  5
12D6C
  8
0
 10
169.49999962002011
 20
-236.3394577618501
 30
0.0
 11
169.49999962002011
 21
-241.30927069148029
 31
0.0
  0
ARC
  5
12D6D
  8
0
 10
169.99999999999969
 20
-246.24510648211449
 30
0.0
 40
0.5
 50
180.0
 51
270.0
  0
LINE
  5
12D6E
  8
0
 10
177.49999999999969
 20
-233.54510633310289
 30
0.0
 11
171.8734058178959
 21
-233.83998541196789
 31
0.0
  0
LINE
  5
12D6F
  8
0
 10
183.11669841408701
 20
-233.8394638713261
 30
0.0
 11
177.49999999999969
 21
-233.54510633310289
 31
0.0
  0
LINE
  5
12D70
  8
0
 10
170.00000016763781
 20
-246.74510626157729
 30
0.0
 11
170.00000016763781
 21
-248.04510591587041
 31
0.0
  0
LINE
  5
12D71
  8
0
 10
184.99999983236171
 20
-248.04510591587041
 30
0.0
 11
184.99999983236171
 21
-246.74510626157729
 31
0.0
  0
ARC
  5
12D72
  8
0
 10
165.25400477734951
 20
-267.21390618284499
 30
0.0
 40
12.74695575248812
 50
313.7529142781529
 51
318.3123486220245
  0
LINE
  5
12D73
  8
0
 10
181.50000018998949
 20
-273.37373556604581
 30
0.0
 11
181.50000018998949
 21
-268.04510645836569
 31
0.0
  0
LINE
  5
12D74
  8
0
 10
173.49999981000991
 20
-268.04510645836569
 30
0.0
 11
173.49999981000991
 21
-273.37373556604581
 31
0.0
  0
LINE
  5
12D75
  8
0
 10
190.00000018626429
 20
-262.04510634800391
 30
0.0
 11
190.00000018626429
 21
-249.85109126230691
 31
0.0
  0
LINE
  5
12D76
  8
0
 10
164.9999998137352
 20
-249.85109126230691
 30
0.0
 11
164.9999998137352
 21
-262.04510634800391
 31
0.0
  0
LINE
  5
12D77
  8
0
 10
164.9999998137352
 20
-262.04510634800391
 30
0.0
 11
165.49999989569159
 21
-262.5451064299603
 31
0.0
  0
LINE
  5
12D78
  8
0
 10
189.5000001043079
 20
-262.5451064299603
 30
0.0
 11
190.00000018626429
 21
-262.04510634800391
 31
0.0
  0
ARC
  5
12D79
  8
0
 10
165.4999999999998
 20
-249.85109118828419
 30
0.0
 40
0.5
 50
109.9999999999965
 51
180.0
  0
ARC
  5
12D7A
  8
0
 10
189.49999999999969
 20
-249.85109118828419
 30
0.0
 40
0.5
 50
0.0
 51
69.999999999996476
  0
LINE
  5
12D7B
  8
0
 10
168.99999953806369
 20
-248.04510591587041
 30
0.0
 11
165.32898951321809
 21
-249.38124461134879
 31
0.0
  0
LINE
  5
12D7E
  8
0
 10
183.50000005215381
 20
-268.04510645836569
 30
0.0
 11
184.50000021606661
 21
-267.0451064690759
 31
0.0
  0
LINE
  5
12D7F
  8
0
 10
184.50000021606661
 20
-268.04510667210423
 30
0.0
 11
184.50000021606661
 21
-265.54510645603739
 31
0.0
  0
ARC
  5
12D84
  8
0
 10
204.42744677007661
 20
-242.74526020547449
 30
0.0
 40
18.981817883567381
 50
175.66231429958921
 51
184.3376857004059
  0
LINE
  5
12D85
  8
0
 10
184.99999983236171
 20
-246.74510626157729
 30
0.0
 11
170.00000016763781
 21
-246.74510626157729
 31
0.0
  0
ARC
  5
12D86
  8
0
 10
150.5324865000245
 20
-242.74302569046159
 30
0.0
 40
19.021935068355351
 50
355.66488199763029
 51
359.99373510751337
  0
POLYLINE
  5
12D87
  8
0
 66
     1
 10
0.0
 20
0.0
 30
0.0
 70
   128
  0
VERTEX
  5
13C33
  8
0
 10
169.49999962002011
 20
-241.30927069148029
 30
0.0
  0
VERTEX
  5
13C34
  8
0
 10
169.50799223035551
 20
-241.41901774367301
 30
0.0
  0
VERTEX
  5
13C35
  8
0
 10
169.52722683548899
 20
-241.73046318849529
 30
0.0
  0
VERTEX
  5
13C36
  8
0
 10
169.5464521273968
 20
-242.1959605630299
 30
0.0
  0
VERTEX
  5
13C37
  8
0
 10
169.55235484987469
 20
-242.4654927667043
 30
0.0
  0
VERTEX
  5
13C38
  8
0
 10
169.55442145466779
 20
-242.7451056059262
 30
0.0
  0
SEQEND
  5
13C39
  8
0
  0
ARC
  5
12D88
  8
0
 10
181.9722372078952
 20
-293.8994062411802
 30
0.0
 40
19.018590479542521
 50
101.0419481548431
 51
115.495030815306
  0
LINE
  5
12D89
  8
0
 10
174.06915944069621
 20
-276.42139928450769
 30
0.0
 11
173.7860117666421
 21
-276.73279630055629
 31
0.0
  0
ARC
  5
12D8A
  8
0
 10
187.44090924035339
 20
-275.24175195714912
 30
0.0
 40
6.22767095968684
 50
162.5451445210129
 51
179.11080688118139
  0
LINE
  5
12D8B
  8
0
 10
181.21398823335741
 20
-275.14510644635158
 30
0.0
 11
181.21398823335741
 21
-276.84510635247432
 31
0.0
  0
LINE
  5
12D8C
  8
0
 10
173.7860117666421
 20
-276.84510635247432
 30
0.0
 11
181.21398823335741
 21
-276.84510635247432
 31
0.0
  0
LINE
  5
12D8D
  8
0
 10
178.3296517189589
 20
-275.23290269112192
 30
0.0
 11
178.7429388007146
 21
-275.23290269112192
 31
0.0
  0
POLYLINE
  5
12D8E
  8
0
 66
     1
 10
0.0
 20
0.0
 30
0.0
 70
   128
  0
VERTEX
  5
13C3A
  8
0
 10
178.7429388007146
 20
-275.23290269112192
 30
0.0
  0
VERTEX
  5
13C3B
  8
0
 10
178.940022839233
 20
-275.28903955629067
 30
0.0
  0
VERTEX
  5
13C3C
  8
0
 10
179.09247592091529
 20
-275.33344408532582
 30
0.0
  0
SEQEND
  5
13C3D
  8
0
  0
LINE
  5
12D8F
  8
0
 10
179.09247592091529
 20
-275.33344408532582
 30
0.0
 11
179.09579841420029
 21
-275.33483874088131
 31
0.0
  0
POLYLINE
  5
12D90
  8
0
 66
     1
 10
0.0
 20
0.0
 30
0.0
 70
   128
  0
VERTEX
  5
13C3E
  8
0
 10
179.09579841420029
 20
-275.33483874088131
 30
0.0
  0
VERTEX
  5
13C3F
  8
0
 10
179.22841327730541
 20
-275.38123071229057
 30
0.0
  0
VERTEX
  5
13C40
  8
0
 10
179.61090361699439
 20
-275.4131489995678
 30
0.0
  0
VERTEX
  5
13C41
  8
0
 10
179.72144345752869
 20
-275.39209878107511
 30
0.0
  0
VERTEX
  5
13C42
  8
0
 10
180.0524285156277
 20
-275.226803925242
 30
0.0
  0
VERTEX
  5
13C43
  8
0
 10
180.3069557156411
 20
-274.94731821155148
 30
0.0
  0
VERTEX
  5
13C44
  8
0
 10
180.51105482503749
 20
-274.51938759570919
 30
0.0
  0
VERTEX
  5
13C45
  8
0
 10
180.62963337637461
 20
-273.93998341670238
 30
0.0
  0
VERTEX
  5
13C46
  8
0
 10
180.62273111194349
 20
-273.29214844888048
 30
0.0
  0
VERTEX
  5
13C47
  8
0
 10
180.47725968994169
 20
-272.68355289509498
 30
0.0
  0
VERTEX
  5
13C48
  8
0
 10
180.3492419514802
 20
-272.4173669334312
 30
0.0
  0
VERTEX
  5
13C49
  8
0
 10
180.18171099014549
 20
-272.18990955537163
 30
0.0
  0
VERTEX
  5
13C4A
  8
0
 10
179.87848609685869
 20
-271.96230456268393
 30
0.0
  0
SEQEND
  5
13C4B
  8
0
  0
POLYLINE
  5
12D91
  8
0
 66
     1
 10
0.0
 20
0.0
 30
0.0
 70
   128
  0
VERTEX
  5
13C4C
  8
0
 10
179.87848609685869
 20
-271.96230456268393
 30
0.0
  0
VERTEX
  5
13C4D
  8
0
 10
179.8768441751597
 20
-271.96132690681122
 30
0.0
  0
VERTEX
  5
13C4E
  8
0
 10
179.8754106368867
 20
-271.96084587870138
 30
0.0
  0
SEQEND
  5
13C4F
  8
0
  0
POLYLINE
  5
12D92
  8
0
 66
     1
 10
0.0
 20
0.0
 30
0.0
 70
   128
  0
VERTEX
  5
13C50
  8
0
 10
179.8754106368867
 20
-271.96084587870138
 30
0.0
  0
VERTEX
  5
13C51
  8
0
 10
179.87225298769749
 20
-271.95936344599329
 30
0.0
  0
VERTEX
  5
13C52
  8
0
 10
179.66874340549089
 20
-271.89320671407478
 30
0.0
  0
SEQEND
  5
13C53
  8
0
  0
POLYLINE
  5
12D93
  8
0
 66
     1
 10
0.0
 20
0.0
 30
0.0
 70
   128
  0
VERTEX
  5
13C54
  8
0
 10
179.66874340549089
 20
-271.89320671407478
 30
0.0
  0
VERTEX
  5
13C55
  8
0
 10
179.45576553232939
 20
-271.8267335653116
 30
0.0
  0
VERTEX
  5
13C56
  8
0
 10
179.28391346707909
 20
-271.77524842357241
 30
0.0
  0
SEQEND
  5
13C57
  8
0
  0
POLYLINE
  5
12D94
  8
0
 66
     1
 10
0.0
 20
0.0
 30
0.0
 70
   128
  0
VERTEX
  5
13C58
  8
0
 10
178.86808061506571
 20
-271.69016116334097
 30
0.0
  0
VERTEX
  5
13C59
  8
0
 10
178.9773476868865
 20
-271.6957351289501
 30
0.0
  0
VERTEX
  5
13C5A
  8
0
 10
179.28391346707909
 20
-271.77524842357241
 30
0.0
  0
SEQEND
  5
13C5B
  8
0
  0
LINE
  5
12D95
  8
0
 10
178.86808061506571
 20
-271.69016116334097
 30
0.0
 11
178.19459271617211
 21
-271.69016116334097
 31
0.0
  0
POLYLINE
  5
12D96
  8
0
 66
     1
 10
0.0
 20
0.0
 30
0.0
 70
   128
  0
VERTEX
  5
13C5C
  8
0
 10
177.74517314159289
 20
-271.77524842357241
 30
0.0
  0
VERTEX
  5
13C5D
  8
0
 10
177.9486246325539
 20
-271.71546496486269
 30
0.0
  0
VERTEX
  5
13C5E
  8
0
 10
178.19459306541799
 20
-271.69017373619579
 30
0.0
  0
SEQEND
  5
13C5F
  8
0
  0
POLYLINE
  5
12D97
  8
0
 66
     1
 10
0.0
 20
0.0
 30
0.0
 70
   128
  0
VERTEX
  5
13C60
  8
0
 10
173.53994004428361
 20
-273.37373556604581
 30
0.0
  0
VERTEX
  5
13C61
  8
0
 10
173.74345172196601
 20
-273.14815480297409
 30
0.0
  0
VERTEX
  5
13C62
  8
0
 10
174.1084274929014
 20
-272.9262546267172
 30
0.0
  0
VERTEX
  5
13C63
  8
0
 10
174.62242837995259
 20
-272.70126432215773
 30
0.0
  0
VERTEX
  5
13C64
  8
0
 10
175.25946582667501
 20
-272.47849475627743
 30
0.0
  0
VERTEX
  5
13C65
  8
0
 10
176.0319869592783
 20
-272.24364384112857
 30
0.0
  0
VERTEX
  5
13C66
  8
0
 10
176.87339889584081
 20
-272.00967558694981
 30
0.0
  0
VERTEX
  5
13C67
  8
0
 10
177.74517314159289
 20
-271.77524842357241
 30
0.0
  0
SEQEND
  5
13C68
  8
0
  0
LINE
  5
12D98
  8
0
 10
173.53994004428361
 20
-273.37373556604581
 30
0.0
 11
173.49999981000991
 21
-273.37373556604581
 31
0.0
  0
ARC
  5
12D99
  8
0
 10
167.58781520024601
 20
-275.23711400495603
 30
0.0
 40
6.1988794202278781
 50
0.8504502206130004
 51
17.493598377193941
  0
LINE
  5
12D9A
  8
0
 10
173.7860117666421
 20
-275.14510644635158
 30
0.0
 11
173.7860117666421
 21
-276.84510635247432
 31
0.0
  0
POLYLINE
  5
12D9B
  8
0
 66
     1
 10
0.0
 20
0.0
 30
0.0
 70
   128
  0
VERTEX
  5
13C69
  8
0
 10
173.53994004428361
 20
-273.37373556604581
 30
0.0
  0
VERTEX
  5
13C6A
  8
0
 10
174.1315589845178
 20
-273.97389706259571
 30
0.0
  0
VERTEX
  5
13C6B
  8
0
 10
174.73083828575881
 20
-274.5755882564743
 30
0.0
  0
SEQEND
  5
13C6C
  8
0
  0
LINE
  5
12D9C
  8
0
 10
174.04773971997179
 20
-278.10392571648561
 30
0.0
 11
173.7860117666421
 21
-276.84510635247432
 31
0.0
  0
LINE
  5
12D9D
  8
0
 10
181.21398823335741
 20
-276.84510635247432
 30
0.0
 11
180.9522602800277
 21
-278.10392571648561
 31
0.0
  0
LINE
  5
12D9E
  8
0
 10
180.1669930666682
 20
-278.84510668029981
 30
0.0
 11
174.83300693333121
 21
-278.84510668029981
 31
0.0
  0
POLYLINE
  5
12D9F
  8
0
 66
     1
 10
0.0
 20
0.0
 30
0.0
 70
   128
  0
VERTEX
  5
13C6D
  8
0
 10
174.83300693333121
 20
-278.84510668029981
 30
0.0
  0
VERTEX
  5
13C6E
  8
0
 10
174.83247840777011
 20
-278.84510668029981
 30
0.0
  0
VERTEX
  5
13C6F
  8
0
 10
174.70568535849429
 20
-278.83314197918378
 30
0.0
  0
SEQEND
  5
13C70
  8
0
  0
ARC
  5
12DA0
  8
0
 10
174.9417748537096
 20
-277.9586984199637
 30
0.0
 40
0.9057537126683503
 50
189.2265512310986
 51
254.89105181565921
  0
ARC
  5
12DA1
  8
0
 10
180.0889053657688
 20
-277.98638007988768
 30
0.0
 40
0.8713200816336721
 50
283.63553682816979
 51
352.24686012507442
  0
LINE
  5
12DA2
  8
0
 10
180.2943146415052
 20
-278.83314197918378
 30
0.0
 11
180.1669930666682
 21
-278.84510668029981
 31
0.0
  0
ARC
  5
12DA3
  8
0
 10
174.15094253667161
 20
-275.16697566362632
 30
0.0
 40
0.8282383319073717
 50
1.513042137994558
 51
45.186342064513333
  0
LINE
  5
12DA4
  8
0
 10
174.73083828575881
 20
-274.5755882564743
 30
0.0
 11
174.73468767479039
 21
-274.57942111453019
 31
0.0
  0
ARC
  5
12DA5
  8
0
 10
174.24586762867671
 20
-275.18108167536531
 30
0.0
 40
0.7339067283369956
 50
315.93261558500848
 51
2.8096964803821169
  0
LINE
  5
12DAF
  8
0
 10
186.00000046193571
 20
-248.04510591587041
 30
0.0
 11
168.999999538064
 21
-248.04510591587041
 31
0.0
  0
LINE
  5
12DBB
  8
0
 10
171.6016952507195
 20
-268.04510645836569
 30
0.0
 11
170.58696901425691
 21
-267.0451064690759
 31
0.0
  0
LINE
  5
12DBC
  8
0
 10
170.58696901425691
 20
-267.0451064690759
 30
0.0
 11
184.50000021606661
 21
-267.0451064690759
 31
0.0
  0
LINE
  5
12DBE
  8
0
 10
170.58696901425699
 20
-265.54510645603739
 30
0.0
 11
170.58696901425691
 21
-267.0451064690759
 31
0.0
  0
LINE
  5
12DC7
  8
0
 10
165.32898951321809
 20
-249.38124461134879
 30
0.0
 11
189.67101048678131
 21
-249.38124461134879
 31
0.0
  0
LINE
  5
12DC8
  8
0
 10
186.00000046193571
 20
-248.04510591587041
 30
0.0
 11
189.67101048678131
 21
-249.38124461134879
 31
0.0
  0
LINE
  5
12DD3
  8
1
 10
177.49999999999969
 20
-283.84510668029992
 30
0.0
 11
177.49999999999969
 21
-228.54510633310289
 31
0.0
  0
LINE
  5
13503
  8
0
 10
181.50000018998949
 20
-268.54510645603739
 30
0.0
 11
199.9999999999998
 21
-268.54510645603739
 31
0.0
  0
LINE
  5
1352F
  8
1
 10
402.5
 20
-204.26660086569501
 30
0.0
 11
402.5
 21
-240.26660086569501
 31
0.0
  0
LINE
  5
13530
  8
1
 10
420.5
 20
-222.26660086569501
 30
0.0
 11
384.5
 21
-222.26660086569501
 31
0.0
  0
CIRCLE
  5
13531
  8
0
 10
402.5
 20
-222.26660086569501
 30
0.0
 40
7.0
  0
CIRCLE
  5
13532
  8
1
 10
402.5
 20
-222.26660086569501
 30
0.0
 40
10.5
  0
CIRCLE
  5
13533
  8
0
 10
392.0
 20
-222.26660086569501
 30
0.0
 40
1.1999999999999991
  0
CIRCLE
  5
13534
  8
2
 10
392.0
 20
-222.26660086569501
 30
0.0
 40
2.5
  0
LINE
  5
13535
  8
1
 10
405.49999999999989
 20
-217.07044844298841
 30
0.0
 11
410.0
 21
-209.2762198089284
 31
0.0
  0
LINE
  5
13536
  8
1
 10
405.49999999999977
 20
-227.4627532884017
 30
0.0
 11
410.0
 21
-235.25698192246159
 31
0.0
  0
CIRCLE
  5
13537
  8
2
 10
407.74999999999989
 20
-213.17333412595841
 30
0.0
 40
2.5
  0
CIRCLE
  5
13538
  8
0
 10
407.74999999999989
 20
-213.17333412595841
 30
0.0
 40
1.1999999999999991
  0
CIRCLE
  5
13539
  8
0
 10
407.74999999999989
 20
-231.35986760543159
 30
0.0
 40
1.1999999999999991
  0
CIRCLE
  5
1353A
  8
2
 10
407.74999999999989
 20
-231.35986760543159
 30
0.0
 40
2.5
  0
LINE
  5
1353B
  8
1
 10
402.49999999999977
 20
-260.5451064560375
 30
0.0
 11
402.50000000000011
 21
-275.54510645603739
 31
0.0
  0
LINE
  5
1353C
  8
0
 10
395.5
 20
-268.54510645603739
 30
0.0
 11
395.5
 21
-270.04510645603739
 31
0.0
  0
LINE
  5
1353D
  8
0
 10
409.49999999999989
 20
-268.54510645603739
 30
0.0
 11
409.49999999999989
 21
-270.04510645603739
 31
0.0
  0
LINE
  5
1353E
  8
1
 10
392.0
 20
-265.54510645603739
 30
0.0
 11
392.0
 21
-272.54510645603739
 31
0.0
  0
LINE
  5
1353F
  8
0
 10
389.5
 20
-267.54510645603739
 30
0.0
 11
415.5
 21
-267.54510645603739
 31
0.0
  0
LINE
  5
13540
  8
0
 10
380.0
 20
-270.54510645603739
 30
0.0
 11
425.0
 21
-270.54510645603739
 31
0.0
  0
LINE
  5
13541
  8
0
 10
395.5
 20
-268.54510645603739
 30
0.0
 11
409.49999999999989
 21
-268.54510645603739
 31
0.0
  0
LINE
  5
13542
  8
0
 10
395.5
 20
-270.04510645603739
 30
0.0
 11
409.49999999999989
 21
-270.04510645603739
 31
0.0
  0
LINE
  5
13543
  8
0
 10
410.0
 20
-270.54510645603739
 30
0.0
 11
409.49999999999989
 21
-270.04510645603739
 31
0.0
  0
LINE
  5
13544
  8
0
 10
410.5
 20
-267.54510645603739
 30
0.0
 11
409.49999999999989
 21
-268.54510645603739
 31
0.0
  0
LINE
  5
13545
  8
0
 10
394.5
 20
-267.54510645603739
 30
0.0
 11
395.5
 21
-268.54510645603739
 31
0.0
  0
LINE
  5
13546
  8
0
 10
395.5
 20
-270.04510645603739
 30
0.0
 11
395.0
 21
-270.54510645603739
 31
0.0
  0
LINE
  5
13547
  8
0
 10
390.7999999999999
 20
-269.24510645603772
 30
0.0
 11
390.7999999999999
 21
-267.54510645603739
 31
0.0
  0
LINE
  5
13548
  8
0
 10
393.19999999999999
 20
-269.24510645603738
 30
0.0
 11
393.19999999999999
 21
-267.54510645603739
 31
0.0
  0
LINE
  5
13549
  8
0
 10
390.80000000000013
 20
-269.24510645603749
 30
0.0
 11
389.5
 21
-270.5451064560375
 31
0.0
  0
LINE
  5
1354A
  8
0
 10
393.19999999999999
 20
-269.24510645603749
 30
0.0
 11
394.5
 21
-270.5451064560375
 31
0.0
  0
LINE
  5
1354B
  8
0
 10
390.7999999999999
 20
-269.24510645603772
 30
0.0
 11
393.19999999999999
 21
-269.24510645603738
 31
0.0
  0
LINE
  5
135B2
  8
0
 10
380.0
 20
-265.5451064560375
 30
0.0
 11
425.0
 21
-265.54510645603739
 31
0.0
  0
CIRCLE
  5
135B4
  8
0
 10
402.5
 20
-222.26660086569501
 30
0.0
 40
13.0
  0
LINE
  5
135B6
  8
0
 10
415.5
 20
-266.04510645603739
 30
0.0
 11
415.5
 21
-267.54510645603739
 31
0.0
  0
LINE
  5
135B7
  8
0
 10
389.49999999999989
 20
-266.04510645603858
 30
0.0
 11
389.5
 21
-267.54510645603739
 31
0.0
  0
LINE
  5
135B8
  8
0
 10
415.5
 20
-266.04510645603739
 30
0.0
 11
416.0
 21
-265.54510645603739
 31
0.0
  0
LINE
  5
135B9
  8
0
 10
389.5
 20
-266.04510645603858
 30
0.0
 11
389.0
 21
-265.5451064560387
 31
0.0
  0
LINE
  5
135BB
  8
0
 10
389.5
 20
-266.04510645603858
 30
0.0
 11
415.5
 21
-266.04510645603858
 31
0.0
  0
LINE
  5
135CD
  8
0
 10
325.49999999999977
 20
-268.54510645603739
 30
0.0
 11
325.49999999999977
 21
-270.04510645603739
 31
0.0
  0
LINE
  5
135D0
  8
0
 10
319.49999999999977
 20
-267.54510645603739
 30
0.0
 11
345.49999999999977
 21
-267.54510645603739
 31
0.0
  0
LINE
  5
135D1
  8
0
 10
309.99999999999977
 20
-270.54510645603739
 30
0.0
 11
328.49999981001002
 21
-270.54510645603739
 31
0.0
  0
LINE
  5
135D2
  8
0
 10
309.99999999999977
 20
-265.5451064560375
 30
0.0
 11
319.99999981373531
 21
-265.5451064560375
 31
0.0
  0
LINE
  5
135D3
  8
0
 10
345.49999999999977
 20
-266.04510645603739
 30
0.0
 11
345.99999999999977
 21
-265.54510645603739
 31
0.0
  0
LINE
  5
135D4
  8
0
 10
325.49999999999977
 20
-268.54510645603739
 30
0.0
 11
325.58696901425708
 21
-268.54510645603739
 31
0.0
  0
LINE
  5
135D5
  8
0
 10
325.49999999999977
 20
-270.04510645603739
 30
0.0
 11
339.49999999999977
 21
-270.04510645603739
 31
0.0
  0
LINE
  5
135D6
  8
0
 10
339.99999999999977
 20
-270.54510645603739
 30
0.0
 11
339.49999999999977
 21
-270.04510645603739
 31
0.0
  0
LINE
  5
135D7
  8
0
 10
340.49999999999977
 20
-267.54510645603739
 30
0.0
 11
339.49999999999977
 21
-268.54510645603739
 31
0.0
  0
LINE
  5
135D8
  8
0
 10
324.49999999999977
 20
-267.54510645603739
 30
0.0
 11
325.49999999999977
 21
-268.54510645603739
 31
0.0
  0
LINE
  5
135D9
  8
0
 10
325.49999999999977
 20
-270.04510645603739
 30
0.0
 11
324.99999999999977
 21
-270.54510645603739
 31
0.0
  0
LINE
  5
135DA
  8
0
 10
320.79999999999973
 20
-269.24510645603772
 30
0.0
 11
320.79999999999973
 21
-267.54510645603739
 31
0.0
  0
LINE
  5
135DB
  8
0
 10
323.19999999999982
 20
-269.24510645603738
 30
0.0
 11
323.19999999999982
 21
-267.54510645603739
 31
0.0
  0
LINE
  5
135DC
  8
0
 10
320.79999999999978
 20
-269.24510645603749
 30
0.0
 11
319.49999999999977
 21
-270.5451064560375
 31
0.0
  0
LINE
  5
135DD
  8
0
 10
323.19999999999982
 20
-269.24510645603749
 30
0.0
 11
324.49999999999977
 21
-270.5451064560375
 31
0.0
  0
LINE
  5
135DE
  8
0
 10
320.79999999999973
 20
-269.24510645603772
 30
0.0
 11
320.99999995250238
 21
-269.24510645603772
 31
0.0
  0
LINE
  5
135DF
  8
0
 10
345.49999999999977
 20
-266.04510645603739
 30
0.0
 11
345.49999999999977
 21
-267.54510645603739
 31
0.0
  0
LINE
  5
135E0
  8
0
 10
319.49999999999972
 20
-266.04510645603858
 30
0.0
 11
319.49999999999977
 21
-267.54510645603739
 31
0.0
  0
LINE
  5
135E1
  8
0
 10
319.49999999999977
 20
-266.04510645603858
 30
0.0
 11
318.99999999999977
 21
-265.5451064560387
 31
0.0
  0
LINE
  5
135E2
  8
0
 10
319.49999999999977
 20
-266.04510645603858
 30
0.0
 11
319.99999981373509
 21
-266.04510645603858
 31
0.0
  0
LINE
  5
135E3
  8
0
 10
345.00000018626417
 20
-266.04510645603858
 30
0.0
 11
345.49999999999977
 21
-266.04510645603858
 31
0.0
  0
LINE
  5
135E4
  8
0
 10
345.00000018626429
 20
-265.5451064560375
 30
0.0
 11
354.99999999999977
 21
-265.54510645603739
 31
0.0
  0
LINE
  5
135EC
  8
0
 10
323.00000004749722
 20
-269.24510645603738
 30
0.0
 11
323.19999999999982
 21
-269.24510645603738
 31
0.0
  0
ARC
  5
13618
  8
0
 10
338.00252115012472
 20
-238.33433821766121
 30
0.0
 40
2.4974856259058771
 50
359.87032919989127
 51
87.379702125490766
  0
ARC
  5
13619
  8
0
 10
326.9971682459269
 20
-238.33409102510549
 30
0.0
 40
2.4971743928040659
 50
92.840799175244115
 51
180.1231358141475
  0
LINE
  5
1361A
  8
0
 10
340.50000037997938
 20
-243.30957802793
 30
0.0
 11
340.50000037997938
 21
-238.33999047836269
 31
0.0
  0
LINE
  5
1361B
  8
0
 10
340.50000037997938
 20
-248.24510711094351
 30
0.0
 11
340.50000037997938
 21
-246.1809423830172
 31
0.0
  0
ARC
  5
1361C
  8
0
 10
339.99999999999977
 20
-248.24510648211449
 30
0.0
 40
0.5
 50
270.0
 51
0.0
  0
LINE
  5
1361D
  8
0
 10
324.49999962002022
 20
-246.1808920915982
 30
0.0
 11
324.49999962002022
 21
-248.24510711094351
 31
0.0
  0
LINE
  5
1361E
  8
0
 10
324.49999962002022
 20
-238.3394577618501
 30
0.0
 11
324.49999962002022
 21
-243.30927069148029
 31
0.0
  0
ARC
  5
1361F
  8
0
 10
324.99999999999977
 20
-248.24510648211449
 30
0.0
 40
0.5
 50
180.0
 51
270.0
  0
LINE
  5
13620
  8
0
 10
332.49999999999977
 20
-235.54510633310289
 30
0.0
 11
326.8734058178959
 21
-235.83998541196789
 31
0.0
  0
LINE
  5
13621
  8
0
 10
338.11669841408713
 20
-235.8394638713261
 30
0.0
 11
332.49999999999977
 21
-235.54510633310289
 31
0.0
  0
LINE
  5
13622
  8
0
 10
325.00000016763789
 20
-248.74510626157729
 30
0.0
 11
325.00000016763789
 21
-250.04510591587041
 31
0.0
  0
LINE
  5
13623
  8
0
 10
339.99999983236171
 20
-250.04510591587041
 30
0.0
 11
339.99999983236171
 21
-248.74510626157729
 31
0.0
  0
ARC
  5
13624
  8
0
 10
320.25400477734939
 20
-269.21390618284499
 30
0.0
 40
12.74695575248812
 50
313.7529142781529
 51
318.3123486220245
  0
LINE
  5
13625
  8
0
 10
336.50000018998958
 20
-275.37373556604581
 30
0.0
 11
336.50000018998958
 21
-270.04510645836569
 31
0.0
  0
LINE
  5
13626
  8
0
 10
328.49999981001002
 20
-270.04510645836569
 30
0.0
 11
328.49999981001002
 21
-275.37373556604581
 31
0.0
  0
LINE
  5
13627
  8
0
 10
345.00000018626429
 20
-264.04510634800391
 30
0.0
 11
345.00000018626429
 21
-251.85109126230691
 31
0.0
  0
LINE
  5
13628
  8
0
 10
319.99999981373531
 20
-251.85109126230691
 30
0.0
 11
319.99999981373531
 21
-264.04510634800391
 31
0.0
  0
LINE
  5
13629
  8
0
 10
319.99999981373531
 20
-264.04510634800391
 30
0.0
 11
320.4999998956917
 21
-264.5451064299603
 31
0.0
  0
LINE
  5
1362A
  8
0
 10
344.5000001043079
 20
-264.5451064299603
 30
0.0
 11
345.00000018626429
 21
-264.04510634800391
 31
0.0
  0
ARC
  5
1362B
  8
0
 10
320.49999999999977
 20
-251.85109118828419
 30
0.0
 40
0.5
 50
109.9999999999965
 51
180.0
  0
ARC
  5
1362C
  8
0
 10
344.49999999999977
 20
-251.85109118828419
 30
0.0
 40
0.5
 50
0.0
 51
69.999999999996476
  0
LINE
  5
1362D
  8
0
 10
323.99999953806378
 20
-250.04510591587041
 30
0.0
 11
320.32898951321818
 21
-251.38124461134879
 31
0.0
  0
LINE
  5
13630
  8
0
 10
338.50000005215389
 20
-270.04510645836569
 30
0.0
 11
339.50000021606661
 21
-269.0451064690759
 31
0.0
  0
LINE
  5
13631
  8
0
 10
339.50000021606661
 20
-270.04510667210428
 30
0.0
 11
339.50000021606661
 21
-267.54510645603739
 31
0.0
  0
ARC
  5
13636
  8
0
 10
359.42744677007647
 20
-244.74526020547449
 30
0.0
 40
18.981817883567381
 50
175.66231429958921
 51
184.33768570040749
  0
LINE
  5
13637
  8
0
 10
339.99999983236171
 20
-248.74510626157729
 30
0.0
 11
325.00000016763789
 21
-248.74510626157729
 31
0.0
  0
ARC
  5
13638
  8
0
 10
305.53248650002439
 20
-244.74302569046159
 30
0.0
 40
19.021935068355351
 50
355.66488199763029
 51
359.99373510751337
  0
POLYLINE
  5
13639
  8
0
 66
     1
 10
0.0
 20
0.0
 30
0.0
 70
   128
  0
VERTEX
  5
13C71
  8
0
 10
324.49999962002022
 20
-243.30927069148029
 30
0.0
  0
VERTEX
  5
13C72
  8
0
 10
324.50799223035551
 20
-243.41901774367301
 30
0.0
  0
VERTEX
  5
13C73
  8
0
 10
324.5272268354891
 20
-243.73046318849529
 30
0.0
  0
VERTEX
  5
13C74
  8
0
 10
324.54645212739689
 20
-244.1959605630299
 30
0.0
  0
VERTEX
  5
13C75
  8
0
 10
324.5523548498748
 20
-244.4654927667043
 30
0.0
  0
VERTEX
  5
13C76
  8
0
 10
324.55442145466782
 20
-244.7451056059262
 30
0.0
  0
SEQEND
  5
13C77
  8
0
  0
ARC
  5
1363A
  8
0
 10
336.9722372078952
 20
-295.8994062411802
 30
0.0
 40
19.018590479542521
 50
101.0419481548431
 51
115.495030815306
  0
LINE
  5
1363B
  8
0
 10
329.06915944069613
 20
-278.42139928450769
 30
0.0
 11
328.7860117666421
 21
-278.73279630055629
 31
0.0
  0
ARC
  5
1363C
  8
0
 10
342.44090924035339
 20
-277.24175195714912
 30
0.0
 40
6.22767095968684
 50
162.54514452101151
 51
179.11080688118139
  0
LINE
  5
1363D
  8
0
 10
336.2139882333575
 20
-277.14510644635158
 30
0.0
 11
336.2139882333575
 21
-278.84510635247432
 31
0.0
  0
LINE
  5
1363E
  8
0
 10
328.7860117666421
 20
-278.84510635247432
 30
0.0
 11
336.2139882333575
 21
-278.84510635247432
 31
0.0
  0
LINE
  5
1363F
  8
0
 10
333.32965171895898
 20
-277.23290269112192
 30
0.0
 11
333.74293880071468
 21
-277.23290269112192
 31
0.0
  0
POLYLINE
  5
13640
  8
0
 66
     1
 10
0.0
 20
0.0
 30
0.0
 70
   128
  0
VERTEX
  5
13C78
  8
0
 10
333.74293880071468
 20
-277.23290269112192
 30
0.0
  0
VERTEX
  5
13C79
  8
0
 10
333.94002283923311
 20
-277.28903955629067
 30
0.0
  0
VERTEX
  5
13C7A
  8
0
 10
334.09247592091538
 20
-277.33344408532582
 30
0.0
  0
SEQEND
  5
13C7B
  8
0
  0
LINE
  5
13641
  8
0
 10
334.09247592091538
 20
-277.33344408532582
 30
0.0
 11
334.09579841420032
 21
-277.33483874088131
 31
0.0
  0
POLYLINE
  5
13642
  8
0
 66
     1
 10
0.0
 20
0.0
 30
0.0
 70
   128
  0
VERTEX
  5
13C7C
  8
0
 10
334.09579841420032
 20
-277.33483874088131
 30
0.0
  0
VERTEX
  5
13C7D
  8
0
 10
334.22841327730549
 20
-277.38123071229057
 30
0.0
  0
VERTEX
  5
13C7E
  8
0
 10
334.61090361699439
 20
-277.4131489995678
 30
0.0
  0
VERTEX
  5
13C7F
  8
0
 10
334.72144345752872
 20
-277.39209878107511
 30
0.0
  0
VERTEX
  5
13C80
  8
0
 10
335.05242851562781
 20
-277.226803925242
 30
0.0
  0
VERTEX
  5
13C81
  8
0
 10
335.30695571564121
 20
-276.94731821155148
 30
0.0
  0
VERTEX
  5
13C82
  8
0
 10
335.51105482503749
 20
-276.51938759570919
 30
0.0
  0
VERTEX
  5
13C83
  8
0
 10
335.62963337637461
 20
-275.93998341670238
 30
0.0
  0
VERTEX
  5
13C84
  8
0
 10
335.62273111194349
 20
-275.29214844888048
 30
0.0
  0
VERTEX
  5
13C85
  8
0
 10
335.47725968994177
 20
-274.68355289509498
 30
0.0
  0
VERTEX
  5
13C86
  8
0
 10
335.34924195148028
 20
-274.4173669334312
 30
0.0
  0
VERTEX
  5
13C87
  8
0
 10
335.18171099014558
 20
-274.18990955537163
 30
0.0
  0
VERTEX
  5
13C88
  8
0
 10
334.87848609685881
 20
-273.96230456268393
 30
0.0
  0
SEQEND
  5
13C89
  8
0
  0
POLYLINE
  5
13643
  8
0
 66
     1
 10
0.0
 20
0.0
 30
0.0
 70
   128
  0
VERTEX
  5
13C8A
  8
0
 10
334.87848609685881
 20
-273.96230456268393
 30
0.0
  0
VERTEX
  5
13C8B
  8
0
 10
334.8768441751597
 20
-273.96132690681122
 30
0.0
  0
VERTEX
  5
13C8C
  8
0
 10
334.87541063688673
 20
-273.96084587870138
 30
0.0
  0
SEQEND
  5
13C8D
  8
0
  0
POLYLINE
  5
13644
  8
0
 66
     1
 10
0.0
 20
0.0
 30
0.0
 70
   128
  0
VERTEX
  5
13C8E
  8
0
 10
334.87541063688673
 20
-273.96084587870138
 30
0.0
  0
VERTEX
  5
13C8F
  8
0
 10
334.87225298769749
 20
-273.95936344599329
 30
0.0
  0
VERTEX
  5
13C90
  8
0
 10
334.66874340549089
 20
-273.89320671407478
 30
0.0
  0
SEQEND
  5
13C91
  8
0
  0
POLYLINE
  5
13645
  8
0
 66
     1
 10
0.0
 20
0.0
 30
0.0
 70
   128
  0
VERTEX
  5
13C92
  8
0
 10
334.66874340549089
 20
-273.89320671407478
 30
0.0
  0
VERTEX
  5
13C93
  8
0
 10
334.45576553232951
 20
-273.8267335653116
 30
0.0
  0
VERTEX
  5
13C94
  8
0
 10
334.28391346707917
 20
-273.77524842357241
 30
0.0
  0
SEQEND
  5
13C95
  8
0
  0
POLYLINE
  5
13646
  8
0
 66
     1
 10
0.0
 20
0.0
 30
0.0
 70
   128
  0
VERTEX
  5
13C96
  8
0
 10
333.86808061506582
 20
-273.69016116334097
 30
0.0
  0
VERTEX
  5
13C97
  8
0
 10
333.97734768688662
 20
-273.6957351289501
 30
0.0
  0
VERTEX
  5
13C98
  8
0
 10
334.28391346707917
 20
-273.77524842357241
 30
0.0
  0
SEQEND
  5
13C99
  8
0
  0
LINE
  5
13647
  8
0
 10
333.86808061506582
 20
-273.69016116334097
 30
0.0
 11
333.19459271617211
 21
-273.69016116334097
 31
0.0
  0
POLYLINE
  5
13648
  8
0
 66
     1
 10
0.0
 20
0.0
 30
0.0
 70
   128
  0
VERTEX
  5
13C9A
  8
0
 10
332.74517314159289
 20
-273.77524842357241
 30
0.0
  0
VERTEX
  5
13C9B
  8
0
 10
332.9486246325539
 20
-273.71546496486269
 30
0.0
  0
VERTEX
  5
13C9C
  8
0
 10
333.19459306541808
 20
-273.69017373619579
 30
0.0
  0
SEQEND
  5
13C9D
  8
0
  0
POLYLINE
  5
13649
  8
0
 66
     1
 10
0.0
 20
0.0
 30
0.0
 70
   128
  0
VERTEX
  5
13C9E
  8
0
 10
328.5399400442837
 20
-275.37373556604581
 30
0.0
  0
VERTEX
  5
13C9F
  8
0
 10
328.7434517219661
 20
-275.14815480297409
 30
0.0
  0
VERTEX
  5
13CA0
  8
0
 10
329.10842749290151
 20
-274.9262546267172
 30
0.0
  0
VERTEX
  5
13CA1
  8
0
 10
329.62242837995268
 20
-274.70126432215773
 30
0.0
  0
VERTEX
  5
13CA2
  8
0
 10
330.25946582667513
 20
-274.47849475627743
 30
0.0
  0
VERTEX
  5
13CA3
  8
0
 10
331.03198695927841
 20
-274.24364384112857
 30
0.0
  0
VERTEX
  5
13CA4
  8
0
 10
331.87339889584092
 20
-274.00967558694981
 30
0.0
  0
VERTEX
  5
13CA5
  8
0
 10
332.74517314159289
 20
-273.77524842357241
 30
0.0
  0
SEQEND
  5
13CA6
  8
0
  0
LINE
  5
1364A
  8
0
 10
328.5399400442837
 20
-275.37373556604581
 30
0.0
 11
328.49999981001002
 21
-275.37373556604581
 31
0.0
  0
ARC
  5
1364B
  8
0
 10
322.58781520024593
 20
-277.23711400495603
 30
0.0
 40
6.1988794202278781
 50
0.8504502206130004
 51
17.493598377195362
  0
LINE
  5
1364C
  8
0
 10
328.7860117666421
 20
-277.14510644635158
 30
0.0
 11
328.78601176664199
 21
-278.84510635247432
 31
0.0
  0
POLYLINE
  5
1364D
  8
0
 66
     1
 10
0.0
 20
0.0
 30
0.0
 70
   128
  0
VERTEX
  5
13CA7
  8
0
 10
328.5399400442837
 20
-275.37373556604581
 30
0.0
  0
VERTEX
  5
13CA8
  8
0
 10
329.13155898451782
 20
-275.97389706259571
 30
0.0
  0
VERTEX
  5
13CA9
  8
0
 10
329.73083828575892
 20
-276.5755882564743
 30
0.0
  0
SEQEND
  5
13CAA
  8
0
  0
LINE
  5
1364E
  8
0
 10
329.04773971997179
 20
-280.10392571648561
 30
0.0
 11
328.7860117666421
 21
-278.84510635247432
 31
0.0
  0
LINE
  5
1364F
  8
0
 10
336.2139882333575
 20
-278.84510635247432
 30
0.0
 11
335.95226028002782
 21
-280.10392571648561
 31
0.0
  0
LINE
  5
13650
  8
0
 10
335.16699306666828
 20
-280.84510668029981
 30
0.0
 11
329.83300693333132
 21
-280.84510668029981
 31
0.0
  0
POLYLINE
  5
13651
  8
0
 66
     1
 10
0.0
 20
0.0
 30
0.0
 70
   128
  0
VERTEX
  5
13CAB
  8
0
 10
329.83300693333132
 20
-280.84510668029981
 30
0.0
  0
VERTEX
  5
13CAC
  8
0
 10
329.83247840777022
 20
-280.84510668029981
 30
0.0
  0
VERTEX
  5
13CAD
  8
0
 10
329.70568535849429
 20
-280.83314197918378
 30
0.0
  0
SEQEND
  5
13CAE
  8
0
  0
ARC
  5
13652
  8
0
 10
329.94177485370949
 20
-279.9586984199637
 30
0.0
 40
0.9057537126683503
 50
189.2265512310986
 51
254.89105181565921
  0
ARC
  5
13653
  8
0
 10
335.08890536576882
 20
-279.98638007988768
 30
0.0
 40
0.8713200816336721
 50
283.63553682816979
 51
352.24686012507442
  0
LINE
  5
13654
  8
0
 10
335.29431464150531
 20
-280.83314197918378
 30
0.0
 11
335.16699306666828
 21
-280.84510668029981
 31
0.0
  0
ARC
  5
13655
  8
0
 10
329.15094253667161
 20
-277.16697566362632
 30
0.0
 40
0.8282383319073717
 50
1.513042137992932
 51
45.186342064513333
  0
LINE
  5
13656
  8
0
 10
329.73083828575892
 20
-276.5755882564743
 30
0.0
 11
329.73468767479039
 21
-276.57942111453019
 31
0.0
  0
ARC
  5
13657
  8
0
 10
329.24586762867659
 20
-277.18108167536531
 30
0.0
 40
0.7339067283369956
 50
315.93261558500848
 51
2.8096964803821169
  0
LINE
  5
13661
  8
0
 10
341.00000046193583
 20
-250.04510591587041
 30
0.0
 11
323.99999953806389
 21
-250.04510591587041
 31
0.0
  0
LINE
  5
1366D
  8
0
 10
326.60169525071962
 20
-270.04510645836569
 30
0.0
 11
325.58696901425702
 21
-269.0451064690759
 31
0.0
  0
LINE
  5
1366E
  8
0
 10
325.58696901425702
 20
-269.0451064690759
 30
0.0
 11
339.50000021606661
 21
-269.04510646907602
 31
0.0
  0
LINE
  5
13670
  8
0
 10
325.58696901425702
 20
-267.5451064560375
 30
0.0
 11
325.58696901425702
 21
-269.0451064690759
 31
0.0
  0
LINE
  5
13679
  8
0
 10
320.32898951321818
 20
-251.38124461134879
 30
0.0
 11
344.67101048678143
 21
-251.38124461134879
 31
0.0
  0
LINE
  5
1367A
  8
0
 10
341.00000046193583
 20
-250.04510591587041
 30
0.0
 11
344.67101048678143
 21
-251.38124461134879
 31
0.0
  0
LINE
  5
13685
  8
1
 10
332.49999999999977
 20
-285.84510668029992
 30
0.0
 11
332.49999999999977
 21
-230.54510633310289
 31
0.0
  0
LINE
  5
1368E
  8
0
 10
336.50000018998958
 20
-270.54510645603739
 30
0.0
 11
354.99999999999977
 21
-270.54510645603739
 31
0.0
  0
POLYLINE
  5
1376B
  8
5
 66
     1
 10
0.0
 20
0.0
 30
0.0
 70
     1
  0
VERTEX
  5
13CAF
  8
5
 10
445.0
 20
-308.14510668029988
 30
0.0
  0
VERTEX
  5
13CB0
  8
5
 10
135.0
 20
-308.14510668029988
 30
0.0
  0
VERTEX
  5
13CB1
  8
5
 10
135.0
 20
-10.0
 30
0.0
  0
VERTEX
  5
13CB2
  8
5
 10
445.0
 20
-10.0
 30
0.0
  0
SEQEND
  5
13CB3
  8
5
  0
ENDSEC
  0
EOF
