  0
SECTION
  2
HEADER
  9
$ACADVER
  1
AC1009
  9
$INSBASE
 10
0.0
 20
0.0
 30
0.0
  9
$EXTMIN
 10
0.0
 20
-148.3343189959819881
 30
0.0
  9
$EXTMAX
 10
349.8733495948399081
 20
193.0
 30
0.0
  9
$LIMMIN
 10
0.0
 20
0.0
  9
$LIMMAX
 10
187.5
 20
135.0
  9
$ORTHOMODE
 70
     1
  9
$REGENMODE
 70
     1
  9
$FILLMODE
 70
     1
  9
$QTEXTMODE
 70
     0
  9
$MIRRTEXT
 70
     0
  9
$DRAGMODE
 70
     2
  9
$LTSCALE
 40
2.0
  9
$OSMODE
 70
    37
  9
$ATTMODE
 70
     1
  9
$TEXTSIZE
 40
0.2
  9
$TRACEWID
 40
0.05
  9
$TEXTSTYLE
  7
STANDARD
  9
$CLAYER
  8
0
  9
$CELTYPE
  6
BYLAYER
  9
$CECOLOR
 62
   256
  9
$DIMSCALE
 40
0.5
  9
$DIMASZ
 40
3.0
  9
$DIMEXO
 40
2.0
  9
$DIMDLI
 40
0.3799999999999999
  9
$DIMRND
 40
0.0
  9
$DIMDLE
 40
0.0
  9
$DIMEXE
 40
2.0
  9
$DIMTP
 40
0.0
  9
$DIMTM
 40
0.0
  9
$DIMTXT
 40
3.2000000000000002
  9
$DIMCEN
 40
0.09
  9
$DIMTSZ
 40
0.0
  9
$DIMTOL
 70
     0
  9
$DIMLIM
 70
     0
  9
$DIMTIH
 70
     0
  9
$DIMTOH
 70
     0
  9
$DIMSE1
 70
     0
  9
$DIMSE2
 70
     0
  9
$DIMTAD
 70
     1
  9
$DIMZIN
 70
     8
  9
$DIMBLK
  1

  9
$DIMASO
 70
     0
  9
$DIMSHO
 70
     0
  9
$DIMPOST
  1

  9
$DIMAPOST
  1

  9
$DIMALT
 70
     0
  9
$DIMALTD
 70
     2
  9
$DIMALTF
 40
25.3999999999999986
  9
$DIMLFAC
 40
1.0
  9
$DIMTOFL
 70
     0
  9
$DIMTVP
 40
1.6000000000000001
  9
$DIMTIX
 70
     1
  9
$DIMSOXD
 70
     0
  9
$DIMSAH
 70
     0
  9
$DIMBLK1
  1

  9
$DIMBLK2
  1

  9
$DIMSTYLE
  2
STANDARD
  9
$DIMCLRD
 70
     0
  9
$DIMCLRE
 70
     0
  9
$DIMCLRT
 70
     0
  9
$DIMTFAC
 40
1.0
  9
$DIMGAP
 40
1.0
  9
$LUNITS
 70
     2
  9
$LUPREC
 70
     1
  9
$SKETCHINC
 40
0.1
  9
$FILLETRAD
 40
0.4
  9
$AUNITS
 70
     0
  9
$AUPREC
 70
     1
  9
$MENU
  1
E:\r13\win\SUPPORT\ACAD
  9
$ELEVATION
 40
0.0
  9
$PELEVATION
 40
0.0
  9
$THICKNESS
 40
0.0
  9
$LIMCHECK
 70
     0
  9
$BLIPMODE
 70
     0
  9
$CHAMFERA
 40
0.0
  9
$CHAMFERB
 40
0.0
  9
$SKPOLY
 70
     0
  9
$TDCREATE
 40
2451824.6906134258024395
  9
$TDUPDATE
 40
2461060.6123032411560416
  9
$TDINDWG
 40
0.9790288657
  9
$TDUSRTIMER
 40
0.9790288657
  9
$USRTIMER
 70
     1
  9
$ANGBASE
 50
0.0
  9
$ANGDIR
 70
     0
  9
$PDMODE
 70
     0
  9
$PDSIZE
 40
0.0
  9
$PLINEWID
 40
0.0
  9
$COORDS
 70
     1
  9
$SPLFRAME
 70
     0
  9
$SPLINETYPE
 70
     6
  9
$SPLINESEGS
 70
     8
  9
$ATTDIA
 70
     1
  9
$ATTREQ
 70
     1
  9
$HANDLING
 70
     1
  9
$HANDSEED
  5
10FC8
  9
$SURFTAB1
 70
     6
  9
$SURFTAB2
 70
     6
  9
$SURFTYPE
 70
     6
  9
$SURFU
 70
     6
  9
$SURFV
 70
     6
  9
$UCSNAME
  2

  9
$UCSORG
 10
0.0
 20
0.0
 30
0.0
  9
$UCSXDIR
 10
1.0
 20
0.0
 30
0.0
  9
$UCSYDIR
 10
0.0
 20
1.0
 30
0.0
  9
$PUCSNAME
  2

  9
$PUCSORG
 10
0.0
 20
0.0
 30
0.0
  9
$PUCSXDIR
 10
1.0
 20
0.0
 30
0.0
  9
$PUCSYDIR
 10
0.0
 20
1.0
 30
0.0
  9
$USERI1
 70
     0
  9
$USERI2
 70
     1
  9
$USERI3
 70
     0
  9
$USERI4
 70
     0
  9
$USERI5
 70
     0
  9
$USERR1
 40
0.0
  9
$USERR2
 40
0.0
  9
$USERR3
 40
0.0
  9
$USERR4
 40
0.0
  9
$USERR5
 40
0.0
  9
$WORLDVIEW
 70
     1
  9
$SHADEDGE
 70
     3
  9
$SHADEDIF
 70
    70
  9
$TILEMODE
 70
     1
  9
$MAXACTVP
 70
    16
  9
$PLIMCHECK
 70
     0
  9
$PEXTMIN
 10
1.0000000000000000E+20
 20
1.0000000000000000E+20
 30
1.0000000000000000E+20
  9
$PEXTMAX
 10
-1.0000000000000000E+20
 20
-1.0000000000000000E+20
 30
-1.0000000000000000E+20
  9
$PLIMMIN
 10
0.0
 20
0.0
  9
$PLIMMAX
 10
12.0
 20
9.0
  9
$UNITMODE
 70
     0
  9
$VISRETAIN
 70
     0
  9
$PLINEGEN
 70
     0
  9
$PSLTSCALE
 70
     0
  0
ENDSEC
  0
SECTION
  2
TABLES
  0
TABLE
  2
VPORT
 70
     1
  0
VPORT
  2
*ACTIVE
 70
     0
 10
0.0
 20
0.0
 11
1.0
 21
1.0
 12
364.107883817427421
 22
150.0
 13
0.0
 23
0.0
 14
5.0
 24
5.0
 15
5.0
 25
5.0
 16
0.0
 26
0.0
 36
1.0
 17
0.0
 27
0.0
 37
0.0
 40
300.0
 41
2.4273858921161819
 42
50.0
 43
0.0
 44
0.0
 50
0.0
 51
0.0
 71
     0
 72
   500
 73
     1
 74
     0
 75
     0
 76
     0
 77
     0
 78
     2
  0
ENDTAB
  0
TABLE
  2
LTYPE
 70
     5
  0
LTYPE
  2
CONTINUOUS
 70
     0
  3
Solid Line
 72
    65
 73
     0
 40
0.0
  0
LTYPE
  2
CENTER
 70
     0
  3
____ _ ____ _ ____ _ ____ _ ____ _ ____ _ ____
 72
    65
 73
     4
 40
2.0
 49
1.25
 49
-0.25
 49
0.25
 49
-0.25
  0
LTYPE
  2
PHANTOM2
 70
     0
  3
___ _ _ ___ _ _ ___ _ _ ___ _ _
 72
    65
 73
     6
 40
1.25
 49
0.625
 49
-0.125
 49
0.125
 49
-0.125
 49
0.125
 49
-0.125
  0
LTYPE
  2
PHANTOM
 70
     0
  3
_____ _ _ _____ _ _ _____ _ _ _____ _ _ ____
 72
    65
 73
     6
 40
2.5
 49
1.25
 49
-0.25
 49
0.25
 49
-0.25
 49
0.25
 49
-0.25
  0
LTYPE
  2
HIDDEN
 70
     0
  3
Hidden __ __ __ __ __ __ __ __ __ __ __ __ __ __
 72
    65
 73
     2
 40
1.905
 49
1.27
 49
-0.635
  0
ENDTAB
  0
TABLE
  2
LAYER
 70
     6
  0
LAYER
  2
0
 70
     0
 62
     7
  6
CONTINUOUS
  0
LAYER
  2
1
 70
     0
 62
     1
  6
CENTER
  0
LAYER
  2
3
 70
     0
 62
     3
  6
CONTINUOUS
  0
LAYER
  2
DEFPOINTS
 70
     0
 62
     7
  6
CONTINUOUS
  0
LAYER
  2
5
 70
     0
 62
     3
  6
PHANTOM
  0
LAYER
  2
2
 70
     0
 62
     2
  6
HIDDEN
  0
ENDTAB
  0
TABLE
  2
STYLE
 70
     2
  0
STYLE
  2
STANDARD
 70
     0
 40
0.0
 41
1.0
 50
0.0
 71
     0
 42
0.2
  3
TXT
  4
BIGFONT
  0
STYLE
  2
STANDARD1
 70
     0
 40
0.0
 41
1.0
 50
0.0
 71
     0
 42
3.0
  3
txt
  4

  0
ENDTAB
  0
TABLE
  2
VIEW
 70
     0
  0
ENDTAB
  0
TABLE
  2
UCS
 70
     0
  0
ENDTAB
  0
TABLE
  2
APPID
 70
   132
  0
APPID
  2
ACAD
 70
     0
  0
APPID
  2
ACAD_MLEADERVER
 70
     0
  0
APPID
  2
ACAD_EXEMPT_FROM_CAD_STANDARDS
 70
     0
  0
APPID
  2
ACAD_DSTYLE_DIMJAG
 70
     0
  0
APPID
  2
ACAD_DSTYLE_DIMTALN
 70
     0
  0
APPID
  2
ACAD_NAV_VCDISPLAY
 70
     0
  0
APPID
  2
ACADANNOTATIVE
 70
     0
  0
APPID
  2
ACAD_PSEXT
 70
     0
  0
APPID
  2
ACAECLAYERSTANDARD
 70
     0
  0
APPID
  2
ACCMTRANSPARENCY
 70
     0
  0
APPID
  2
ACAD_DSTYLE_DIMRADIAL_EXTENSION
 70
     0
  0
APPID
  2
_FTCNV
 70
     0
  0
APPID
  2
GENIUS_GENODEF_13
 70
     0
  0
APPID
  2
GENIUS_GENOENT_13
 70
     0
  0
APPID
  2
GENIUS_GENOBJ-N-CEN_13
 70
     0
  0
APPID
  2
GENIUS_GENOLIS_13
 70
     0
  0
APPID
  2
GENIUS_GENOREF_13
 70
     0
  0
APPID
  2
GENIUS_GENOBJ-N-CRS_13
 70
     0
  0
APPID
  2
GENIUS_GENOBJ-N-FIL_13
 70
     0
  0
APPID
  2
GENIUS_GENOBJ-N-REC_13
 70
     0
  0
APPID
  2
GENIUS_GENFIL_13
 70
     0
  0
APPID
  2
GENIUS_GENOBJ-N-CHA_13
 70
     0
  0
APPID
  2
ASM_BASE
 70
     0
  0
APPID
  2
_PHO
 70
     0
  0
APPID
  2
_CLP
 70
     0
  0
APPID
  2
MOJIGUMI_PARTS
 70
     0
  0
APPID
  2
_DBL
 70
     0
  0
APPID
  2
_PWH
 70
     0
  0
APPID
  2
_G9P
 70
     0
  0
APPID
  2
AME_SOL
 70
     0
  0
APPID
  2
HAKO_DEF
 70
     0
  0
APPID
  2
HAKO_TXT
 70
     0
  0
APPID
  2
HAKO_OVR
 70
     0
  0
APPID
  2
ASM_EXPLO_VER_2_00
 70
     0
  0
APPID
  2
ASM_CADM_VER_12_00
 70
     0
  0
APPID
  2
ASM_BASEFORO
 70
     0
  0
APPID
  2
ASM_BASETRAVI
 70
     0
  0
APPID
  2
ASM_BASETRAVI1
 70
     0
  0
APPID
  2
ASM_GRUPPI
 70
     0
  0
APPID
  2
ASM_CADM_ALBERO
 70
     0
  0
APPID
  2
ASM_GOLE
 70
     0
  0
APPID
  2
GENIUS_GENCFG_13
 70
     0
  0
APPID
  2
GENIUS_GENCFG0_13
 70
     0
  0
APPID
  2
GENIUS_GENCFG1_13
 70
     0
  0
APPID
  2
GENIUS_GENCFG2_13
 70
     0
  0
APPID
  2
GENIUS_GENCFG3_13
 70
     0
  0
APPID
  2
GENIUS_GENCFG4_13
 70
     0
  0
APPID
  2
GENIUS_GEVCFG0_13
 70
     0
  0
APPID
  2
GENIUS_GENHATCH_13
 70
     0
  0
APPID
  2
GENIUS_GEFCFG0_13
 70
     0
  0
APPID
  2
GENIUS_GENOBJ-N-HTC_13
 70
     0
  0
APPID
  2
DCO15
 70
     0
  0
APPID
  2
AVE_RENDER
 70
     0
  0
APPID
  2
AVE_ENTITY_MATERIAL
 70
     0
  0
APPID
  2
AVE_FINISH
 70
     0
  0
APPID
  2
AVE_MATERIAL
 70
     0
  0
APPID
  2
AVE_GLOBAL
 70
     0
  0
APPID
  2
_NUM
 70
     0
  0
APPID
  2
HAKO_FNM
 70
     0
  0
APPID
  2
_CALL_MAC$
 70
     0
  0
APPID
  2
ACA_CADIMENU
 70
     0
  0
APPID
  2
AUTOCAD_POSTSCRIPT_FIGURE
 70
     0
  0
APPID
  2
GEV_VCCNULL_SWITCH_OFF
 70
     0
  0
APPID
  2
GENIUS_GENDTOL_13
 70
     0
  0
APPID
  2
GENIUS_GEFWELD_13
 70
     0
  0
APPID
  2
GENIUS_GENOBJ-F-WELS_13
 70
     0
  0
APPID
  2
GEVID961514679
 70
     0
  0
APPID
  2
GEVDC
 70
     0
  0
APPID
  2
GEVPT
 70
     0
  0
APPID
  2
GEVIT
 70
     0
  0
APPID
  2
VCC
 70
     0
  0
APPID
  2
GENBH
 70
     0
  0
APPID
  2
GEVMK
 70
     0
  0
APPID
  2
GENIUS_GENBH_13
 70
     0
  0
APPID
  2
GENIUS_GENOBJ-NBEHI-BHF_13
 70
     0
  0
APPID
  2
GENIUS_GENOBJ-NBEHI-BHB_13
 70
     0
  0
APPID
  2
GENIUS_GENOBJ-F-DESC_13
 70
     0
  0
APPID
  2
GENIUS_GEFDESC_14
 70
     0
  0
APPID
  2
GENIUS_GENOBJ-F-PART_13
 70
     0
  0
APPID
  2
GENIUS_GEFSTDP_13
 70
     0
  0
APPID
  2
GENIUS_GEFPARTINS_13
 70
     0
  0
APPID
  2
GEVID961514680
 70
     0
  0
APPID
  2
GENIUS_GENTRA_14
 70
     0
  0
APPID
  2
GENIUS_GENINF13_13
 70
     0
  0
APPID
  2
GENIUS_GENOBJ-N-INFOPT_13
 70
     0
  0
APPID
  2
GENIUS_GENOBJ-N-RSSYM_13
 70
     0
  0
APPID
  2
GENIUS_GENSYMENT_13
 70
     0
  0
APPID
  2
GENIUS_GENSCSYM_13
 70
     0
  0
APPID
  2
GENIUS_GEFINFNAM_13
 70
     0
  0
APPID
  2
GENIUS_GENREC_14
 70
     0
  0
APPID
  2
GEVID962097543
 70
     0
  0
APPID
  2
GEVID962097544
 70
     0
  0
APPID
  2
GEVID962097545
 70
     0
  0
APPID
  2
GENIUS_DUMCFG0_13
 70
     0
  0
APPID
  2
GEVID962352965
 70
     0
  0
APPID
  2
GEVID962352966
 70
     0
  0
APPID
  2
GEVID962352968
 70
     0
  0
APPID
  2
GEVRADREF
 70
     0
  0
APPID
  2
GEVID963230099
 70
     0
  0
APPID
  2
GENIUS_GENOBJ-F-FEAT_13
 70
     0
  0
APPID
  2
GENIUS_GEFFEAT_14
 70
     0
  0
APPID
  2
GEVID963230100
 70
     0
  0
APPID
  2
GEVID963230101
 70
     0
  0
APPID
  2
GENIUS_GENHINW_13
 70
     0
  0
APPID
  2
GENIUS_FIRSTVISTXT_14
 70
     0
  0
APPID
  2
GENIUS_GENOBJ-N-LEADER_13
 70
     0
  0
APPID
  2
GEVID971698136
 70
     0
  0
APPID
  2
GEVID972029070
 70
     0
  0
APPID
  2
MCAD_NO_VIS
 70
     0
  0
APPID
  2
ACAD_TEMP_GRAPHIC
 70
     0
  0
APPID
  2
ACATTRIBSERVICES
 70
     0
  0
APPID
  2
GENIUS_GENDIMSH_14
 70
     0
  0
APPID
  2
CONTENTTABDATA
 70
     0
  0
APPID
  2
CONTENTCURRENTTAB
 70
     0
  0
APPID
  2
GENIUS_GENBLKED_14
 70
     0
  0
APPID
  2
GENIUS_GENOBJ_13
 70
     0
  0
APPID
  2
GENIUS_GENOBJ-N-TIT_13
 70
     0
  0
APPID
  2
GENIUS_GENTITLE_13
 70
     0
  0
APPID
  2
GENIUS_GENZVEED_13
 70
     0
  0
APPID
  2
GENIUS_GEFINERT_13
 70
     0
  0
APPID
  2
GENIUS_GENOBJ-F-INER_13
 70
     0
  0
APPID
  2
GENIUS_GENOBJ-N-ZOO_13
 70
     0
  0
APPID
  2
GENIUS_GENZOO_13
 70
     0
  0
APPID
  2
GENIUS_GENOBJ-F-TOL_13
 70
     0
  0
APPID
  2
GENIUS_GENOBJ-N-REV_13
 70
     0
  0
APPID
  2
GENIUS_GENREC_13
 70
     0
  0
APPID
  2
_KTH
 70
     0
  0
APPID
  2
GENIUS_GENOBJ-N-SEC_13
 70
     0
  0
APPID
  2
ACAD_DSTYLE_DIMBREAK
 70
     0
  0
APPID
  2
ACAD_DSTYLE_DIM_LINETYPE
 70
     0
  0
APPID
  2
GRADIENTCOLOR1ACI
 70
     0
  0
APPID
  2
GRADIENTCOLOR2ACI
 70
     0
  0
ENDTAB
  0
TABLE
  2
DIMSTYLE
 70
     1
  0
DIMSTYLE
  2
STANDARD
 70
     0
  3

  4

  5

  6

  7

 40
1.0
 41
0.18
 42
0.0625
 43
0.38
 44
0.18
 45
0.0
 46
0.0
 47
0.0
 48
0.0
140
0.18
141
0.09
142
0.0
143
25.3999999999999986
144
1.0
145
0.0
146
1.0
147
0.09
 71
     0
 72
     0
 73
     1
 74
     1
 75
     0
 76
     0
 77
     0
 78
     0
170
     0
171
     2
172
     0
173
     0
174
     0
175
     0
176
     0
177
     0
178
     0
  0
ENDTAB
  0
ENDSEC
  0
SECTION
  2
BLOCKS
  0
BLOCK
  8
0
  2
$MODEL_SPACE
 70
     0
 10
0.0
 20
0.0
 30
0.0
  3
$MODEL_SPACE
  1

  0
ENDBLK
  5
9
  8
0
  0
BLOCK
 67
     1
  8
0
  2
$PAPER_SPACE
 70
     0
 10
0.0
 20
0.0
 30
0.0
  3
$PAPER_SPACE
  1

  0
ENDBLK
  5
E
 67
     1
  8
0
  0
ENDSEC
  0
SECTION
  2
ENTITIES
  0
LINE
  5
103B9
  8
0
 10
56.4242486955692968
 20
180.75
 30
0.0
 11
57.424248695569311
 21
180.75
 31
0.0
  0
LINE
  5
103BA
  8
0
 10
66.5757513044308098
 20
180.75
 30
0.0
 11
67.5757513044308098
 21
180.75
 31
0.0
  0
LINE
  5
103BB
  8
0
 10
67.5757513044308098
 20
165.25
 30
0.0
 11
66.5757513044308098
 21
165.25
 31
0.0
  0
LINE
  5
103BC
  8
0
 10
57.424248695569311
 20
165.25
 30
0.0
 11
56.4242486955692968
 21
165.25
 31
0.0
  0
CIRCLE
  5
103BD
  8
0
 10
75.5
 20
173.0
 30
0.0
 40
2.75
  0
LINE
  5
103BE
  8
0
 10
75.5
 20
174.1547005383791031
 30
0.0
 11
74.5
 21
173.5773502691895942
 31
0.0
  0
LINE
  5
103BF
  8
0
 10
74.5
 20
173.5773502691895942
 30
0.0
 11
74.5
 21
172.4226497308102921
 31
0.0
  0
LINE
  5
103C0
  8
0
 10
74.5
 20
172.4226497308102921
 30
0.0
 11
75.5
 21
171.8452994616208116
 31
0.0
  0
LINE
  5
103C1
  8
0
 10
75.5
 20
171.8452994616208116
 30
0.0
 11
76.5
 21
172.4226497308102921
 31
0.0
  0
LINE
  5
103C2
  8
0
 10
76.5
 20
172.4226497308102921
 30
0.0
 11
76.5
 21
173.5773502691895942
 31
0.0
  0
LINE
  5
103C3
  8
0
 10
76.5
 20
173.5773502691895942
 30
0.0
 11
75.5
 21
174.1547005383791031
 31
0.0
  0
CIRCLE
  5
103C4
  8
0
 10
62.0
 20
159.5
 30
0.0
 40
2.75
  0
LINE
  5
103C5
  8
0
 10
62.0
 20
160.6547005383793021
 30
0.0
 11
61.0
 21
160.0773502691895942
 31
0.0
  0
LINE
  5
103C6
  8
0
 10
61.0
 20
160.0773502691895942
 30
0.0
 11
61.0
 21
158.9226497308102921
 31
0.0
  0
LINE
  5
103C7
  8
0
 10
61.0
 20
158.9226497308102921
 30
0.0
 11
62.0
 21
158.3452994616208116
 31
0.0
  0
LINE
  5
103C8
  8
0
 10
62.0
 20
158.3452994616208116
 30
0.0
 11
63.0
 21
158.9226497308102921
 31
0.0
  0
LINE
  5
103C9
  8
0
 10
63.0
 20
158.9226497308102921
 30
0.0
 11
63.0
 21
160.0773502691895942
 31
0.0
  0
LINE
  5
103CA
  8
0
 10
63.0
 20
160.0773502691895942
 30
0.0
 11
62.0
 21
160.6547005383793021
 31
0.0
  0
CIRCLE
  5
103CB
  8
0
 10
48.5
 20
173.0
 30
0.0
 40
2.75
  0
LINE
  5
103CC
  8
0
 10
48.5
 20
174.1547005383791031
 30
0.0
 11
47.5
 21
173.5773502691895942
 31
0.0
  0
LINE
  5
103CD
  8
0
 10
47.5
 20
173.5773502691895942
 30
0.0
 11
47.5
 21
172.4226497308102921
 31
0.0
  0
LINE
  5
103CE
  8
0
 10
47.5
 20
172.4226497308102921
 30
0.0
 11
48.5
 21
171.8452994616208116
 31
0.0
  0
LINE
  5
103CF
  8
0
 10
48.5
 20
171.8452994616208116
 30
0.0
 11
49.5
 21
172.4226497308102921
 31
0.0
  0
LINE
  5
103D0
  8
0
 10
49.5
 20
172.4226497308102921
 30
0.0
 11
49.5
 21
173.5773502691895942
 31
0.0
  0
LINE
  5
103D1
  8
0
 10
49.5
 20
173.5773502691895942
 30
0.0
 11
48.5
 21
174.1547005383791031
 31
0.0
  0
CIRCLE
  5
103D2
  8
0
 10
62.0
 20
186.5
 30
0.0
 40
2.75
  0
LINE
  5
103D3
  8
0
 10
62.0
 20
187.6547005383793021
 30
0.0
 11
61.0
 21
187.0773502691895942
 31
0.0
  0
LINE
  5
103D4
  8
0
 10
61.0
 20
187.0773502691895942
 30
0.0
 11
61.0
 21
185.9226497308102921
 31
0.0
  0
LINE
  5
103D5
  8
0
 10
61.0
 20
185.9226497308102921
 30
0.0
 11
62.0
 21
185.3452994616208116
 31
0.0
  0
LINE
  5
103D6
  8
0
 10
62.0
 20
185.3452994616208116
 30
0.0
 11
63.0
 21
185.9226497308102921
 31
0.0
  0
LINE
  5
103D7
  8
0
 10
63.0
 20
185.9226497308102921
 30
0.0
 11
63.0
 21
187.0773502691895942
 31
0.0
  0
LINE
  5
103D8
  8
0
 10
63.0
 20
187.0773502691895942
 30
0.0
 11
62.0
 21
187.6547005383793021
 31
0.0
  0
LINE
  5
103D9
  8
0
 10
71.7860143790661596
 20
181.6241050711915079
 30
0.0
 11
71.5151922469877945
 21
181.5763518223330948
 31
0.0
  0
ARC
  5
103DA
  8
0
 10
72.5
 20
181.75
 30
0.0
 40
0.7249999999999801
 50
190.0000000000048885
 51
170.0000000000013074
  0
LINE
  5
103DB
  8
0
 10
71.7860143790661596
 20
181.8758949288084921
 30
0.0
 11
71.5151922469877945
 21
181.9236481776669052
 31
0.0
  0
LINE
  5
103DC
  8
0
 10
50.7860143790662732
 20
164.1241050711915079
 30
0.0
 11
50.5151922469877874
 21
164.0763518223330948
 31
0.0
  0
ARC
  5
103DD
  8
0
 10
51.5
 20
164.25
 30
0.0
 40
0.7249999999999891
 50
189.9999999999986073
 51
170.0000000000013074
  0
LINE
  5
103DE
  8
0
 10
50.7860143790661596
 20
164.3758949288084921
 30
0.0
 11
50.5151922469877874
 21
164.4236481776669052
 31
0.0
  0
LINE
  5
103DF
  8
0
 10
63.0
 20
182.0
 30
0.0
 11
61.0
 21
182.0
 31
0.0
  0
CIRCLE
  5
103E0
  8
0
 10
75.5
 20
173.0
 30
0.0
 40
2.9000000000000048
  0
CIRCLE
  5
103E1
  8
0
 10
62.0
 20
186.5
 30
0.0
 40
2.899999999999991
  0
CIRCLE
  5
103E2
  8
0
 10
51.5
 20
164.25
 30
0.0
 40
1.0
  0
CIRCLE
  5
103E3
  8
0
 10
48.5
 20
173.0
 30
0.0
 40
2.9000000000000048
  0
ARC
  5
103E4
  8
0
 10
63.0
 20
173.0
 30
0.0
 40
9.0000000000000284
 50
270.0
 51
90.0
  0
CIRCLE
  5
103E5
  8
0
 10
62.0
 20
173.0
 30
0.0
 40
17.0
  0
CIRCLE
  5
103E6
  8
0
 10
62.0
 20
159.5
 30
0.0
 40
2.899999999999991
  0
CIRCLE
  5
103E7
  8
0
 10
72.5
 20
181.75
 30
0.0
 40
1.000000000000014
  0
LINE
  5
103E8
  8
0
 10
61.0
 20
164.0
 30
0.0
 11
63.0
 21
164.0
 31
0.0
  0
ARC
  5
103E9
  8
0
 10
61.0
 20
173.0
 30
0.0
 40
9.0000000000000284
 50
90.0
 51
270.0
  0
LINE
  5
103EA
  8
0
 10
69.1911403824428817
 20
175.5
 30
0.0
 11
65.1224989991992516
 21
175.5
 31
0.0
  0
LINE
  5
103EB
  8
0
 10
66.8989794855664286
 20
175.5
 30
0.0
 11
67.1961524227067457
 21
176.0
 31
0.0
  0
LINE
  5
103EC
  8
0
 10
67.1961524227067457
 20
176.0
 30
0.0
 11
69.1911403824428817
 21
176.0
 31
0.0
  0
LINE
  5
103ED
  8
0
 10
56.803847577293368
 20
170.0
 30
0.0
 11
54.808859617557232
 21
170.0
 31
0.0
  0
LINE
  5
103EE
  8
0
 10
54.808859617557232
 20
170.5
 30
0.0
 11
58.8775010008008621
 21
170.5
 31
0.0
  0
LINE
  5
103EF
  8
0
 10
57.101020514433678
 20
170.5
 30
0.0
 11
56.803847577293368
 21
170.0
 31
0.0
  0
ARC
  5
103F0
  8
0
 10
54.808859617557232
 20
170.6999999999999886
 30
0.0
 40
0.7000000000000263
 50
197.7362517999744966
 51
270.0
  0
ARC
  5
103F1
  8
0
 10
54.808859617557232
 20
170.6999999999999886
 30
0.0
 40
0.2000000000000163
 50
197.7362517999750082
 51
270.0
  0
ARC
  5
103F2
  8
0
 10
62.0
 20
173.0
 30
0.0
 40
8.2500000000000266
 50
162.2637482000253897
 51
197.7362517999744966
  0
ARC
  5
103F3
  8
0
 10
62.0
 20
173.0
 30
0.0
 40
7.7500000000000151
 50
162.2637482000253897
 51
197.7362517999744966
  0
ARC
  5
103F4
  8
0
 10
54.808859617557232
 20
175.3000000000000966
 30
0.0
 40
0.7000000000000263
 50
90.0
 51
162.2637482000253897
  0
ARC
  5
103F5
  8
0
 10
54.808859617557232
 20
175.3000000000000966
 30
0.0
 40
0.200000000000017
 50
90.0
 51
162.2637482000330067
  0
LINE
  5
103F6
  8
0
 10
58.8775010008007484
 20
175.4999999999998863
 30
0.0
 11
54.808859617557232
 21
175.5
 31
0.0
  0
LINE
  5
103F7
  8
0
 10
54.808859617557232
 20
176.0
 30
0.0
 11
56.803847577293368
 21
176.0
 31
0.0
  0
LINE
  5
103F8
  8
0
 10
56.803847577293368
 20
176.0
 30
0.0
 11
57.101020514433678
 21
175.5
 31
0.0
  0
ARC
  5
103F9
  8
0
 10
62.0
 20
173.0
 30
0.0
 40
3.999999999999996
 50
38.6821874534886874
 51
141.3178125465113055
  0
ARC
  5
103FA
  8
0
 10
62.0
 20
173.0
 30
0.0
 40
6.0000000000000124
 50
30.0000000000009486
 51
149.9999999999990052
  0
LINE
  5
103FB
  8
0
 10
65.1224989991992516
 20
170.5
 30
0.0
 11
69.1911403824428817
 21
170.5
 31
0.0
  0
LINE
  5
103FC
  8
0
 10
69.1911403824428817
 20
170.0
 30
0.0
 11
67.1961524227067457
 21
170.0
 31
0.0
  0
LINE
  5
103FD
  8
0
 10
67.1961524227067457
 20
170.0
 30
0.0
 11
66.8989794855664286
 21
170.5
 31
0.0
  0
ARC
  5
103FE
  8
0
 10
69.1911403824428817
 20
170.6999999999999886
 30
0.0
 40
0.2000000000000163
 50
270.0
 51
342.2637482000250202
  0
ARC
  5
103FF
  8
0
 10
69.1911403824428817
 20
170.6999999999999886
 30
0.0
 40
0.6999999999999992
 50
270.0
 51
342.2637482000254181
  0
ARC
  5
10400
  8
0
 10
62.0
 20
173.0
 30
0.0
 40
7.7500000000000151
 50
342.2637482000254181
 51
17.7362517999745606
  0
ARC
  5
10401
  8
0
 10
62.0
 20
173.0
 30
0.0
 40
8.2499999999999982
 50
342.2637482000254181
 51
17.7362517999745606
  0
ARC
  5
10402
  8
0
 10
62.0
 20
173.0
 30
0.0
 40
3.999999999999996
 50
218.6821874534886945
 51
321.3178125465112771
  0
ARC
  5
10403
  8
0
 10
62.0
 20
173.0
 30
0.0
 40
6.0000000000000124
 50
210.0000000000009095
 51
329.9999999999990905
  0
ARC
  5
10404
  8
0
 10
69.1911403824428817
 20
175.3000000000000966
 30
0.0
 40
0.200000000000017
 50
17.7362517999669507
 51
90.0
  0
ARC
  5
10405
  8
0
 10
69.1911403824428817
 20
175.3000000000000966
 30
0.0
 40
0.7000000000000171
 50
17.7362517999745606
 51
90.0
  0
CIRCLE
  5
10406
  8
0
 10
62.0
 20
173.0
 30
0.0
 40
8.5000000000000284
  0
CIRCLE
  5
10407
  8
0
 10
62.0
 20
173.0
 30
0.0
 40
9.0000000000000284
  0
LINE
  5
10408
  8
0
 10
47.0
 20
118.0
 30
0.0
 11
47.0
 21
114.5
 31
0.0
  0
LINE
  5
10409
  8
0
 10
50.0
 20
114.5
 30
0.0
 11
50.0
 21
118.0
 31
0.0
  0
LINE
  5
1040A
  8
0
 10
74.0
 20
118.0
 30
0.0
 11
74.0
 21
114.5
 31
0.0
  0
LINE
  5
1040B
  8
0
 10
77.0
 20
114.5
 30
0.0
 11
77.0
 21
118.0
 31
0.0
  0
LINE
  5
1040C
  8
0
 10
60.5
 20
118.0
 30
0.0
 11
60.5
 21
114.5
 31
0.0
  0
LINE
  5
1040D
  8
0
 10
63.5
 20
114.5
 30
0.0
 11
63.5
 21
118.0
 31
0.0
  0
LINE
  5
1040E
  8
0
 10
45.0
 20
118.2999999999998977
 30
0.0
 11
45.2999999999999474
 21
118.0
 31
0.0
  0
LINE
  5
1040F
  8
0
 10
78.7000000000000455
 20
118.0
 30
0.0
 11
79.0
 21
118.2999999999998977
 31
0.0
  0
LINE
  5
10410
  8
0
 10
79.0
 20
118.2999999999998977
 30
0.0
 11
79.0
 21
122.7000000000000028
 31
0.0
  0
LINE
  5
10411
  8
0
 10
45.0
 20
122.7000000000000028
 30
0.0
 11
45.0
 21
118.2999999999998977
 31
0.0
  0
LINE
  5
10412
  8
0
 10
79.0
 20
122.7000000000000028
 30
0.0
 11
78.7000000000000455
 21
123.0
 31
0.0
  0
LINE
  5
10413
  8
0
 10
45.2999999999999474
 20
123.0
 30
0.0
 11
45.0
 21
122.7000000000000028
 31
0.0
  0
LINE
  5
10414
  8
0
 10
72.0
 20
117.7999999999998977
 30
0.0
 11
71.7999999999999545
 21
118.0
 31
0.0
  0
LINE
  5
10415
  8
0
 10
52.0
 20
117.7999999999998977
 30
0.0
 11
52.0
 21
113.0
 31
0.0
  0
LINE
  5
10416
  8
0
 10
72.0
 20
113.0
 30
0.0
 11
72.0
 21
117.7999999999998977
 31
0.0
  0
LINE
  5
10417
  8
0
 10
52.0
 20
113.0
 30
0.0
 11
53.0
 21
112.0
 31
0.0
  0
LINE
  5
10418
  8
0
 10
71.0
 20
112.0
 30
0.0
 11
72.0
 21
113.0
 31
0.0
  0
LINE
  5
10419
  8
0
 10
47.0
 20
114.5
 30
0.0
 11
50.0
 21
114.5
 31
0.0
  0
LINE
  5
1041A
  8
0
 10
74.0
 20
114.5
 30
0.0
 11
77.0
 21
114.5
 31
0.0
  0
LINE
  5
1041B
  8
0
 10
60.5
 20
114.5
 30
0.0
 11
63.5
 21
114.5
 31
0.0
  0
LINE
  5
1041C
  8
0
 10
78.7000000000000455
 20
118.0
 30
0.0
 11
45.2999999999999474
 21
118.0
 31
0.0
  0
POLYLINE
  5
1041D
  8
0
 66
     1
 10
0.0
 20
0.0
 30
0.0
 70
   128
  0
VERTEX
  5
10F7B
  8
0
 10
47.4247641528515871
 20
122.0499999999998977
 30
0.0
  0
VERTEX
  5
10F7C
  8
0
 10
47.5910546262641674
 20
122.0200864166581027
 30
0.0
  0
VERTEX
  5
10F7D
  8
0
 10
47.7563089222000983
 20
121.9321063767843043
 30
0.0
  0
VERTEX
  5
10F7E
  8
0
 10
47.89875276749774
 20
121.8036127893442995
 30
0.0
  0
VERTEX
  5
10F7F
  8
0
 10
48.0282846415449285
 20
121.6300918548118943
 30
0.0
  0
VERTEX
  5
10F80
  8
0
 10
48.1760992878354273
 20
121.3027695202078036
 30
0.0
  0
VERTEX
  5
10F81
  8
0
 10
48.2491559076468093
 20
120.9034315164413016
 30
0.0
  0
VERTEX
  5
10F82
  8
0
 10
48.233009343242081
 20
120.5438012656147038
 30
0.0
  0
VERTEX
  5
10F83
  8
0
 10
48.1533832545048881
 20
120.2302768478614041
 30
0.0
  0
VERTEX
  5
10F84
  8
0
 10
48.0141328501035787
 20
119.9474416120076938
 30
0.0
  0
VERTEX
  5
10F85
  8
0
 10
47.8097649734180479
 20
119.7097719055558969
 30
0.0
  0
VERTEX
  5
10F86
  8
0
 10
47.544865102384847
 20
119.5656235821969062
 30
0.0
  0
VERTEX
  5
10F87
  8
0
 10
47.3971565396262804
 20
119.5509709859048968
 30
0.0
  0
VERTEX
  5
10F88
  8
0
 10
47.254308150562558
 20
119.5842044148180037
 30
0.0
  0
VERTEX
  5
10F89
  8
0
 10
47.1213283606716686
 20
119.6665601560421948
 30
0.0
  0
VERTEX
  5
10F8A
  8
0
 10
47.0015907407065399
 20
119.7977704876040974
 30
0.0
  0
VERTEX
  5
10F8B
  8
0
 10
46.9092795885865073
 20
119.9568350141666002
 30
0.0
  0
VERTEX
  5
10F8C
  8
0
 10
46.8345417326473665
 20
120.1509350838215937
 30
0.0
  0
VERTEX
  5
10F8D
  8
0
 10
46.7560354517001926
 20
120.5525920290347983
 30
0.0
  0
VERTEX
  5
10F8E
  8
0
 10
46.7480698041869118
 20
120.9461227639726957
 30
0.0
  0
VERTEX
  5
10F8F
  8
0
 10
46.7971999338133173
 20
121.3072632240241973
 30
0.0
  0
VERTEX
  5
10F90
  8
0
 10
46.898623653982547
 20
121.6204586323305961
 30
0.0
  0
VERTEX
  5
10F91
  8
0
 10
47.0530208096151767
 20
121.8668727861186056
 30
0.0
  0
VERTEX
  5
10F92
  8
0
 10
47.262526054230193
 20
122.0191246433211063
 30
0.0
  0
VERTEX
  5
10F93
  8
0
 10
47.4247641528515871
 20
122.0499999999998977
 30
0.0
  0
SEQEND
  5
10F94
  8
0
  0
LINE
  5
1041E
  8
0
 10
45.2999999999999474
 20
123.0
 30
0.0
 11
78.7000000000000455
 21
123.0
 31
0.0
  0
LINE
  5
1041F
  8
0
 10
52.0
 20
113.0
 30
0.0
 11
72.0
 21
113.0
 31
0.0
  0
LINE
  5
10420
  8
0
 10
71.0
 20
112.0
 30
0.0
 11
53.0
 21
112.0
 31
0.0
  0
LINE
  5
10421
  8
1
 10
48.5
 20
113.0
 30
0.0
 11
48.5
 21
124.5
 31
0.0
  0
LINE
  5
10422
  8
1
 10
62.0
 20
126.0
 30
0.0
 11
62.0
 21
109.0
 31
0.0
  0
LINE
  5
10423
  8
1
 10
75.5
 20
113.0
 30
0.0
 11
75.5
 21
124.5
 31
0.0
  0
CIRCLE
  5
10424
  8
0
 10
48.5
 20
62.0
 30
0.0
 40
1.5
  0
CIRCLE
  5
10425
  8
0
 10
75.5
 20
62.0
 30
0.0
 40
1.5
  0
CIRCLE
  5
10426
  8
0
 10
62.0
 20
75.5
 30
0.0
 40
1.5
  0
CIRCLE
  5
10427
  8
0
 10
62.0
 20
48.5
 30
0.0
 40
1.5
  0
ARC
  5
10428
  8
0
 10
72.5
 20
53.25
 30
0.0
 40
0.7249999999999776
 50
189.9999999999986073
 51
170.0000000000013074
  0
LINE
  5
10429
  8
0
 10
71.7860143790661596
 20
53.3758949288085205
 30
0.0
 11
71.5151922469877945
 21
53.4236481776668981
 31
0.0
  0
LINE
  5
1042A
  8
0
 10
71.7860143790661596
 20
53.1241050711914795
 30
0.0
 11
71.5151922469877945
 21
53.0763518223330877
 31
0.0
  0
ARC
  5
1042B
  8
0
 10
51.5
 20
70.75
 30
0.0
 40
0.7249999999999865
 50
189.9999999999986073
 51
170.0000000000013074
  0
LINE
  5
1042C
  8
0
 10
50.7860143790662732
 20
70.8758949288085205
 30
0.0
 11
50.5151922469877874
 21
70.9236481776669052
 31
0.0
  0
LINE
  5
1042D
  8
0
 10
50.7860143790661596
 20
70.6241050711914795
 30
0.0
 11
50.5151922469877874
 21
70.5763518223330948
 31
0.0
  0
CIRCLE
  5
1042E
  8
0
 10
62.0
 20
62.0
 30
0.0
 40
17.0
  0
CIRCLE
  5
1042F
  8
3
 10
62.0
 20
48.5
 30
0.0
 40
1.22950000000003
  0
CIRCLE
  5
10430
  8
0
 10
72.5
 20
53.25
 30
0.0
 40
1.0
  0
CIRCLE
  5
10431
  8
0
 10
51.5
 20
70.75
 30
0.0
 40
1.0
  0
CIRCLE
  5
10432
  8
0
 10
62.0
 20
62.0
 30
0.0
 40
10.0
  0
CIRCLE
  5
10433
  8
0
 10
62.0
 20
62.0
 30
0.0
 40
8.9999999999999858
  0
CIRCLE
  5
10434
  8
0
 10
62.0
 20
62.0
 30
0.0
 40
8.0328582328831573
  0
ARC
  5
10435
  8
0
 10
62.0
 20
62.0
 30
0.0
 40
7.7500000000000071
 50
162.2640439120741007
 51
180.5298848012284907
  0
ARC
  5
10436
  8
0
 10
61.9961389064858395
 20
64.4203737367408849
 30
0.0
 40
10.1849993441237299
 50
262.2762346965661209
 51
282.7277562012397993
  0
ARC
  5
10437
  8
0
 10
62.0
 20
62.0
 30
0.0
 40
7.7500000000000027
 50
342.2640439120741007
 51
0.5298848012220578
  0
ARC
  5
10438
  8
0
 10
62.0009077860374802
 20
59.6759415936659181
 30
0.0
 40
10.0899672292534692
 50
82.1861111943873084
 51
102.8087309873235
  0
ARC
  5
10439
  8
0
 10
64.1681306279988348
 20
54.7848500943943009
 30
0.0
 40
0.3321202182791143
 50
287.1142093258824843
 51
357.6638076460400271
  0
POLYLINE
  5
1043A
  8
0
 66
     1
 10
0.0
 20
0.0
 30
0.0
 70
   128
  0
VERTEX
  5
10F95
  8
0
 10
60.5986471908048472
 20
54.6101081113650935
 30
0.0
  0
VERTEX
  5
10F96
  8
0
 10
60.5888050547004013
 20
54.516324122298208
 30
0.0
  0
VERTEX
  5
10F97
  8
0
 10
60.5883222453508026
 20
54.4351012073892733
 30
0.0
  0
VERTEX
  5
10F98
  8
0
 10
60.5975132749156273
 20
54.3721255311092975
 30
0.0
  0
VERTEX
  5
10F99
  8
0
 10
60.6168262340147521
 20
54.3341368444894215
 30
0.0
  0
VERTEX
  5
10F9A
  8
0
 10
60.6262534361502503
 20
54.3281380295240908
 30
0.0
  0
VERTEX
  5
10F9B
  8
0
 10
60.6273033429538373
 20
54.3277773988398778
 30
0.0
  0
SEQEND
  5
10F9C
  8
0
  0
ARC
  5
1043B
  8
0
 10
59.8280366228914318
 20
69.2181026912679727
 30
0.0
 40
0.3281821850103458
 50
106.6263951700050967
 51
178.1516218019156099
  0
POLYLINE
  5
1043C
  8
0
 66
     1
 10
0.0
 20
0.0
 30
0.0
 70
   128
  0
VERTEX
  5
10F9D
  8
0
 10
63.3726966570461627
 20
69.6722226011600014
 30
0.0
  0
VERTEX
  5
10F9E
  8
0
 10
63.3737465638512205
 20
69.6718619704753337
 30
0.0
  0
VERTEX
  5
10F9F
  8
0
 10
63.3831737659853616
 20
69.6658631555104648
 30
0.0
  0
VERTEX
  5
10FA0
  8
0
 10
63.4024867250843727
 20
69.6278744688906954
 30
0.0
  0
VERTEX
  5
10FA1
  8
0
 10
63.4116777546492969
 20
69.5648987926106201
 30
0.0
  0
VERTEX
  5
10FA2
  8
0
 10
63.4111949452997123
 20
69.4836758777016712
 30
0.0
  0
VERTEX
  5
10FA3
  8
0
 10
63.4013528091952523
 20
69.3898918886347928
 30
0.0
  0
SEQEND
  5
10FA4
  8
0
  0
LINE
  5
1043D
  8
0
 10
64.4999748030606952
 20
54.7713118940963568
 30
0.0
 11
64.4999999718748853
 21
54.8587925371961092
 31
0.0
  0
LINE
  5
1043E
  8
0
 10
69.1412074529578149
 20
59.5
 30
0.0
 11
69.3036348482976337
 21
59.5
 31
0.0
  0
ARC
  5
1043F
  8
0
 10
69.3035373388916014
 20
59.7129495297623407
 30
0.0
 40
0.2129495520871671
 50
270.0262356861748003
 51
339.9758471195430047
  0
LINE
  5
10440
  8
0
 10
54.8587925470421922
 20
64.5
 30
0.0
 11
54.6963651517023592
 21
64.5
 31
0.0
  0
ARC
  5
10441
  8
0
 10
54.6964626611087397
 20
64.287050470236963
 30
0.0
 40
0.2129495520877014
 50
90.026235686266034
 51
159.9758471194377023
  0
LINE
  5
10442
  8
0
 10
59.5000251969393119
 20
69.2286881059036432
 30
0.0
 11
59.5000000281252071
 21
69.1412074628038908
 31
0.0
  0
LINE
  5
10443
  8
0
 10
69.3816341674082651
 20
59.6390728476820797
 30
0.0
 11
69.3816463524062783
 21
59.6391109454257276
 31
0.0
  0
ARC
  5
10444
  8
0
 10
69.1911403824428817
 20
59.7000000000000526
 30
0.0
 40
0.2000000000000455
 50
270.0
 51
342.2637482000188811
  0
ARC
  5
10445
  8
0
 10
54.8088596175571183
 20
64.2999999999999545
 30
0.0
 40
0.2000000000000028
 50
89.9999999999934914
 51
162.2637482000330067
  0
LINE
  5
10446
  8
0
 10
54.6183658325918415
 20
64.3609271523179132
 30
0.0
 11
54.6183536475938425
 21
64.3608890545741588
 31
0.0
  0
ARC
  5
10447
  8
0
 10
62.0
 20
62.0
 30
0.0
 40
4.0000000000000391
 50
252.2439094695187976
 51
308.6821869374102789
  0
LINE
  5
10448
  8
0
 10
64.4999999718748853
 20
54.8587925371961092
 30
0.0
 11
64.4999999718748853
 21
58.8775009782826828
 31
0.0
  0
LINE
  5
10449
  8
0
 10
60.6010874047925725
 20
54.6380703221741371
 30
0.0
 11
60.5986471908048472
 21
54.6101081113650935
 31
0.0
  0
POLYLINE
  5
1044A
  8
0
 66
     1
 10
0.0
 20
0.0
 30
0.0
 70
   128
  0
VERTEX
  5
10FA5
  8
0
 10
60.6010874047925725
 20
54.6380703221741371
 30
0.0
  0
VERTEX
  5
10FA6
  8
0
 10
60.6654955251908632
 20
56.4152702220247804
 30
0.0
  0
VERTEX
  5
10FA7
  8
0
 10
60.7801378528077976
 20
58.1905464510185695
 30
0.0
  0
SEQEND
  5
10FA8
  8
0
  0
POLYLINE
  5
1044B
  8
0
 66
     1
 10
0.0
 20
0.0
 30
0.0
 70
   128
  0
VERTEX
  5
10FA9
  8
0
 10
63.3989125952075412
 20
69.3619296778258558
 30
0.0
  0
VERTEX
  5
10FAA
  8
0
 10
63.3345044748091297
 20
67.5847297779752125
 30
0.0
  0
VERTEX
  5
10FAB
  8
0
 10
63.219862147192309
 20
65.8094535489814234
 30
0.0
  0
SEQEND
  5
10FAC
  8
0
  0
LINE
  5
1044C
  8
0
 10
59.5000000281252071
 20
69.1412074628038908
 30
0.0
 11
59.5000000281252071
 21
65.122499021717303
 31
0.0
  0
LINE
  5
1044D
  8
0
 10
63.3989125952075412
 20
69.3619296778258558
 30
0.0
 11
63.4013528091952523
 21
69.3898918886347928
 31
0.0
  0
ARC
  5
1044E
  8
0
 10
62.0000992216391822
 20
61.9994627143394084
 30
0.0
 40
4.0004814403532061
 50
72.247609596225459
 51
128.678486810705806
  0
LINE
  5
1044F
  8
0
 10
65.1224989991992516
 20
59.5
 30
0.0
 11
69.1412074529578149
 21
59.5
 31
0.0
  0
ARC
  5
10450
  8
0
 10
62.0
 20
62.0
 30
0.0
 40
4.0
 50
308.6821869374102789
 51
321.3178125465112771
  0
LINE
  5
10451
  8
0
 10
58.8775010008008621
 20
64.5
 30
0.0
 11
54.8587925470421922
 21
64.5
 31
0.0
  0
ARC
  5
10452
  8
0
 10
62.0
 20
62.0
 30
0.0
 40
3.9999999999999969
 50
128.6821869374103073
 51
141.3178125465113055
  0
ARC
  5
10453
  8
0
 10
69.1998043431347014
 20
64.2999999999999545
 30
0.0
 40
0.200000000000017
 50
17.7362517999745606
 51
90.0
  0
LINE
  5
10454
  8
0
 10
69.1998043431347014
 20
64.5
 30
0.0
 11
69.0378747866993763
 21
64.5
 31
0.0
  0
ARC
  5
10455
  8
0
 10
54.799543037714443
 20
59.7000000000000526
 30
0.0
 40
0.2000000000000384
 50
197.7362517999810905
 51
269.9999999999935199
  0
LINE
  5
10456
  8
0
 10
54.799543037714443
 20
59.5
 30
0.0
 11
54.9614725941496474
 21
59.5
 31
0.0
  0
LINE
  5
10457
  8
0
 10
58.8775010008008621
 20
59.5
 30
0.0
 11
54.9614725941496474
 21
59.5
 31
0.0
  0
ARC
  5
10458
  8
0
 10
62.0
 20
62.0
 30
0.0
 40
4.0000000000000346
 50
218.682187453437308
 51
252.2439094695187976
  0
LINE
  5
10459
  8
0
 10
65.1224989991992516
 20
64.5
 30
0.0
 11
69.0378747866993763
 21
64.5
 31
0.0
  0
ARC
  5
1045A
  8
0
 10
62.0
 20
62.0
 30
0.0
 40
4.000000000000048
 50
38.6821874534373293
 51
72.2439094695119763
  0
ARC
  5
1045B
  8
0
 10
62.0
 20
62.0
 30
0.0
 40
7.8659816585702256
 50
106.7417813028167046
 51
162.5410731679492073
  0
POLYLINE
  5
1045C
  8
0
 66
     1
 10
0.0
 20
0.0
 30
0.0
 70
   128
  0
VERTEX
  5
10FAD
  8
0
 10
54.6183536475938425
 20
64.3608890545741588
 30
0.0
  0
VERTEX
  5
10FAE
  8
0
 10
54.6036636782838514
 20
64.3607766888677588
 30
0.0
  0
VERTEX
  5
10FAF
  8
0
 10
54.5449331763136414
 20
64.3603313425859369
 30
0.0
  0
VERTEX
  5
10FB0
  8
0
 10
54.5070107588035171
 20
64.3600470491265924
 30
0.0
  0
VERTEX
  5
10FB1
  8
0
 10
54.4963862587601398
 20
64.3599678547046778
 30
0.0
  0
SEQEND
  5
10FB2
  8
0
  0
ARC
  5
1045D
  8
0
 10
62.0219678948776618
 20
61.9733822903002718
 30
0.0
 40
7.771767068608912
 50
180.3321613580698966
 51
259.6621174824466038
  0
POLYLINE
  5
1045E
  8
0
 66
     1
 10
0.0
 20
0.0
 30
0.0
 70
   128
  0
VERTEX
  5
10FB3
  8
0
 10
64.2658660865117639
 20
54.4674361382753887
 30
0.0
  0
VERTEX
  5
10FB4
  8
0
 10
64.2780715252108621
 20
54.4748787710260629
 30
0.0
  0
VERTEX
  5
10FB5
  8
0
 10
64.280374378461147
 20
54.4888196744814195
 30
0.0
  0
VERTEX
  5
10FB6
  8
0
 10
64.2400853698866285
 20
54.4856409316177022
 30
0.0
  0
SEQEND
  5
10FB7
  8
0
  0
ARC
  5
1045F
  8
0
 10
62.0
 20
62.0
 30
0.0
 40
7.8659816585702158
 50
286.7417813028167188
 51
342.5410731679492073
  0
POLYLINE
  5
10460
  8
0
 66
     1
 10
0.0
 20
0.0
 30
0.0
 70
   128
  0
VERTEX
  5
10FB8
  8
0
 10
69.3816463524062783
 20
59.6391109454257276
 30
0.0
  0
VERTEX
  5
10FB9
  8
0
 10
69.3963363217162623
 20
59.6392233111322412
 30
0.0
  0
VERTEX
  5
10FBA
  8
0
 10
69.4550668236863658
 20
59.6396686574140631
 30
0.0
  0
VERTEX
  5
10FBB
  8
0
 10
69.4929892411965966
 20
59.6399529508732869
 30
0.0
  0
VERTEX
  5
10FBC
  8
0
 10
69.5036137412398602
 20
59.6400321452953222
 30
0.0
  0
SEQEND
  5
10FBD
  8
0
  0
ARC
  5
10461
  8
0
 10
61.9749337555276725
 20
62.0240181492916918
 30
0.0
 40
7.7748808650962831
 50
0.3511857259145008
 51
79.643093114599111
  0
POLYLINE
  5
10462
  8
0
 66
     1
 10
0.0
 20
0.0
 30
0.0
 70
   128
  0
VERTEX
  5
10FBE
  8
0
 10
59.7341339134882219
 20
69.5325638617244977
 30
0.0
  0
VERTEX
  5
10FBF
  8
0
 10
59.7133325584717412
 20
69.5171938316615297
 30
0.0
  0
VERTEX
  5
10FC0
  8
0
 10
59.7357678746420788
 20
69.510864740106399
 30
0.0
  0
VERTEX
  5
10FC1
  8
0
 10
59.7639913861785317
 20
69.5148258651396418
 30
0.0
  0
SEQEND
  5
10FC2
  8
0
  0
LINE
  5
10463
  8
0
 10
120.5
 20
118.0
 30
0.0
 11
120.5
 21
114.5
 31
0.0
  0
LINE
  5
10464
  8
0
 10
123.5
 20
114.5
 30
0.0
 11
123.5
 21
118.0
 31
0.0
  0
LINE
  5
10465
  8
0
 10
107.0
 20
118.0
 30
0.0
 11
107.0
 21
114.5
 31
0.0
  0
LINE
  5
10466
  8
0
 10
110.0
 20
114.5
 30
0.0
 11
110.0
 21
118.0
 31
0.0
  0
LINE
  5
10467
  8
0
 10
134.0
 20
118.0
 30
0.0
 11
134.0
 21
114.5
 31
0.0
  0
LINE
  5
10468
  8
0
 10
137.0
 20
114.5
 30
0.0
 11
137.0
 21
118.0
 31
0.0
  0
LINE
  5
10469
  8
0
 10
131.875
 20
120.2551510231029965
 30
0.0
 11
131.875
 21
121.3448590903875015
 31
0.0
  0
LINE
  5
1046A
  8
0
 10
129.625
 20
121.3447090507527975
 30
0.0
 11
129.625
 21
120.2553010627376011
 31
0.0
  0
LINE
  5
1046B
  8
0
 10
105.0
 20
118.2999999999998977
 30
0.0
 11
105.2999999999999972
 21
118.0
 31
0.0
  0
LINE
  5
1046C
  8
0
 10
138.6999999999999886
 20
118.0
 30
0.0
 11
139.0
 21
118.2999999999998977
 31
0.0
  0
LINE
  5
1046D
  8
0
 10
139.0
 20
118.2999999999998977
 30
0.0
 11
139.0
 21
122.7000000000000028
 31
0.0
  0
LINE
  5
1046E
  8
0
 10
105.0
 20
122.7000000000000028
 30
0.0
 11
105.0
 21
118.2999999999998977
 31
0.0
  0
LINE
  5
1046F
  8
0
 10
139.0
 20
122.7000000000000028
 30
0.0
 11
138.6999999999999886
 21
123.0
 31
0.0
  0
LINE
  5
10470
  8
0
 10
105.2999999999999972
 20
123.0
 30
0.0
 11
105.0
 21
122.7000000000000028
 31
0.0
  0
LINE
  5
10471
  8
0
 10
112.0
 20
113.0
 30
0.0
 11
113.0
 21
112.0
 31
0.0
  0
LINE
  5
10472
  8
0
 10
131.0
 20
112.0
 30
0.0
 11
132.0
 21
113.0
 31
0.0
  0
LINE
  5
10473
  8
0
 10
112.0
 20
117.7999999999998977
 30
0.0
 11
112.0
 21
113.0
 31
0.0
  0
LINE
  5
10474
  8
0
 10
132.0
 20
113.0
 30
0.0
 11
132.0
 21
117.7999999999998977
 31
0.0
  0
LINE
  5
10475
  8
0
 10
132.0
 20
117.7999999999998977
 30
0.0
 11
131.8000000000002103
 21
118.0
 31
0.0
  0
LINE
  5
10476
  8
0
 10
112.2000000000000028
 20
118.0
 30
0.0
 11
112.0
 21
117.7999999999998977
 31
0.0
  0
LINE
  5
10477
  8
0
 10
120.5
 20
114.5
 30
0.0
 11
123.5
 21
114.5
 31
0.0
  0
LINE
  5
10478
  8
0
 10
107.0
 20
114.5
 30
0.0
 11
110.0
 21
114.5
 31
0.0
  0
LINE
  5
10479
  8
0
 10
134.0
 20
114.5
 30
0.0
 11
137.0
 21
114.5
 31
0.0
  0
LINE
  5
1047A
  8
0
 10
138.6999999999999886
 20
118.0
 30
0.0
 11
105.2999999999999972
 21
118.0
 31
0.0
  0
CIRCLE
  5
1047B
  8
0
 10
130.7500363281974103
 20
120.8000050567452064
 30
0.0
 40
1.249963671812818
  0
LINE
  5
1047C
  8
0
 10
105.2999999999999972
 20
123.0
 30
0.0
 11
138.6999999999999886
 21
123.0
 31
0.0
  0
LINE
  5
1047D
  8
0
 10
112.0
 20
113.0
 30
0.0
 11
132.0
 21
113.0
 31
0.0
  0
LINE
  5
1047E
  8
0
 10
131.0
 20
112.0
 30
0.0
 11
113.0
 21
112.0
 31
0.0
  0
LINE
  5
1057E
  8
0
 10
52.0
 20
117.7999999999998977
 30
0.0
 11
52.2000000000000526
 21
118.0
 31
0.0
  0
LINE
  5
1057F
  8
1
 10
42.0
 20
173.0
 30
0.0
 11
82.0
 21
173.0
 31
0.0
  0
LINE
  5
10580
  8
1
 10
62.0
 20
193.0
 30
0.0
 11
62.0
 21
153.0
 31
0.0
  0
CIRCLE
  5
10581
  8
1
 10
62.0
 20
173.0
 30
0.0
 40
13.5
  0
LINE
  5
10582
  8
1
 10
63.0
 20
178.5
 30
0.0
 11
63.0
 21
167.5
 31
0.0
  0
LINE
  5
10583
  8
1
 10
61.0
 20
178.5
 30
0.0
 11
61.0
 21
167.5
 31
0.0
  0
LINE
  5
10584
  8
5
 10
70.1911403824428817
 20
175.5
 30
0.0
 11
64.1224989991992516
 21
175.5
 31
0.0
  0
LINE
  5
10585
  8
5
 10
53.808859617557232
 20
170.5
 30
0.0
 11
59.8775010008008621
 21
170.5
 31
0.0
  0
ARC
  5
10586
  8
5
 10
55.808859617557232
 20
170.6999999999999886
 30
0.0
 40
0.2000000000000163
 50
197.7362517999750082
 51
270.0
  0
ARC
  5
10587
  8
5
 10
63.0
 20
173.0
 30
0.0
 40
7.7500000000000151
 50
162.2637482000253897
 51
197.7362517999744966
  0
ARC
  5
10588
  8
5
 10
55.808859617557232
 20
175.3000000000000966
 30
0.0
 40
0.200000000000017
 50
90.0
 51
162.2637482000330067
  0
LINE
  5
10589
  8
5
 10
59.8775010008007484
 20
175.4999999999998863
 30
0.0
 11
53.808859617557232
 21
175.5
 31
0.0
  0
ARC
  5
1058A
  8
5
 10
63.0
 20
173.0
 30
0.0
 40
3.999999999999996
 50
38.6821874534886874
 51
141.3178125465113055
  0
LINE
  5
1058B
  8
5
 10
64.1224989991992516
 20
170.5
 30
0.0
 11
70.1911403824428817
 21
170.5
 31
0.0
  0
ARC
  5
1058C
  8
5
 10
70.1911403824428817
 20
170.6999999999999886
 30
0.0
 40
0.2000000000000163
 50
270.0
 51
342.2637482000250202
  0
ARC
  5
1058D
  8
5
 10
63.0
 20
173.0
 30
0.0
 40
7.7500000000000151
 50
342.2637482000254181
 51
17.7362517999745606
  0
ARC
  5
1058E
  8
5
 10
63.0
 20
173.0
 30
0.0
 40
3.999999999999996
 50
218.6821874534886945
 51
321.3178125465112771
  0
ARC
  5
1058F
  8
5
 10
70.1911403824428817
 20
175.3000000000000966
 30
0.0
 40
0.200000000000017
 50
17.7362517999669507
 51
90.0
  0
ARC
  5
10590
  8
5
 10
53.808859617557232
 20
170.6999999999999886
 30
0.0
 40
0.2000000000000163
 50
197.7362517999750082
 51
270.0
  0
ARC
  5
10591
  8
5
 10
61.0
 20
173.0
 30
0.0
 40
7.7500000000000151
 50
162.2637482000253897
 51
197.7362517999744966
  0
ARC
  5
10592
  8
5
 10
53.808859617557232
 20
175.3000000000000966
 30
0.0
 40
0.200000000000017
 50
90.0
 51
162.2637482000330067
  0
ARC
  5
10593
  8
5
 10
61.0
 20
173.0
 30
0.0
 40
3.999999999999996
 50
38.6821874534886874
 51
141.3178125465113055
  0
ARC
  5
10594
  8
5
 10
68.1911403824428817
 20
170.6999999999999886
 30
0.0
 40
0.2000000000000163
 50
270.0
 51
342.2637482000250202
  0
ARC
  5
10595
  8
5
 10
61.0
 20
173.0
 30
0.0
 40
7.7500000000000151
 50
342.2637482000254181
 51
17.7362517999745606
  0
ARC
  5
10596
  8
5
 10
61.0
 20
173.0
 30
0.0
 40
3.999999999999996
 50
218.6821874534886945
 51
321.3178125465112771
  0
ARC
  5
10597
  8
5
 10
68.1911403824428817
 20
175.3000000000000966
 30
0.0
 40
0.200000000000017
 50
17.7362517999669507
 51
90.0
  0
LINE
  5
10598
  8
3
 10
47.2705000000000766
 20
118.0
 30
0.0
 11
47.2705000000000766
 21
114.5
 31
0.0
  0
LINE
  5
10599
  8
3
 10
49.72950000000003
 20
118.0
 30
0.0
 11
49.72950000000003
 21
114.5
 31
0.0
  0
LINE
  5
1059A
  8
3
 10
60.7705000000000766
 20
118.0
 30
0.0
 11
60.7705000000000766
 21
114.5
 31
0.0
  0
LINE
  5
1059B
  8
3
 10
63.22950000000003
 20
118.0
 30
0.0
 11
63.22950000000003
 21
114.5
 31
0.0
  0
LINE
  5
1059C
  8
3
 10
74.2705000000000837
 20
118.0
 30
0.0
 11
74.2705000000000837
 21
114.5
 31
0.0
  0
LINE
  5
1059D
  8
3
 10
76.72950000000003
 20
118.0
 30
0.0
 11
76.72950000000003
 21
114.5
 31
0.0
  0
LINE
  5
1059E
  8
1
 10
108.5
 20
113.0
 30
0.0
 11
108.5
 21
124.5
 31
0.0
  0
LINE
  5
1059F
  8
1
 10
122.0
 20
126.0
 30
0.0
 11
122.0
 21
109.0
 31
0.0
  0
LINE
  5
105A0
  8
1
 10
135.5
 20
113.0
 30
0.0
 11
135.5
 21
124.5
 31
0.0
  0
LINE
  5
105A1
  8
3
 10
107.2705000000000979
 20
118.0
 30
0.0
 11
107.2705000000000979
 21
114.5
 31
0.0
  0
LINE
  5
105A2
  8
3
 10
109.7295000000000016
 20
118.0
 30
0.0
 11
109.7295000000000016
 21
114.5
 31
0.0
  0
LINE
  5
105A3
  8
3
 10
120.7705000000000979
 20
118.0
 30
0.0
 11
120.7705000000000979
 21
114.5
 31
0.0
  0
LINE
  5
105A4
  8
3
 10
123.2295000000000016
 20
118.0
 30
0.0
 11
123.2295000000000016
 21
114.5
 31
0.0
  0
LINE
  5
105A5
  8
3
 10
134.2705000000001121
 20
118.0
 30
0.0
 11
134.2705000000001121
 21
114.5
 31
0.0
  0
LINE
  5
105A6
  8
3
 10
136.7295000000000016
 20
118.0
 30
0.0
 11
136.7295000000000016
 21
114.5
 31
0.0
  0
CIRCLE
  5
105A7
  8
3
 10
62.0
 20
75.5
 30
0.0
 40
1.22950000000003
  0
CIRCLE
  5
105A8
  8
3
 10
48.5
 20
62.0
 30
0.0
 40
1.22950000000003
  0
CIRCLE
  5
105A9
  8
3
 10
75.5
 20
62.0
 30
0.0
 40
1.22950000000003
  0
LINE
  5
105AA
  8
1
 10
42.0
 20
62.0
 30
0.0
 11
82.0
 21
62.0
 31
0.0
  0
LINE
  5
105AB
  8
1
 10
62.0
 20
82.0
 30
0.0
 11
62.0
 21
42.0
 31
0.0
  0
CIRCLE
  5
105AC
  8
1
 10
62.0
 20
62.0
 30
0.0
 40
13.5
  0
TEXT
  5
10607
  8
0
 62
     3
 10
0.0
 20
0.0
 30
0.0
 40
10.0
  1
QCTH0834-FL-SUS
  7
STANDARD1
  0
TEXT
  5
10999
  8
0
 62
     3
 10
152.8600162615059048
 20
0.0
 30
0.0
 40
3.2000000000000002
  1
■ケースの取付け方法 (下図)
  0
TEXT
  5
1099A
  8
0
 62
     3
 10
152.8600162615059048
 20
-7.0
 30
0.0
 40
3.2000000000000002
  1
■Installation Instructions for Floating Receptacles (see diagram below)
  0
POLYLINE
  5
109AD
  8
5
 66
     1
 10
0.0
 20
0.0
 30
0.0
 70
     1
  0
VERTEX
  5
10FC3
  8
5
 10
152.8600162615059048
 20
-10.0
 30
0.0
  0
VERTEX
  5
10FC4
  8
5
 10
312.8600162615060185
 20
-10.0
 30
0.0
  0
VERTEX
  5
10FC5
  8
5
 10
312.8600162615060185
 20
-148.3343189959819881
 30
0.0
  0
VERTEX
  5
10FC6
  8
5
 10
152.8600162615059048
 20
-148.3343189959819881
 30
0.0
  0
SEQEND
  5
10FC7
  8
5
  0
TEXT
  5
109B1
  8
0
 62
     3
 10
213.9800162615059946
 20
-20.0000000000000711
 30
0.0
 40
3.2000000000000002
  1
ベース厚さ12mm以上
 72
     1
 11
232.8600162615059901
 21
-20.4266666666667298
 31
0.0
 73
     1
  0
TEXT
  5
109B2
  8
0
 62
     3
 10
267.4816829281725745
 20
-132.8238487065829929
 30
0.0
 40
3.2000000000000002
  1
取付け穴
 72
     1
 11
274.7350162615060185
 21
-132.8238487065829929
 31
0.0
  0
TEXT
  5
109B3
  8
0
 62
     3
 10
256.0123495948392929
 20
-139.8238487065829929
 30
0.0
 40
3.2000000000000002
  1
Installation hole
 41
0.85
 72
     1
 11
274.7350162615060185
 21
-139.8238487065829929
 31
0.0
  0
TEXT
  5
109B4
  8
0
 62
     3
 10
189.4183495948392988
 20
-81.1713629811608826
 30
0.0
 40
3.2000000000000002
  1
組付け状態
 72
     1
 11
198.4850162615059048
 21
-81.1713629811608826
 31
0.0
  0
TEXT
  5
109B5
  8
0
 62
     3
 10
177.2690162615058966
 20
-88.1713629811608683
 30
0.0
 40
3.2000000000000002
  1
Installed condition
 41
0.85
 72
     1
 11
198.4850162615059048
 21
-88.1713629811608683
 31
0.0
  0
TEXT
  5
109B6
  8
0
 62
     3
 10
165.7133495948392863
 20
-27.0000000000000711
 30
0.0
 40
3.2000000000000002
  1
For installation on plate of over 12 mm thickness.
 72
     1
 11
232.8600162615059901
 21
-27.4266666666667405
 31
0.0
 73
     1
  0
LINE
  5
10D20
  8
0
 10
252.7350162615059901
 20
-103.426666666666506
 30
0.0
 11
296.7350162615060185
 21
-103.426666666666506
 31
0.0
  0
LINE
  5
10D21
  8
0
 10
252.7350162615059901
 20
-117.426666666666506
 30
0.0
 11
296.7350162615060185
 21
-117.426666666666506
 31
0.0
  0
LINE
  5
10D22
  8
0
 10
257.7350162615060185
 20
-108.926666666666506
 30
0.0
 11
291.7350162615059048
 21
-108.926666666666506
 31
0.0
  0
LINE
  5
10D23
  8
1
 10
274.7350162615060185
 20
-100.426666666666506
 30
0.0
 11
274.7350162615060185
 21
-120.426666666666506
 31
0.0
  0
LINE
  5
10D24
  8
0
 10
291.7350162615059048
 20
-103.926666666666506
 30
0.0
 11
291.7350162615059048
 21
-108.926666666666506
 31
0.0
  0
LINE
  5
10D25
  8
0
 10
257.7350162615060185
 20
-103.926666666666506
 30
0.0
 11
257.7350162615060185
 21
-108.926666666666506
 31
0.0
  0
LINE
  5
10D26
  8
0
 10
263.7350162615060185
 20
-116.926666666666506
 30
0.0
 11
263.7350162615060185
 21
-109.4266666666661934
 31
0.0
  0
LINE
  5
10D27
  8
0
 10
285.7350162615059048
 20
-116.9266666666666055
 30
0.0
 11
285.7350162615059048
 21
-109.4266666666664065
 31
0.0
  0
LINE
  5
10D28
  8
0
 10
257.7350162615060185
 20
-103.926666666666506
 30
0.0
 11
257.2350162615060185
 21
-103.426666666666506
 31
0.0
  0
LINE
  5
10D29
  8
0
 10
291.7350162615059048
 20
-103.9266666666667049
 30
0.0
 11
292.2350162615060185
 21
-103.4266666666667049
 31
0.0
  0
LINE
  5
10D2A
  8
0
 10
257.7350162615060185
 20
-103.926666666666506
 30
0.0
 11
291.7350162615059048
 21
-103.926666666666506
 31
0.0
  0
LINE
  5
10D2B
  8
0
 10
263.7350162615060185
 20
-116.926666666666506
 30
0.0
 11
263.2350162615060185
 21
-117.426666666666506
 31
0.0
  0
LINE
  5
10D2C
  8
0
 10
285.7350162615059048
 20
-116.926666666666506
 30
0.0
 11
286.2350162615060185
 21
-117.426666666666506
 31
0.0
  0
LINE
  5
10D2D
  8
0
 10
263.7350162615060185
 20
-116.9266666666666055
 30
0.0
 11
285.7350162615059048
 21
-116.9266666666666055
 31
0.0
  0
LINE
  5
10D2E
  8
0
 10
263.7350162615060185
 20
-109.426666666666506
 30
0.0
 11
263.2350162615060185
 21
-108.926666666666506
 31
0.0
  0
LINE
  5
10D2F
  8
0
 10
285.7350162615059048
 20
-109.426666666666506
 30
0.0
 11
286.2350162615060185
 21
-108.926666666666506
 31
0.0
  0
LINE
  5
10D30
  8
0
 10
263.7350162615060185
 20
-109.4266666666661934
 30
0.0
 11
285.7350162615059048
 21
-109.4266666666661934
 31
0.0
  0
LINE
  5
10D31
  8
1
 10
274.7350162615060185
 20
-36.4266666666665131
 30
0.0
 11
274.7350162615060185
 21
-76.426666666666506
 31
0.0
  0
LINE
  5
10D32
  8
1
 10
254.7350162615059901
 20
-56.4266666666664989
 30
0.0
 11
294.7350162615060185
 21
-56.4266666666664989
 31
0.0
  0
CIRCLE
  5
10D33
  8
0
 10
274.7350162615060185
 20
-56.4266666666664989
 30
0.0
 40
11.0
  0
CIRCLE
  5
10D34
  8
0
 10
274.7350162615060185
 20
-56.4266666666664989
 30
0.0
 40
17.0
  0
CIRCLE
  5
10D35
  8
1
 10
274.7350162615060185
 20
-56.4266666666664989
 30
0.0
 40
13.5
  0
CIRCLE
  5
10D36
  8
3
 10
288.2350162615060185
 20
-56.4266666666664989
 30
0.0
 40
1.5
  0
CIRCLE
  5
10D37
  8
0
 10
288.2350162615060185
 20
-56.4266666666664989
 30
0.0
 40
1.22950000000003
  0
CIRCLE
  5
10D38
  8
3
 10
274.7350162615060185
 20
-42.9266666666664989
 30
0.0
 40
1.5
  0
CIRCLE
  5
10D39
  8
0
 10
274.7350162615060185
 20
-42.9266666666664989
 30
0.0
 40
1.22950000000003
  0
CIRCLE
  5
10D3A
  8
3
 10
274.7350162615060185
 20
-69.926666666666506
 30
0.0
 40
1.5
  0
CIRCLE
  5
10D3B
  8
0
 10
274.7350162615060185
 20
-69.926666666666506
 30
0.0
 40
1.22950000000003
  0
CIRCLE
  5
10D3C
  8
3
 10
261.2350162615060185
 20
-56.4266666666664989
 30
0.0
 40
1.5
  0
CIRCLE
  5
10D3D
  8
0
 10
261.2350162615060185
 20
-56.4266666666664989
 30
0.0
 40
1.22950000000003
  0
LINE
  5
10D46
  8
0
 10
287.005516261505818
 20
-109.426666666666506
 30
0.0
 11
287.005516261505818
 21
-115.926666666666307
 31
0.0
  0
LINE
  5
10D47
  8
0
 10
289.4645162615062759
 20
-109.4266666666666055
 30
0.0
 11
289.4645162615062759
 21
-115.9266666666666055
 31
0.0
  0
LINE
  5
10D48
  8
3
 10
289.7350162615060185
 20
-109.156166666667005
 30
0.0
 11
289.7350162615060185
 21
-113.926666666666506
 31
0.0
  0
LINE
  5
10D49
  8
0
 10
289.4645162615062759
 20
-109.426666666666506
 30
0.0
 11
287.005516261505818
 21
-109.426666666666506
 31
0.0
  0
LINE
  5
10D4A
  8
1
 10
288.2350162615060185
 20
-107.926666666666506
 30
0.0
 11
288.2350162615060185
 21
-118.426666666666506
 31
0.0
  0
LINE
  5
10D4B
  8
0
 10
289.4645162615062759
 20
-109.426666666666506
 30
0.0
 11
289.9645162615061054
 21
-108.926666666666506
 31
0.0
  0
LINE
  5
10D4C
  8
3
 10
286.7350162615056774
 20
-109.1561666666658965
 30
0.0
 11
286.7350162615044269
 21
-113.926666666666506
 31
0.0
  0
LINE
  5
10D4D
  8
0
 10
287.005516261505079
 20
-109.4266666666655965
 30
0.0
 11
286.5055162615055906
 21
-108.9266666666651986
 31
0.0
  0
LINE
  5
10D4F
  8
0
 10
286.7350162615039153
 20
-113.926666666666506
 30
0.0
 11
289.7350162615056774
 21
-113.926666666666506
 31
0.0
  0
LINE
  5
10D50
  8
3
 10
289.7350162615056774
 20
-113.926666666666506
 30
0.0
 11
289.4645162615061054
 21
-114.3951864101133964
 31
0.0
  0
LINE
  5
10D51
  8
0
 10
289.4645162615061054
 20
-115.9266666666666055
 30
0.0
 11
287.005516261505818
 21
-115.926666666666307
 31
0.0
  0
LINE
  5
10D52
  8
0
 10
289.4645162615061054
 20
-115.9266666666666055
 30
0.0
 11
288.2350162615060185
 21
-116.6654247977610055
 31
0.0
  0
LINE
  5
10D53
  8
3
 10
286.735016261506189
 20
-113.926666666666506
 30
0.0
 11
287.005516261505818
 21
-114.3951864101133964
 31
0.0
  0
LINE
  5
10D54
  8
0
 10
287.005516261505818
 20
-115.9266666666666055
 30
0.0
 11
288.2350162615060185
 21
-116.6654247977610055
 31
0.0
  0
LINE
  5
10D55
  8
0
 10
262.735016261508008
 20
-113.926666666666506
 30
0.0
 11
259.735016261506189
 21
-113.926666666666506
 31
0.0
  0
LINE
  5
10D56
  8
0
 10
262.4645162615061054
 20
-109.426666666666506
 30
0.0
 11
262.4645162615061054
 21
-115.926666666666307
 31
0.0
  0
LINE
  5
10D57
  8
0
 10
260.0055162615055906
 20
-109.4266666666666055
 30
0.0
 11
260.0055162615055906
 21
-115.9266666666666055
 31
0.0
  0
LINE
  5
10D58
  8
3
 10
259.7350162615060185
 20
-109.156166666667005
 30
0.0
 11
259.7350162615060185
 21
-113.926666666666506
 31
0.0
  0
LINE
  5
10D59
  8
0
 10
260.0055162615055906
 20
-109.426666666666506
 30
0.0
 11
262.4645162615061054
 21
-109.426666666666506
 31
0.0
  0
LINE
  5
10D5A
  8
1
 10
261.2350162615060185
 20
-107.926666666666506
 30
0.0
 11
261.2350162615060185
 21
-118.426666666666506
 31
0.0
  0
LINE
  5
10D5B
  8
0
 10
260.0055162615055906
 20
-109.426666666666506
 30
0.0
 11
259.505516261505818
 21
-108.926666666666506
 31
0.0
  0
LINE
  5
10D5C
  8
3
 10
262.735016261506189
 20
-109.1561666666658965
 30
0.0
 11
262.7350162615074964
 21
-113.926666666666506
 31
0.0
  0
LINE
  5
10D5D
  8
0
 10
262.4645162615067875
 20
-109.4266666666655965
 30
0.0
 11
262.9645162615062759
 21
-108.9266666666651986
 31
0.0
  0
LINE
  5
10D5E
  8
3
 10
259.735016261506189
 20
-113.926666666666506
 30
0.0
 11
260.005516261505818
 21
-114.3951864101133964
 31
0.0
  0
LINE
  5
10D5F
  8
0
 10
260.005516261505818
 20
-115.9266666666666055
 30
0.0
 11
262.4645162615061054
 21
-115.926666666666307
 31
0.0
  0
LINE
  5
10D60
  8
0
 10
260.005516261505818
 20
-115.9266666666666055
 30
0.0
 11
261.2350162615060185
 21
-116.6654247977610055
 31
0.0
  0
LINE
  5
10D61
  8
3
 10
262.7350162615056774
 20
-113.926666666666506
 30
0.0
 11
262.4645162615061054
 21
-114.3951864101133964
 31
0.0
  0
LINE
  5
10D62
  8
0
 10
262.4645162615061054
 20
-115.9266666666666055
 30
0.0
 11
261.2350162615060185
 21
-116.6654247977610055
 31
0.0
  0
LINE
  5
10D6A
  8
0
 10
176.4850162615059048
 20
-47.7741809412443672
 30
0.0
 11
220.4850162615059901
 21
-47.7741809412443672
 31
0.0
  0
LINE
  5
10D6B
  8
0
 10
176.4850162615059048
 20
-61.7741809412443672
 30
0.0
 11
220.4850162615059901
 21
-61.7741809412443672
 31
0.0
  0
LINE
  5
10D6C
  8
0
 10
181.4850162615059048
 20
-53.2741809412443601
 30
0.0
 11
215.4850162615059901
 21
-53.2741809412443601
 31
0.0
  0
LINE
  5
10D6D
  8
0
 10
210.4850162615038869
 20
-58.2741809412443601
 30
0.0
 11
213.4850162615057911
 21
-58.2741809412443601
 31
0.0
  0
LINE
  5
10D6E
  8
1
 10
198.4850162615059048
 20
-44.7741809412443672
 30
0.0
 11
198.4850162615059048
 21
-64.7741809412443672
 31
0.0
  0
LINE
  5
10D6F
  8
0
 10
215.4850162615059901
 20
-48.2741809412443601
 30
0.0
 11
215.4850162615059901
 21
-53.2741809412443601
 31
0.0
  0
LINE
  5
10D70
  8
0
 10
181.4850162615059048
 20
-48.2741809412443601
 30
0.0
 11
181.4850162615059048
 21
-53.2741809412443601
 31
0.0
  0
LINE
  5
10D71
  8
0
 10
187.4850162615059048
 20
-61.2741809412443601
 30
0.0
 11
187.4850162615059048
 21
-53.7741809412441398
 31
0.0
  0
LINE
  5
10D72
  8
0
 10
209.4850162615059901
 20
-61.2741809412444809
 30
0.0
 11
209.4850162615059901
 21
-53.7741809412442606
 31
0.0
  0
LINE
  5
10D73
  8
0
 10
181.4850162615059048
 20
-48.2741809412443601
 30
0.0
 11
180.9850162615059048
 21
-47.7741809412443672
 31
0.0
  0
LINE
  5
10D74
  8
0
 10
215.4850162615059901
 20
-48.2741809412445875
 30
0.0
 11
215.9850162615059901
 21
-47.7741809412445875
 31
0.0
  0
LINE
  5
10D75
  8
0
 10
181.4850162615059048
 20
-48.2741809412443601
 30
0.0
 11
215.4850162615059901
 21
-48.2741809412443601
 31
0.0
  0
LINE
  5
10D76
  8
0
 10
187.4850162615059048
 20
-61.2741809412443601
 30
0.0
 11
186.9850162615059048
 21
-61.7741809412443672
 31
0.0
  0
LINE
  5
10D77
  8
0
 10
209.4850162615059901
 20
-61.2741809412443601
 30
0.0
 11
209.9850162615059901
 21
-61.7741809412443672
 31
0.0
  0
LINE
  5
10D78
  8
0
 10
187.4850162615059048
 20
-61.2741809412444809
 30
0.0
 11
209.4850162615059901
 21
-61.2741809412444809
 31
0.0
  0
LINE
  5
10D79
  8
0
 10
187.4850162615059048
 20
-53.7741809412443601
 30
0.0
 11
186.9850162615059048
 21
-53.2741809412443601
 31
0.0
  0
LINE
  5
10D7A
  8
0
 10
209.4850162615059901
 20
-53.7741809412443601
 30
0.0
 11
209.9850162615059901
 21
-53.2741809412443601
 31
0.0
  0
LINE
  5
10D7C
  8
0
 10
210.7555162615057895
 20
-56.7741809412443672
 30
0.0
 11
210.7555162615057895
 21
-60.2741809412441327
 31
0.0
  0
LINE
  5
10D7D
  8
0
 10
213.2145162615063043
 20
-56.7741809412443672
 30
0.0
 11
213.2145162615063043
 21
-60.2741809412444809
 31
0.0
  0
LINE
  5
10D7E
  8
3
 10
213.4850162615059901
 20
-56.7741809412443672
 30
0.0
 11
213.4850162615059901
 21
-58.2741809412443601
 31
0.0
  0
LINE
  5
10D80
  8
1
 10
211.9850162615059901
 20
-52.2741809412443672
 30
0.0
 11
211.9850162615059901
 21
-62.7741809412443672
 31
0.0
  0
LINE
  5
10D81
  8
0
 10
213.4850162615059901
 20
-53.5036809412446175
 30
0.0
 11
213.7145162615061054
 21
-53.2741809412443601
 31
0.0
  0
LINE
  5
10D82
  8
3
 10
210.4850162615047964
 20
-56.7741809412443672
 30
0.0
 11
210.4850162615043132
 21
-58.2741809412443601
 31
0.0
  0
LINE
  5
10D83
  8
0
 10
210.4850162615059048
 20
-53.5036809412438288
 30
0.0
 11
210.2555162615055906
 21
-53.2741809412431095
 31
0.0
  0
LINE
  5
10D84
  8
3
 10
213.4850162615057911
 20
-58.2741809412443601
 30
0.0
 11
213.2145162615061054
 21
-58.7427006846912718
 31
0.0
  0
LINE
  5
10D85
  8
0
 10
213.2145162615061054
 20
-60.2741809412444809
 30
0.0
 11
210.7555162615057895
 21
-60.2741809412441327
 31
0.0
  0
LINE
  5
10D86
  8
0
 10
213.2145162615061054
 20
-60.2741809412444809
 30
0.0
 11
211.9850162615059901
 21
-61.012939072338888
 31
0.0
  0
LINE
  5
10D87
  8
3
 10
210.485016261506189
 20
-58.2741809412443601
 30
0.0
 11
210.7555162615057895
 21
-58.7427006846912718
 31
0.0
  0
LINE
  5
10D88
  8
0
 10
210.7555162615057895
 20
-60.2741809412444809
 30
0.0
 11
211.9850162615059901
 21
-61.012939072338888
 31
0.0
  0
LINE
  5
10D89
  8
0
 10
186.485016261508008
 20
-58.2741809412443601
 30
0.0
 11
183.485016261506189
 21
-58.2741809412443601
 31
0.0
  0
LINE
  5
10D8A
  8
0
 10
186.2145162615061054
 20
-56.7741809412443672
 30
0.0
 11
186.2145162615061054
 21
-60.2741809412441327
 31
0.0
  0
LINE
  5
10D8B
  8
0
 10
183.7555162615055906
 20
-56.7741809412443672
 30
0.0
 11
183.7555162615055906
 21
-60.2741809412444809
 31
0.0
  0
LINE
  5
10D8C
  8
3
 10
183.4850162615059901
 20
-56.7741809412443672
 30
0.0
 11
183.4850162615059901
 21
-58.2741809412443601
 31
0.0
  0
LINE
  5
10D8E
  8
1
 10
184.9850162615059048
 20
-52.2741809412443672
 30
0.0
 11
184.9850162615059048
 21
-62.7741809412443672
 31
0.0
  0
LINE
  5
10D8F
  8
0
 10
183.4850162615059901
 20
-53.5036809412446175
 30
0.0
 11
183.2555162615057895
 21
-53.2741809412443601
 31
0.0
  0
LINE
  5
10D90
  8
3
 10
186.4850162615070985
 20
-56.7741809412443672
 30
0.0
 11
186.4850162615074964
 21
-58.2741809412443601
 31
0.0
  0
LINE
  5
10D91
  8
0
 10
186.4850162615059048
 20
-53.5036809412438288
 30
0.0
 11
186.7145162615063043
 21
-53.2741809412431095
 31
0.0
  0
LINE
  5
10D92
  8
3
 10
183.485016261506189
 20
-58.2741809412443601
 30
0.0
 11
183.7555162615057895
 21
-58.7427006846912718
 31
0.0
  0
LINE
  5
10D93
  8
0
 10
183.7555162615057895
 20
-60.2741809412444809
 30
0.0
 11
186.2145162615061054
 21
-60.2741809412441327
 31
0.0
  0
LINE
  5
10D94
  8
0
 10
183.7555162615057895
 20
-60.2741809412444809
 30
0.0
 11
184.9850162615059048
 21
-61.012939072338888
 31
0.0
  0
LINE
  5
10D95
  8
3
 10
186.4850162615057059
 20
-58.2741809412443601
 30
0.0
 11
186.2145162615061054
 21
-58.7427006846912718
 31
0.0
  0
LINE
  5
10D96
  8
0
 10
186.2145162615061054
 20
-60.2741809412444809
 30
0.0
 11
184.9850162615059048
 21
-61.012939072338888
 31
0.0
  0
LINE
  5
10D9E
  8
0
 10
183.4850162615059901
 20
-53.2741809412443601
 30
0.0
 11
183.4850162615059901
 21
-56.7741809412443672
 31
0.0
  0
LINE
  5
10D9F
  8
0
 10
186.4850162615059048
 20
-56.7741809412443672
 30
0.0
 11
186.4850162615059048
 21
-53.2741809412443601
 31
0.0
  0
LINE
  5
10DA0
  8
0
 10
210.4850162615059048
 20
-53.2741809412443601
 30
0.0
 11
210.4850162615059048
 21
-56.7741809412443672
 31
0.0
  0
LINE
  5
10DA1
  8
0
 10
213.4850162615059901
 20
-56.7741809412443672
 30
0.0
 11
213.4850162615059901
 21
-53.2741809412443601
 31
0.0
  0
LINE
  5
10DA4
  8
0
 10
181.4850162615059048
 20
-52.9741809412444127
 30
0.0
 11
181.7850162615058878
 21
-53.2741809412443601
 31
0.0
  0
LINE
  5
10DA5
  8
0
 10
215.1850162615060071
 20
-53.2741809412443601
 30
0.0
 11
215.4850162615059901
 21
-52.9741809412444127
 31
0.0
  0
LINE
  5
10DA8
  8
0
 10
215.4850162615059901
 20
-48.5741809412443217
 30
0.0
 11
215.1850162615060071
 21
-48.2741809412443601
 31
0.0
  0
LINE
  5
10DA9
  8
0
 10
181.7850162615058878
 20
-48.2741809412443601
 30
0.0
 11
181.4850162615059048
 21
-48.5741809412443217
 31
0.0
  0
LINE
  5
10DAA
  8
0
 10
208.4850162615059048
 20
-53.4741809412444127
 30
0.0
 11
208.2850162615058878
 21
-53.2741809412443601
 31
0.0
  0
LINE
  5
10DAB
  8
0
 10
188.4850162615059048
 20
-53.4741809412444127
 30
0.0
 11
188.4850162615059048
 21
-58.2741809412443601
 31
0.0
  0
LINE
  5
10DAC
  8
0
 10
208.4850162615059048
 20
-58.2741809412443601
 30
0.0
 11
208.4850162615059048
 21
-53.4741809412444127
 31
0.0
  0
LINE
  5
10DAD
  8
0
 10
188.4850162615059048
 20
-58.2741809412443601
 30
0.0
 11
189.4850162615059048
 21
-59.2741809412443672
 31
0.0
  0
LINE
  5
10DAE
  8
0
 10
207.4850162615059901
 20
-59.2741809412443672
 30
0.0
 11
208.4850162615059048
 21
-58.2741809412443601
 31
0.0
  0
LINE
  5
10DAF
  8
0
 10
183.4850162615059901
 20
-56.7741809412443672
 30
0.0
 11
186.4850162615059048
 21
-56.7741809412443672
 31
0.0
  0
LINE
  5
10DB0
  8
0
 10
210.4850162615059048
 20
-56.7741809412443672
 30
0.0
 11
213.4850162615059901
 21
-56.7741809412443672
 31
0.0
  0
LINE
  5
10DB5
  8
0
 10
188.4850162615059048
 20
-58.2741809412443601
 30
0.0
 11
208.4850162615059048
 21
-58.2741809412443601
 31
0.0
  0
LINE
  5
10DB6
  8
0
 10
207.4850162615059901
 20
-59.2741809412443672
 30
0.0
 11
189.4850162615059048
 21
-59.2741809412443672
 31
0.0
  0
LINE
  5
10DBA
  8
0
 10
188.4850162615059048
 20
-53.4741809412444127
 30
0.0
 11
188.6850162615060071
 21
-53.2741809412443601
 31
0.0
  0
LINE
  5
10DBB
  8
3
 10
183.7555162615059885
 20
-53.2741809412443601
 30
0.0
 11
183.7555162615059885
 21
-56.7741809412443672
 31
0.0
  0
LINE
  5
10DBC
  8
3
 10
186.2145162615059064
 20
-53.2741809412443601
 30
0.0
 11
186.2145162615059064
 21
-56.7741809412443672
 31
0.0
  0
LINE
  5
10DBF
  8
3
 10
210.7555162615061022
 20
-53.2741809412443601
 30
0.0
 11
210.7555162615061022
 21
-56.7741809412443672
 31
0.0
  0
LINE
  5
10DC0
  8
3
 10
213.2145162615059064
 20
-53.2741809412443601
 30
0.0
 11
213.2145162615059064
 21
-56.7741809412443672
 31
0.0
  0
LINE
  5
10DC2
  8
0
 10
187.4850162615059048
 20
-53.7741809412443601
 30
0.0
 11
188.4850162615059048
 21
-53.7741809412443601
 31
0.0
  0
LINE
  5
10DC3
  8
0
 10
208.4850162615059048
 20
-53.7741809412443601
 30
0.0
 11
209.4850162615059901
 21
-53.7741809412443601
 31
0.0
  0
ENDSEC
  0
EOF
