  0
SECTION
  2
HEADER
  9
$ACADVER
  1
AC1009
  9
$INSBASE
 10
0.0
 20
0.0
 30
0.0
  9
$EXTMIN
 10
0.0
 20
-132.37327044564299
 30
0.0
  9
$EXTMAX
 10
371.97600000000199
 20
183.50000075995919
 30
0.0
  9
$LIMMIN
 10
0.0
 20
0.0
  9
$LIMMAX
 10
187.5
 20
135.0
  9
$ORTHOMODE
 70
     1
  9
$REGENMODE
 70
     1
  9
$FILLMODE
 70
     1
  9
$QTEXTMODE
 70
     0
  9
$MIRRTEXT
 70
     0
  9
$DRAGMODE
 70
     2
  9
$LTSCALE
 40
5.0
  9
$OSMODE
 70
    37
  9
$ATTMODE
 70
     1
  9
$TEXTSIZE
 40
0.2
  9
$TRACEWID
 40
0.05
  9
$TEXTSTYLE
  7
STANDARD
  9
$CLAYER
  8
0
  9
$CELTYPE
  6
BYLAYER
  9
$CECOLOR
 62
   256
  9
$DIMSCALE
 40
0.5
  9
$DIMASZ
 40
3.0
  9
$DIMEXO
 40
2.0
  9
$DIMDLI
 40
0.3799999999999999
  9
$DIMRND
 40
0.0
  9
$DIMDLE
 40
0.0
  9
$DIMEXE
 40
2.0
  9
$DIMTP
 40
0.0
  9
$DIMTM
 40
0.0
  9
$DIMTXT
 40
3.2000000000000002
  9
$DIMCEN
 40
0.09
  9
$DIMTSZ
 40
0.0
  9
$DIMTOL
 70
     0
  9
$DIMLIM
 70
     0
  9
$DIMTIH
 70
     0
  9
$DIMTOH
 70
     0
  9
$DIMSE1
 70
     0
  9
$DIMSE2
 70
     0
  9
$DIMTAD
 70
     1
  9
$DIMZIN
 70
     8
  9
$DIMBLK
  1

  9
$DIMASO
 70
     0
  9
$DIMSHO
 70
     0
  9
$DIMPOST
  1

  9
$DIMAPOST
  1

  9
$DIMALT
 70
     0
  9
$DIMALTD
 70
     2
  9
$DIMALTF
 40
25.399999999999999
  9
$DIMLFAC
 40
1.0
  9
$DIMTOFL
 70
     0
  9
$DIMTVP
 40
1.6000000000000001
  9
$DIMTIX
 70
     1
  9
$DIMSOXD
 70
     0
  9
$DIMSAH
 70
     0
  9
$DIMBLK1
  1

  9
$DIMBLK2
  1

  9
$DIMSTYLE
  2
STANDARD
  9
$DIMCLRD
 70
     0
  9
$DIMCLRE
 70
     0
  9
$DIMCLRT
 70
     0
  9
$DIMTFAC
 40
1.0
  9
$DIMGAP
 40
1.0
  9
$LUNITS
 70
     2
  9
$LUPREC
 70
     4
  9
$SKETCHINC
 40
0.1
  9
$FILLETRAD
 40
0.4
  9
$AUNITS
 70
     0
  9
$AUPREC
 70
     0
  9
$MENU
  1
E:\r13\win\SUPPORT\ACAD
  9
$ELEVATION
 40
0.0
  9
$PELEVATION
 40
0.0
  9
$THICKNESS
 40
0.0
  9
$LIMCHECK
 70
     0
  9
$BLIPMODE
 70
     0
  9
$CHAMFERA
 40
0.0
  9
$CHAMFERB
 40
0.0
  9
$SKPOLY
 70
     0
  9
$TDCREATE
 40
2451824.6906229062
  9
$TDUPDATE
 40
2457162.4586119908
  9
$TDINDWG
 40
0.3742788426
  9
$TDUSRTIMER
 40
0.3742786574
  9
$USRTIMER
 70
     1
  9
$ANGBASE
 50
0.0
  9
$ANGDIR
 70
     0
  9
$PDMODE
 70
     0
  9
$PDSIZE
 40
0.0
  9
$PLINEWID
 40
0.0
  9
$COORDS
 70
     1
  9
$SPLFRAME
 70
     0
  9
$SPLINETYPE
 70
     6
  9
$SPLINESEGS
 70
     8
  9
$ATTDIA
 70
     0
  9
$ATTREQ
 70
     1
  9
$HANDLING
 70
     1
  9
$HANDSEED
  5
8E7F
  9
$SURFTAB1
 70
     6
  9
$SURFTAB2
 70
     6
  9
$SURFTYPE
 70
     6
  9
$SURFU
 70
     6
  9
$SURFV
 70
     6
  9
$UCSNAME
  2

  9
$UCSORG
 10
0.0
 20
0.0
 30
0.0
  9
$UCSXDIR
 10
1.0
 20
0.0
 30
0.0
  9
$UCSYDIR
 10
0.0
 20
1.0
 30
0.0
  9
$PUCSNAME
  2

  9
$PUCSORG
 10
0.0
 20
0.0
 30
0.0
  9
$PUCSXDIR
 10
1.0
 20
0.0
 30
0.0
  9
$PUCSYDIR
 10
0.0
 20
1.0
 30
0.0
  9
$USERI1
 70
     0
  9
$USERI2
 70
     1
  9
$USERI3
 70
     0
  9
$USERI4
 70
     0
  9
$USERI5
 70
     0
  9
$USERR1
 40
0.0
  9
$USERR2
 40
0.0
  9
$USERR3
 40
0.0
  9
$USERR4
 40
0.0
  9
$USERR5
 40
0.0
  9
$WORLDVIEW
 70
     1
  9
$SHADEDGE
 70
     3
  9
$SHADEDIF
 70
    70
  9
$TILEMODE
 70
     1
  9
$MAXACTVP
 70
    16
  9
$PLIMCHECK
 70
     0
  9
$PEXTMIN
 10
1.0000000000000000E+020
 20
1.0000000000000000E+020
 30
1.0000000000000000E+020
  9
$PEXTMAX
 10
-1.0000000000000000E+020
 20
-1.0000000000000000E+020
 30
-1.0000000000000000E+020
  9
$PLIMMIN
 10
0.0
 20
0.0
  9
$PLIMMAX
 10
12.0
 20
9.0
  9
$UNITMODE
 70
     0
  9
$VISRETAIN
 70
     0
  9
$PLINEGEN
 70
     0
  9
$PSLTSCALE
 70
     0
  0
ENDSEC
  0
SECTION
  2
TABLES
  0
TABLE
  2
VPORT
 70
     1
  0
VPORT
  2
*ACTIVE
 70
     0
 10
0.0
 20
0.0
 11
1.0
 21
1.0
 12
187.9623878378693
 22
25.563365892607809
 13
0.0
 23
0.0
 14
5.0
 24
5.0
 15
5.0
 25
5.0
 16
0.0
 26
0.0
 36
1.0
 17
0.0
 27
0.0
 37
0.0
 40
318.55831050059498
 41
1.368715083798882
 42
50.0
 43
0.0
 44
0.0
 50
0.0
 51
0.0
 71
     0
 72
   500
 73
     1
 74
     0
 75
     0
 76
     0
 77
     0
 78
     2
  0
ENDTAB
  0
TABLE
  2
LTYPE
 70
     4
  0
LTYPE
  2
CONTINUOUS
 70
     0
  3
Solid Line
 72
    65
 73
     0
 40
0.0
  0
LTYPE
  2
CENTER
 70
     0
  3
____ _ ____ _ ____ _ ____ _ ____ _ ____ _ ____
 72
    65
 73
     4
 40
2.0
 49
1.25
 49
-0.25
 49
0.25
 49
-0.25
  0
LTYPE
  2
PHANTOM2
 70
     0
  3
___ _ _ ___ _ _ ___ _ _ ___ _ _
 72
    65
 73
     6
 40
1.25
 49
0.625
 49
-0.125
 49
0.125
 49
-0.125
 49
0.125
 49
-0.125
  0
LTYPE
  2
PHANTOM
 70
     0
  3
_____ _ _ _____ _ _ _____ _ _ _____ _ _ ____
 72
    65
 73
     6
 40
2.5
 49
1.25
 49
-0.25
 49
0.25
 49
-0.25
 49
0.25
 49
-0.25
  0
ENDTAB
  0
TABLE
  2
LAYER
 70
     4
  0
LAYER
  2
0
 70
     0
 62
     7
  6
CONTINUOUS
  0
LAYER
  2
1
 70
     0
 62
     1
  6
CENTER
  0
LAYER
  2
3
 70
     0
 62
     3
  6
CONTINUOUS
  0
LAYER
  2
5
 70
     0
 62
     3
  6
PHANTOM
  0
ENDTAB
  0
TABLE
  2
STYLE
 70
     2
  0
STYLE
  2
STANDARD
 70
     0
 40
0.0
 41
1.0
 50
0.0
 71
     0
 42
0.2
  3
TXT
  4
BIGFONT
  0
STYLE
  2
STANDARD1
 70
     0
 40
0.0
 41
1.0
 50
0.0
 71
     0
 42
3.0
  3
txt
  4

  0
ENDTAB
  0
TABLE
  2
VIEW
 70
     0
  0
ENDTAB
  0
TABLE
  2
UCS
 70
     0
  0
ENDTAB
  0
TABLE
  2
APPID
 70
     7
  0
APPID
  2
ACAD
 70
     0
  0
APPID
  2
ACAD_MLEADERVER
 70
     0
  0
APPID
  2
ACAD_EXEMPT_FROM_CAD_STANDARDS
 70
     0
  0
APPID
  2
ACAD_DSTYLE_DIMJAG
 70
     0
  0
APPID
  2
ACAD_DSTYLE_DIMTALN
 70
     0
  0
APPID
  2
ACAD_NAV_VCDISPLAY
 70
     0
  0
APPID
  2
ACAD_PSEXT
 70
     0
  0
ENDTAB
  0
TABLE
  2
DIMSTYLE
 70
     1
  0
DIMSTYLE
  2
STANDARD
 70
     0
  3

  4

  5

  6

  7

 40
1.0
 41
0.18
 42
0.0625
 43
0.38
 44
0.18
 45
0.0
 46
0.0
 47
0.0
 48
0.0
140
0.18
141
0.09
142
0.0
143
25.399999999999999
144
1.0
145
0.0
146
1.0
147
0.09
 71
     0
 72
     0
 73
     1
 74
     1
 75
     0
 76
     0
 77
     0
 78
     0
170
     0
171
     2
172
     0
173
     0
174
     0
175
     0
176
     0
177
     0
178
     0
  0
ENDTAB
  0
ENDSEC
  0
SECTION
  2
BLOCKS
  0
BLOCK
  8
0
  2
$MODEL_SPACE
 70
     0
 10
0.0
 20
0.0
 30
0.0
  3
$MODEL_SPACE
  1

  0
ENDBLK
  5
9
  8
0
  0
BLOCK
 67
     1
  8
0
  2
$PAPER_SPACE
 70
     0
 10
0.0
 20
0.0
 30
0.0
  3
$PAPER_SPACE
  1

  0
ENDBLK
  5
E
 67
     1
  8
0
  0
ENDSEC
  0
SECTION
  2
ENTITIES
  0
TEXT
  5
646E
  8
0
 62
     3
 10
155.93333333333331
 20
-71.787543816825377
 30
0.0
 40
3.2000000000000002
  1
組付け状態
 72
     1
 11
165.0
 21
-71.787543816825377
 31
0.0
  0
POLYLINE
  5
646F
  8
5
 66
     1
 10
0.0
 20
0.0
 30
0.0
 70
     1
  0
VERTEX
  5
8E72
  8
5
 10
125.0
 20
-10.0
 30
0.0
  0
VERTEX
  5
8E73
  8
5
 10
275.00000000000011
 20
-10.0
 30
0.0
  0
VERTEX
  5
8E74
  8
5
 10
275.00000000000011
 20
-132.37327044564299
 30
0.0
  0
VERTEX
  5
8E75
  8
5
 10
125.0
 20
-132.37327044564299
 30
0.0
  0
SEQEND
  5
8E76
  8
5
  0
TEXT
  5
6470
  8
0
 62
     3
 10
227.74666666666681
 20
-114.373270445643
 30
0.0
 40
3.2000000000000002
  1
取付け穴
 72
     1
 11
235.00000000000011
 21
-114.373270445643
 31
0.0
  0
TEXT
  5
6636
  8
0
 62
     3
 10
125.0
 20
0.0
 30
0.0
 40
3.2000000000000002
  1
■カムケースの取付け方法〈オフを上にする場合〉(下図)
  0
TEXT
  5
6637
  8
0
 62
     3
 10
174.6666666666666
 20
-19.168098188633891
 30
0.0
 40
3.2000000000000002
  1
6mm～10mmのベースの場合
 72
     1
 11
200.0
 21
-19.594764855300561
 31
0.0
 73
     1
  0
TEXT
  5
6918
  8
0
 62
     3
 10
0.0
 20
0.0
 30
0.0
 40
10.0
  1
QCTH0525-N-SUS
  7
STANDARD1
  0
TEXT
  5
69AA
  8
0
 62
     3
 10
140.03999999999999
 20
-78.787543816825377
 30
0.0
 40
3.2000000000000002
  1
Installed condition
 72
     1
 11
165.0
 21
-78.787543816825377
 31
0.0
  0
TEXT
  5
69AB
  8
0
 62
     3
 10
212.9733333333335
 20
-121.373270445643
 30
0.0
 40
3.2000000000000002
  1
Installation hole
 72
     1
 11
235.00000000000011
 21
-121.373270445643
 31
0.0
  0
TEXT
  5
69AC
  8
0
 62
     3
 10
125.0
 20
-7.0
 30
0.0
 40
3.2000000000000002
  1
■Installation Instructions for Cam Receptacles〈For Y-axis Positioning of "OFF" Mark〉 (see diagram below)
 41
0.85
  0
TEXT
  5
69AD
  8
0
 62
     3
 10
126.40000000000001
 20
-26.168098188633891
 30
0.0
 40
3.2000000000000002
  1
For installation on plate of over 6 to 10 mm thickness.
 72
     1
 11
200.0
 21
-26.594764855300561
 31
0.0
 73
     1
  0
LINE
  5
78F0
  8
0
 10
106.3508530683888
 20
39.0
 30
0.0
 11
119.0525589905606
 21
39.0
 31
0.0
  0
LINE
  5
78F1
  8
0
 10
100.0000001073029
 20
50.0
 30
0.0
 11
106.3508530683888
 21
39.0
 31
0.0
  0
LINE
  5
78F2
  8
0
 10
106.3508530683888
 20
61.0
 30
0.0
 11
100.0000001073029
 21
50.0
 31
0.0
  0
LINE
  5
78F3
  8
0
 10
119.0525589905606
 20
61.0
 30
0.0
 11
106.3508530683888
 21
61.0
 31
0.0
  0
LINE
  5
78F4
  8
0
 10
125.4034119516465
 20
50.0
 30
0.0
 11
119.0525589905606
 21
61.0
 31
0.0
  0
LINE
  5
78F5
  8
0
 10
119.0525589905606
 20
39.0
 30
0.0
 11
125.4034119516465
 21
50.0
 31
0.0
  0
CIRCLE
  5
78F6
  8
0
 10
112.70170602947471
 20
50.0
 30
0.0
 40
10.5
  0
CIRCLE
  5
78F8
  8
0
 10
112.70170602947471
 20
50.0
 30
0.0
 40
7.0
  0
CIRCLE
  5
78F9
  8
3
 10
112.70170602947471
 20
50.0
 30
0.0
 40
6.1879999999998168
  0
CIRCLE
  5
78FA
  8
0
 10
112.70170602947471
 20
50.0
 30
0.0
 40
5.0000000000000071
  0
POLYLINE
  5
78FB
  8
0
 66
     1
 10
0.0
 20
0.0
 30
0.0
 70
   128
  0
VERTEX
  5
8E77
  8
0
 10
111.66561961160861
 20
45.108525280172273
 30
0.0
  0
VERTEX
  5
8E78
  8
0
 10
111.7196541156523
 20
46.385199094482289
 30
0.0
  0
VERTEX
  5
8E79
  8
0
 10
111.8236858341987
 20
47.659256413724961
 30
0.0
  0
SEQEND
  5
8E7A
  8
0
  0
ARC
  5
78FC
  8
0
 10
112.70170602947471
 20
50.0
 30
0.0
 40
2.5000000000000471
 50
249.43877562140611
 51
306.87996855846541
  0
LINE
  5
78FD
  8
0
 10
114.20205754746929
 20
45.230414554444842
 30
0.0
 11
114.20205754746929
 21
48.000263686769813
 31
0.0
  0
LINE
  5
78FE
  8
0
 10
111.20205754746929
 20
54.769806540145908
 30
0.0
 11
111.20205754746929
 21
52.000263590234738
 31
0.0
  0
POLYLINE
  5
78FF
  8
0
 66
     1
 10
0.0
 20
0.0
 30
0.0
 70
   128
  0
VERTEX
  5
8E7B
  8
0
 10
113.7383852079069
 20
54.891349126877451
 30
0.0
  0
VERTEX
  5
8E7C
  8
0
 10
113.68430749996919
 20
53.614649768619699
 30
0.0
  0
VERTEX
  5
8E7D
  8
0
 10
113.580187608871
 20
52.340570467783657
 30
0.0
  0
SEQEND
  5
8E7E
  8
0
  0
ARC
  5
7900
  8
0
 10
112.7018005135541
 20
49.999339727039398
 30
0.0
 40
2.500584985683449
 50
69.434824627223534
 51
126.8524850624263
  0
LINE
  5
7901
  8
0
 10
117.2930021427743
 20
48.399999999999977
 30
0.0
 11
114.6226433007045
 21
48.399999999999977
 31
0.0
  0
ARC
  5
7902
  8
0
 10
117.2930021427743
 20
48.599999999999959
 30
0.0
 40
0.2000000000000028
 50
270.0
 51
343.04223669999811
  0
ARC
  5
7903
  8
0
 10
112.70170602947471
 20
49.999999999999943
 30
0.0
 40
2.5000000000000049
 50
306.87996855846541
 51
320.20818050044352
  0
LINE
  5
7904
  8
0
 10
108.1104099161751
 20
51.599999999999959
 30
0.0
 11
110.7807687582448
 21
51.599999999999959
 31
0.0
  0
ARC
  5
7905
  8
0
 10
108.1104099161751
 20
51.39999999999997
 30
0.0
 40
0.2000000000000028
 50
90.0
 51
163.04223669999149
  0
ARC
  5
7906
  8
0
 10
112.70170602947471
 20
49.999999999999943
 30
0.0
 40
2.5000000000000049
 50
126.8598280606757
 51
140.2081805004436
  0
ARC
  5
7907
  8
0
 10
108.1104099161751
 20
48.599999999999909
 30
0.0
 40
0.1999999999999823
 50
196.95776330000189
 51
270.0
  0
LINE
  5
7908
  8
0
 10
110.78076875824451
 20
48.400000000000432
 30
0.0
 11
108.1104099161751
 21
48.39999999999992
 31
0.0
  0
ARC
  5
7909
  8
0
 10
112.70170602947471
 20
49.999999999999943
 30
0.0
 40
2.5000000000000009
 50
219.7918194995458
 51
249.4387756214077
  0
ARC
  5
790A
  8
0
 10
117.2930021427743
 20
51.39999999999997
 30
0.0
 40
0.1999999999999744
 50
16.957763299995062
 51
90.0
  0
LINE
  5
790B
  8
0
 10
114.62264330070489
 20
51.599999999999511
 30
0.0
 11
117.2930021427743
 21
51.599999999999959
 31
0.0
  0
ARC
  5
790C
  8
0
 10
112.70170602947471
 20
50.0
 30
0.0
 40
2.4999999999999569
 50
39.791819499541383
 51
69.427481628971563
  0
ARC
  5
790E
  8
0
 10
112.70170602947471
 20
49.999999999999943
 30
0.0
 40
12.5
 50
1.6423634236725291
 51
58.357636576328048
  0
ARC
  5
790F
  8
0
 10
112.70170602947471
 20
49.999999999999943
 30
0.0
 40
12.500000000000011
 50
301.6423634236711
 51
358.35763657632913
  0
ARC
  5
7910
  8
0
 10
112.70170602947471
 20
49.999999999999943
 30
0.0
 40
12.5
 50
241.64236342367161
 51
298.35763657632828
  0
ARC
  5
7911
  8
0
 10
112.70170602947471
 20
49.999999999999943
 30
0.0
 40
12.5
 50
181.64236342367249
 51
238.3576365763281
  0
ARC
  5
7912
  8
0
 10
112.70170602947471
 20
49.999999999999943
 30
0.0
 40
12.5
 50
121.6423634236711
 51
178.35763657632739
  0
LINE
  5
791B
  8
0
 10
49.00000000000005
 20
111.34999999999999
 30
0.0
 11
49.093782217350899
 21
111.0
 31
0.0
  0
LINE
  5
791C
  8
0
 10
50.906217782649151
 20
111.0
 30
0.0
 11
51.00000000000005
 21
111.34999999999999
 31
0.0
  0
LINE
  5
791D
  8
0
 10
51.00000000000005
 20
111.34999999999999
 30
0.0
 11
51.00000000000005
 21
113.0
 31
0.0
  0
LINE
  5
791E
  8
0
 10
49.00000000000005
 20
113.0
 30
0.0
 11
49.00000000000005
 21
111.34999999999999
 31
0.0
  0
LINE
  5
791F
  8
0
 10
61.0
 20
110.2113248654051
 30
0.0
 11
60.5
 21
110.5
 31
0.0
  0
LINE
  5
7920
  8
0
 10
39.5
 20
110.5
 30
0.0
 11
39.0
 21
110.2113248654051
 31
0.0
  0
LINE
  5
7921
  8
0
 10
39.0
 20
102.7886751345947
 30
0.0
 11
39.5
 21
102.5
 31
0.0
  0
LINE
  5
7922
  8
0
 10
60.5
 20
102.5
 30
0.0
 11
61.0
 21
102.7886751345947
 31
0.0
  0
LINE
  5
7923
  8
0
 10
37.5
 20
113.2999999999999
 30
0.0
 11
37.800000000000011
 21
113.0
 31
0.0
  0
LINE
  5
7924
  8
0
 10
62.199999999999982
 20
113.0
 30
0.0
 11
62.5
 21
113.2999999999999
 31
0.0
  0
LINE
  5
7925
  8
0
 10
37.5
 20
115.7
 30
0.0
 11
37.5
 21
113.2999999999999
 31
0.0
  0
LINE
  5
7926
  8
0
 10
62.5
 20
113.2999999999999
 30
0.0
 11
62.5
 21
115.7
 31
0.0
  0
LINE
  5
7927
  8
0
 10
62.5
 20
115.7
 30
0.0
 11
62.199999999999982
 21
116.0
 31
0.0
  0
LINE
  5
7928
  8
0
 10
37.800000000000011
 20
116.0
 30
0.0
 11
37.5
 21
115.7
 31
0.0
  0
ARC
  5
7929
  8
0
 10
42.600000000000023
 20
112.59999999999989
 30
0.0
 40
0.4000000000000057
 50
0.0
 51
90.0
  0
ARC
  5
792A
  8
0
 10
57.400000000000027
 20
112.59999999999989
 30
0.0
 40
0.4000000000000057
 50
90.0
 51
180.0
  0
LINE
  5
792B
  8
0
 10
43.0
 20
101.0
 30
0.0
 11
44.00000000000005
 21
100.0
 31
0.0
  0
LINE
  5
792C
  8
0
 10
56.0
 20
100.0
 30
0.0
 11
57.0
 21
101.0
 31
0.0
  0
LINE
  5
792D
  8
0
 10
43.0
 20
112.59999999999989
 30
0.0
 11
43.0
 21
110.5
 31
0.0
  0
LINE
  5
792E
  8
0
 10
43.0
 20
102.5
 30
0.0
 11
43.0
 21
101.0
 31
0.0
  0
LINE
  5
792F
  8
0
 10
57.0
 20
101.0
 30
0.0
 11
57.0
 21
102.5
 31
0.0
  0
LINE
  5
7930
  8
0
 10
57.0
 20
110.5
 30
0.0
 11
57.0
 21
112.59999999999989
 31
0.0
  0
LINE
  5
7931
  8
0
 10
49.00000000000005
 20
111.34999999999999
 30
0.0
 11
51.00000000000005
 21
111.34999999999999
 31
0.0
  0
ARC
  5
7934
  8
0
 10
55.500000000000057
 20
94.033715693587595
 30
0.0
 40
16.159886733375469
 50
70.101866407746257
 51
109.8981335922536
  0
ARC
  5
7935
  8
0
 10
44.50000000000005
 20
94.033715693587496
 30
0.0
 40
16.159886733375622
 50
70.101866407746257
 51
109.8981335922536
  0
LINE
  5
7937
  8
0
 10
60.5
 20
110.5
 30
0.0
 11
39.5
 21
110.5
 31
0.0
  0
LINE
  5
7938
  8
0
 10
39.000000000000462
 20
110.2113248654054
 30
0.0
 11
39.0
 21
102.78867759759591
 31
0.0
  0
ARC
  5
7939
  8
0
 10
44.50000000000005
 20
118.9662843064124
 30
0.0
 40
16.15988673337565
 50
250.10186640774629
 51
289.89813359225371
  0
ARC
  5
793A
  8
0
 10
55.500000000000057
 20
118.96628430641221
 30
0.0
 40
16.15988673337537
 50
250.10186640774629
 51
289.89813359225519
  0
LINE
  5
793B
  8
0
 10
61.0
 20
102.7904572294174
 30
0.0
 11
61.000000000000448
 21
110.2113248654049
 31
0.0
  0
LINE
  5
793C
  8
0
 10
60.5
 20
102.5
 30
0.0
 11
39.5
 21
102.5
 31
0.0
  0
LINE
  5
793D
  8
0
 10
50.000000000000057
 20
103.77115550684221
 30
0.0
 11
50.000000000000057
 21
109.22884449315769
 31
0.0
  0
LINE
  5
7941
  8
0
 10
62.199999999999982
 20
113.0
 30
0.0
 11
37.800000000000011
 21
113.0
 31
0.0
  0
LINE
  5
7943
  8
0
 10
37.800000000000011
 20
116.0
 30
0.0
 11
62.199999999999982
 21
116.0
 31
0.0
  0
LINE
  5
7944
  8
0
 10
43.0
 20
101.0
 30
0.0
 11
57.0
 21
101.0
 31
0.0
  0
LINE
  5
7945
  8
0
 10
56.0
 20
100.0
 30
0.0
 11
44.00000000000005
 21
100.0
 31
0.0
  0
CIRCLE
  5
8745
  8
0
 10
102.20170602947471
 20
166.00000075995919
 30
0.0
 40
1.0
  0
LINE
  5
8746
  8
0
 10
119.0525590442121
 20
155.00000081956381
 30
0.0
 11
119.2594001231374
 21
155.35825991675401
 31
0.0
  0
LINE
  5
8747
  8
0
 10
125.1965709808843
 20
165.6417412924813
 30
0.0
 11
125.4034120589494
 21
166.00000075995919
 31
0.0
  0
LINE
  5
8748
  8
0
 10
106.3508530147373
 20
155.00000081956381
 30
0.0
 11
106.76453487552401
 21
155.00000081956381
 31
0.0
  0
LINE
  5
8749
  8
0
 10
118.63887718342529
 20
155.00000081956381
 30
0.0
 11
119.0525590442121
 21
155.00000081956381
 31
0.0
  0
LINE
  5
874A
  8
0
 10
100.0
 20
166.00000075995919
 30
0.0
 11
100.206841081013
 21
165.6417411896702
 31
0.0
  0
LINE
  5
874B
  8
0
 10
106.1440124873417
 20
155.3582595768882
 30
0.0
 11
106.3508530147373
 21
155.00000081956381
 31
0.0
  0
LINE
  5
874C
  8
0
 10
106.3508530147373
 20
177.00000070035449
 30
0.0
 11
106.1440121508594
 21
176.64174173568159
 31
0.0
  0
LINE
  5
874D
  8
0
 10
100.20684104937381
 20
166.35825922677881
 30
0.0
 11
100.0
 21
166.00000075995919
 31
0.0
  0
LINE
  5
874E
  8
0
 10
119.0525590442121
 20
177.00000070035449
 30
0.0
 11
118.63887718342519
 21
177.00000070035449
 31
0.0
  0
LINE
  5
874F
  8
0
 10
106.76453487552421
 20
177.00000070035449
 30
0.0
 11
106.3508530147373
 21
177.00000070035449
 31
0.0
  0
LINE
  5
8750
  8
0
 10
125.4034120589494
 20
166.00000075995919
 30
0.0
 11
125.1965709706177
 21
166.35826058549841
 31
0.0
  0
LINE
  5
8751
  8
0
 10
119.2593993687294
 20
176.64174206804839
 30
0.0
 11
119.0525590442121
 21
177.00000070035449
 31
0.0
  0
CIRCLE
  5
8752
  8
0
 10
112.70170602947471
 20
166.00000075995919
 30
0.0
 40
12.50000000000003
  0
ARC
  5
8753
  8
0
 10
112.70170602947471
 20
166.00000075995919
 30
0.0
 40
2.4999999999999818
 50
39.791819499556219
 51
140.20818050044349
  0
ARC
  5
8754
  8
0
 10
108.1104099161751
 20
167.4000007599592
 30
0.0
 40
0.1999999999999823
 50
90.0
 51
163.04223670000121
  0
LINE
  5
8755
  8
0
 10
110.78076870180659
 20
167.60000071953979
 30
0.0
 11
108.11041006818409
 21
167.60000071953979
 31
0.0
  0
ARC
  5
8756
  8
0
 10
117.2930021427743
 20
167.4000007599592
 30
0.0
 40
0.1999999999999823
 50
16.957763299998678
 51
90.0
  0
LINE
  5
8757
  8
0
 10
117.2930019907653
 20
167.60000071953979
 30
0.0
 11
114.62264335714281
 21
167.60000071953979
 31
0.0
  0
ARC
  5
8758
  8
0
 10
112.70170602947471
 20
166.00000075995919
 30
0.0
 40
4.9999999999999991
 50
163.0422366999945
 51
196.9577633000053
  0
ARC
  5
8759
  8
0
 10
112.70170602947471
 20
166.00000075995919
 30
0.0
 40
4.9999999999999991
 50
343.04223669999448
 51
16.957763300005279
  0
ARC
  5
875A
  8
0
 10
117.2930021427743
 20
164.6000007599591
 30
0.0
 40
0.1999999999999823
 50
270.0
 51
343.04223670000141
  0
ARC
  5
875B
  8
0
 10
108.1104099161751
 20
164.6000007599591
 30
0.0
 40
0.1999999999999823
 50
196.95776329999859
 51
270.0
  0
LINE
  5
875C
  8
0
 10
108.11041006818409
 20
164.40000080037859
 30
0.0
 11
110.78076870180659
 21
164.40000080037859
 31
0.0
  0
LINE
  5
875D
  8
0
 10
114.62264335714281
 20
164.40000080037859
 30
0.0
 11
117.2930019907653
 21
164.40000080037859
 31
0.0
  0
ARC
  5
875E
  8
0
 10
112.70170602947471
 20
166.00000075995919
 30
0.0
 40
2.5
 50
219.7918194995575
 51
320.20818050044352
  0
LINE
  5
875F
  8
0
 10
103.1079240143299
 20
111.0000008717179
 30
0.0
 11
103.2017063349485
 21
111.3500007428229
 31
0.0
  0
LINE
  5
8760
  8
0
 10
101.20170600712299
 20
111.3500007428229
 30
0.0
 11
101.29548832774159
 21
111.0000008717179
 31
0.0
  0
LINE
  5
8761
  8
0
 10
103.2017063349485
 20
113.0000007338822
 30
0.0
 11
103.2017063349485
 21
111.3500007428229
 31
0.0
  0
LINE
  5
8762
  8
0
 10
101.20170600712299
 20
111.3500007428229
 30
0.0
 11
101.20170600712289
 21
113.0000007338822
 31
0.0
  0
LINE
  5
8763
  8
0
 10
103.1079240143299
 20
111.0000008717179
 30
0.0
 11
101.29548832774159
 21
111.0000008717179
 31
0.0
  0
LINE
  5
8764
  8
0
 10
102.2017061710358
 20
110.5000007897615
 30
0.0
 11
100.0
 21
109.2288451269269
 31
0.0
  0
LINE
  5
8765
  8
0
 10
100.0
 20
103.77115607261651
 30
0.0
 11
102.2017061710358
 21
102.5000004097819
 31
0.0
  0
LINE
  5
8766
  8
0
 10
100.0
 20
103.77115607261651
 30
0.0
 11
100.0
 21
109.2288451269269
 31
0.0
  0
LINE
  5
8767
  8
0
 10
123.2017058879137
 20
102.5000004097819
 30
0.0
 11
125.4034120589495
 21
103.77115607261651
 31
0.0
  0
LINE
  5
8768
  8
0
 10
102.2017061710358
 20
110.5000007897615
 30
0.0
 11
123.2017058879137
 21
110.5000007897615
 31
0.0
  0
LINE
  5
8769
  8
0
 10
125.4034120589495
 20
109.2288451269269
 30
0.0
 11
123.2017058879137
 21
110.5000007897615
 31
0.0
  0
LINE
  5
876A
  8
0
 10
102.2017061710352
 20
102.5000004097822
 30
0.0
 11
123.2017058879137
 21
102.5000004097819
 31
0.0
  0
LINE
  5
876B
  8
0
 10
125.4034120589495
 20
103.77115607261651
 30
0.0
 11
125.4034120589495
 21
109.2288451269269
 31
0.0
  0
LINE
  5
876C
  8
0
 10
119.7017062455416
 20
112.60000071488319
 30
0.0
 11
119.7017062455415
 21
110.5000007897615
 31
0.0
  0
LINE
  5
876D
  8
0
 10
119.7017062455415
 20
102.5000004097819
 30
0.0
 11
119.7017062455416
 21
101.00000109523531
 31
0.0
  0
LINE
  5
876E
  8
0
 10
118.7017060816288
 20
100.0
 30
0.0
 11
119.7017062455416
 21
101.00000109523531
 31
0.0
  0
LINE
  5
876F
  8
0
 10
118.7017060816288
 20
100.0
 30
0.0
 11
106.7017059773207
 21
100.0
 31
0.0
  0
LINE
  5
8770
  8
0
 10
119.7017062455415
 20
111.0
 30
0.0
 11
105.7017058134078
 21
111.0
 31
0.0
  0
LINE
  5
8771
  8
0
 10
124.9017057940364
 20
116.00000075995921
 30
0.0
 11
100.5017062649131
 21
116.00000075995909
 31
0.0
  0
LINE
  5
8772
  8
0
 10
125.20170621573919
 20
115.7000007457099
 30
0.0
 11
124.9017057940364
 21
116.00000075995921
 31
0.0
  0
LINE
  5
8773
  8
0
 10
125.20170621573919
 20
115.7000007457099
 30
0.0
 11
125.20170621573919
 21
113.30000068992371
 31
0.0
  0
LINE
  5
8774
  8
0
 10
124.9017057940364
 20
113.0000007338822
 30
0.0
 11
125.20170621573919
 21
113.30000068992371
 31
0.0
  0
LINE
  5
8775
  8
0
 10
124.9017057940364
 20
113.0000007338822
 30
0.0
 11
100.501706264913
 21
113.0000007338821
 31
0.0
  0
ARC
  5
8776
  8
0
 10
120.1017060294748
 20
112.6000007599591
 30
0.0
 40
0.4000000000000057
 50
90.0
 51
180.0
  0
ARC
  5
8777
  8
0
 10
105.3017060294748
 20
112.6000007599591
 30
0.0
 40
0.4000000000000057
 50
0.0
 51
90.0
  0
LINE
  5
8778
  8
0
 10
105.7017058134079
 20
101.00000109523531
 30
0.0
 11
106.7017059773207
 21
100.0
 31
0.0
  0
LINE
  5
8779
  8
0
 10
105.7017058134079
 20
101.00000109523531
 30
0.0
 11
105.7017058134079
 21
102.5000004097821
 31
0.0
  0
LINE
  5
877A
  8
0
 10
105.7017058134079
 20
110.5000007897615
 30
0.0
 11
105.7017058134079
 21
112.60000071488319
 31
0.0
  0
LINE
  5
877B
  8
0
 10
100.5017062649131
 20
116.00000075995921
 30
0.0
 11
100.20170584321021
 21
115.7000007457099
 31
0.0
  0
LINE
  5
877C
  8
0
 10
100.20170584321021
 20
113.30000068992371
 30
0.0
 11
100.5017062649131
 21
113.0000007338822
 31
0.0
  0
LINE
  5
877D
  8
0
 10
100.20170584321021
 20
113.30000068992371
 30
0.0
 11
100.20170584321021
 21
115.7000007457099
 31
0.0
  0
LINE
  5
877E
  8
1
 10
112.70170602947471
 20
183.50000075995919
 30
0.0
 11
112.70170602947471
 21
148.50000075995911
 31
0.0
  0
LINE
  5
877F
  8
1
 10
102.20170602947471
 20
170.00000075995911
 30
0.0
 11
102.20170602947471
 21
162.00000075995911
 31
0.0
  0
LINE
  5
8780
  8
1
 10
130.20170602947479
 20
166.00000075995919
 30
0.0
 11
95.201706029474678
 21
166.00000075995919
 31
0.0
  0
LINE
  5
8781
  8
1
 10
112.70170602947471
 20
121.00000075995921
 30
0.0
 11
112.70170602947471
 21
95.0
 31
0.0
  0
LINE
  5
8782
  8
1
 10
102.2017061710358
 20
119.00000075995909
 30
0.0
 11
102.2017061710358
 21
108.0000008717179
 31
0.0
  0
ARC
  5
87AB
  8
0
 10
103.1754265073687
 20
108.56853431532561
 30
0.0
 40
5.753101033991836
 50
236.49907720031689
 51
303.50092279968311
  0
ARC
  5
87AC
  8
0
 10
112.70170602947471
 20
124.2662448477432
 30
0.0
 40
21.45651411378654
 50
252.78325781142391
 51
287.21674218857959
  0
ARC
  5
87AD
  8
0
 10
122.2279855515808
 20
108.56853420783671
 30
0.0
 40
5.7531009443593684
 50
236.49907660945999
 51
303.50092339053998
  0
ARC
  5
87AE
  8
0
 10
122.2279855515808
 20
104.4314690429773
 30
0.0
 40
5.7530992338522324
 50
56.499065333751538
 51
123.5009346662484
  0
ARC
  5
87AF
  8
0
 10
112.70170602947471
 20
88.689523174451608
 30
0.0
 40
21.49876927366385
 50
72.81815015111124
 51
107.1818498488887
  0
ARC
  5
87B0
  8
0
 10
103.1754265073687
 20
104.4314691504659
 30
0.0
 40
5.7530991442200259
 50
56.499064742892443
 51
123.5009352571075
  0
LINE
  5
87B1
  8
0
 10
119.0525590442121
 20
103.77115607261651
 30
0.0
 11
119.0525590442121
 21
109.2288451269269
 31
0.0
  0
LINE
  5
87B2
  8
0
 10
106.3508530147374
 20
103.77115607261651
 30
0.0
 11
106.3508530147374
 21
109.2288451269269
 31
0.0
  0
LINE
  5
87B7
  8
3
 10
106.5137060294749
 20
100.1880001229342
 30
0.0
 11
106.5137060294749
 21
102.5000004097821
 31
0.0
  0
LINE
  5
87B8
  8
3
 10
106.5137060294749
 20
110.5000007897615
 30
0.0
 11
106.5137060294749
 21
111.0
 31
0.0
  0
LINE
  5
87B9
  8
3
 10
118.8897060294745
 20
100.1880001229342
 30
0.0
 11
118.8897060294745
 21
102.5000004097819
 31
0.0
  0
LINE
  5
87BA
  8
3
 10
118.8897060294745
 20
110.5000007897615
 30
0.0
 11
118.8897060294745
 21
111.0
 31
0.0
  0
LINE
  5
87BB
  8
0
 10
105.7017058134079
 20
101.00000109523531
 30
0.0
 11
119.7017062455416
 21
101.0000010952355
 31
0.0
  0
LINE
  5
87BC
  8
3
 10
118.8897060294745
 20
111.0
 30
0.0
 11
119.7017062455416
 21
112.40642562998489
 31
0.0
  0
LINE
  5
87BD
  8
3
 10
106.5137060294749
 20
111.0
 30
0.0
 11
105.7017058134079
 21
112.40642562998489
 31
0.0
  0
LINE
  5
88B5
  8
0
 10
103.2017063349485
 20
111.3500007428229
 30
0.0
 11
101.2017063349485
 21
111.3500007428229
 31
0.0
  0
LINE
  5
88D4
  8
0
 10
57.00000021606683
 20
111.0
 30
0.0
 11
42.999999783933163
 21
111.0
 31
0.0
  0
LINE
  5
88D5
  8
1
 10
50.000000000000057
 20
121.00000075995921
 30
0.0
 11
50.000000000000057
 21
94.999999999999986
 31
0.0
  0
LINE
  5
88D6
  8
3
 10
43.812000000000232
 20
100.1880001229342
 30
0.0
 11
43.812000000000232
 21
102.5000004097821
 31
0.0
  0
LINE
  5
88D7
  8
3
 10
43.812000000000232
 20
110.5000007897615
 30
0.0
 11
43.812000000000232
 21
111.0
 31
0.0
  0
LINE
  5
88D8
  8
3
 10
56.187999999999867
 20
100.1880001229342
 30
0.0
 11
56.187999999999818
 21
102.5000004097819
 31
0.0
  0
LINE
  5
88D9
  8
3
 10
56.187999999999867
 20
110.5000007897615
 30
0.0
 11
56.187999999999867
 21
111.0
 31
0.0
  0
LINE
  5
88DA
  8
3
 10
56.187999999999867
 20
111.0
 30
0.0
 11
57.000000216066887
 21
112.40642562998489
 31
0.0
  0
LINE
  5
88DB
  8
3
 10
43.812000000000232
 20
111.0
 30
0.0
 11
42.99999978393322
 21
112.40642562998489
 31
0.0
  0
ARC
  5
8965
  8
0
 10
112.70170602947471
 20
50.000000000000057
 30
0.0
 40
12.5
 50
61.64236342367154
 51
118.3576365763284
  0
LINE
  5
89B2
  8
1
 10
112.70170602947471
 20
67.500000000000057
 30
0.0
 11
112.70170602947471
 21
32.49999999999995
 31
0.0
  0
LINE
  5
89B3
  8
1
 10
130.20170602947479
 20
50.0
 30
0.0
 11
95.201706029474678
 21
50.0
 31
0.0
  0
LINE
  5
8A13
  8
1
 10
235.0
 20
-33.594764855300561
 30
0.0
 11
235.0
 21
-64.594764855300554
 31
0.0
  0
LINE
  5
8A14
  8
1
 10
224.5
 20
-45.994764855300538
 30
0.0
 11
224.5
 21
-52.194764855300527
 31
0.0
  0
LINE
  5
8A15
  8
1
 10
219.50000000000011
 20
-49.094764855300546
 30
0.0
 11
250.50000000000011
 21
-49.094764855300546
 31
0.0
  0
CIRCLE
  5
8A18
  8
0
 10
224.5
 20
-49.094764855300539
 30
0.0
 40
1.0999999999999941
  0
LINE
  5
8A19
  8
0
 10
215.0
 20
-92.373270445642987
 30
0.0
 11
255.00000000000011
 21
-92.373270445642987
 31
0.0
  0
LINE
  5
8A1A
  8
0
 10
222.5000000000002
 20
-92.873270445642973
 30
0.0
 11
222.0000000000002
 21
-92.373270445642987
 31
0.0
  0
LINE
  5
8A1B
  8
0
 10
215.0
 20
-102.373270445643
 30
0.0
 11
255.00000000000011
 21
-102.373270445643
 31
0.0
  0
LINE
  5
8A1C
  8
0
 10
227.50000000000011
 20
-101.873270445643
 30
0.0
 11
227.00000000000011
 21
-102.373270445643
 31
0.0
  0
LINE
  5
8A1D
  8
0
 10
222.5
 20
-95.873270445642987
 30
0.0
 11
247.5
 21
-95.873270445642987
 31
0.0
  0
LINE
  5
8A1E
  8
0
 10
227.50000000000011
 20
-96.373270445642987
 30
0.0
 11
227.00000000000011
 21
-95.873270445642987
 31
0.0
  0
LINE
  5
8A1F
  8
0
 10
223.40000000000001
 20
-98.873270445642987
 30
0.0
 11
225.59999999999991
 21
-98.873270445642987
 31
0.0
  0
LINE
  5
8A20
  8
1
 10
235.0
 20
-89.373270445642973
 30
0.0
 11
235.0
 21
-105.373270445643
 31
0.0
  0
LINE
  5
8A21
  8
1
 10
224.49999999999989
 20
-90.373270445642973
 30
0.0
 11
224.5
 21
-101.5342171265733
 31
0.0
  0
LINE
  5
8A22
  8
0
 10
222.5000000000002
 20
-92.873270445642973
 30
0.0
 11
222.5
 21
-95.873270445642987
 31
0.0
  0
LINE
  5
8A23
  8
0
 10
227.50000000000011
 20
-96.373270445642987
 30
0.0
 11
227.50000000000011
 21
-101.873270445643
 31
0.0
  0
LINE
  5
8A24
  8
0
 10
223.40000000000001
 20
-95.873270445642987
 30
0.0
 11
223.40000000000001
 21
-98.873270445642987
 31
0.0
  0
LINE
  5
8A25
  8
0
 10
225.59999999999991
 20
-95.873270445642987
 30
0.0
 11
225.59999999999991
 21
-98.873270445642987
 31
0.0
  0
LINE
  5
8A26
  8
0
 10
224.49999999999989
 20
-99.534217126573296
 30
0.0
 11
225.59999999999991
 21
-98.873270445642987
 31
0.0
  0
LINE
  5
8A27
  8
0
 10
224.5
 20
-99.534217126573296
 30
0.0
 11
223.40000000000001
 21
-98.873270445643044
 31
0.0
  0
LINE
  5
8A28
  8
0
 10
247.5
 20
-92.87327044564293
 30
0.0
 11
248.0
 21
-92.373270445642945
 31
0.0
  0
LINE
  5
8A29
  8
0
 10
247.5
 20
-92.87327044564293
 30
0.0
 11
247.5
 21
-95.87327044564293
 31
0.0
  0
LINE
  5
8A2A
  8
0
 10
222.5000000000002
 20
-92.873270445642973
 30
0.0
 11
247.5
 21
-92.873270445642845
 31
0.0
  0
LINE
  5
8A2B
  8
0
 10
242.50000000000011
 20
-101.873270445643
 30
0.0
 11
243.00000000000011
 21
-102.373270445643
 31
0.0
  0
LINE
  5
8A2C
  8
0
 10
242.50000000000011
 20
-96.373270445642987
 30
0.0
 11
243.00000000000011
 21
-95.873270445642987
 31
0.0
  0
LINE
  5
8A2D
  8
0
 10
242.50000000000011
 20
-96.373270445642987
 30
0.0
 11
242.50000000000011
 21
-101.873270445643
 31
0.0
  0
LINE
  5
8A2E
  8
0
 10
227.50000000000011
 20
-96.373270445642987
 30
0.0
 11
242.50000000000011
 21
-96.373270445642987
 31
0.0
  0
LINE
  5
8A2F
  8
0
 10
227.50000000000011
 20
-101.873270445643
 30
0.0
 11
242.50000000000011
 21
-101.873270445643
 31
0.0
  0
CIRCLE
  5
8A6A
  8
0
 10
235.0
 20
-49.094764855300546
 30
0.0
 40
12.5
  0
CIRCLE
  5
8A6B
  8
0
 10
235.0
 20
-49.094764855300546
 30
0.0
 40
7.5
  0
LINE
  5
8B47
  8
0
 10
145.0
 20
-39.787543816825377
 30
0.0
 11
185.00000000000011
 21
-39.787543816825377
 31
0.0
  0
LINE
  5
8B48
  8
0
 10
152.50000000000011
 20
-40.287543816825377
 30
0.0
 11
152.0000000000002
 21
-39.787543816825377
 31
0.0
  0
LINE
  5
8B49
  8
0
 10
145.0
 20
-49.787543816825377
 30
0.0
 11
185.00000000000011
 21
-49.787543816825377
 31
0.0
  0
LINE
  5
8B4A
  8
0
 10
157.50000000000011
 20
-49.287543816825369
 30
0.0
 11
157.00000000000011
 21
-49.787543816825377
 31
0.0
  0
LINE
  5
8B4B
  8
0
 10
152.5
 20
-43.287543816825377
 30
0.0
 11
177.5
 21
-43.287543816825377
 31
0.0
  0
LINE
  5
8B4C
  8
0
 10
157.50000000000011
 20
-43.787543816825369
 30
0.0
 11
157.00000000000011
 21
-43.287543816825377
 31
0.0
  0
LINE
  5
8B4D
  8
0
 10
153.39999999999989
 20
-46.287543816825369
 30
0.0
 11
155.59999999999991
 21
-46.287543816825369
 31
0.0
  0
LINE
  5
8B50
  8
0
 10
152.50000000000011
 20
-40.287543816825377
 30
0.0
 11
152.5
 21
-43.287543816825377
 31
0.0
  0
LINE
  5
8B51
  8
0
 10
157.50000000000011
 20
-43.787543816825369
 30
0.0
 11
157.50000000000011
 21
-49.287543816825369
 31
0.0
  0
LINE
  5
8B52
  8
0
 10
153.39999999999989
 20
-43.287543816825377
 30
0.0
 11
153.39999999999989
 21
-46.287543816825369
 31
0.0
  0
LINE
  5
8B53
  8
0
 10
155.59999999999991
 20
-43.287543816825377
 30
0.0
 11
155.59999999999991
 21
-46.287543816825369
 31
0.0
  0
LINE
  5
8B54
  8
0
 10
154.49999999999989
 20
-46.948490497755692
 30
0.0
 11
155.59999999999991
 21
-46.287543816825369
 31
0.0
  0
LINE
  5
8B55
  8
0
 10
154.5
 20
-46.948490497755692
 30
0.0
 11
153.39999999999989
 21
-46.287543816825433
 31
0.0
  0
LINE
  5
8B56
  8
0
 10
177.5
 20
-40.287543816825313
 30
0.0
 11
178.0
 21
-39.78754381682532
 31
0.0
  0
LINE
  5
8B57
  8
0
 10
177.5
 20
-40.287543816825313
 30
0.0
 11
177.5
 21
-43.287543816825313
 31
0.0
  0
LINE
  5
8B58
  8
0
 10
152.50000000000011
 20
-40.287543816825377
 30
0.0
 11
177.5
 21
-40.287543816825227
 31
0.0
  0
LINE
  5
8B59
  8
0
 10
172.5
 20
-49.287543816825369
 30
0.0
 11
173.0
 21
-49.787543816825377
 31
0.0
  0
LINE
  5
8B5A
  8
0
 10
172.5
 20
-43.787543816825369
 30
0.0
 11
173.0
 21
-43.287543816825377
 31
0.0
  0
LINE
  5
8B5B
  8
0
 10
172.5
 20
-43.787543816825369
 30
0.0
 11
172.5
 21
-49.287543816825369
 31
0.0
  0
LINE
  5
8B5C
  8
0
 10
157.50000000000011
 20
-43.787543816825369
 30
0.0
 11
157.99999978393319
 21
-43.787543816825369
 31
0.0
  0
LINE
  5
8B5D
  8
0
 10
157.50000000000011
 20
-49.287543816825369
 30
0.0
 11
157.99999978393311
 21
-49.287543816825369
 31
0.0
  0
LINE
  5
8BA1
  8
0
 10
155.4062179848552
 20
-45.287543678989607
 30
0.0
 11
155.5000003054738
 21
-44.937543807884651
 31
0.0
  0
LINE
  5
8BA2
  8
0
 10
153.49999997764829
 20
-44.937543807884651
 30
0.0
 11
153.59378229826689
 21
-45.287543678989607
 31
0.0
  0
LINE
  5
8BA3
  8
0
 10
155.5000003054738
 20
-43.287543816825348
 30
0.0
 11
155.5000003054738
 21
-44.937543807884651
 31
0.0
  0
LINE
  5
8BA4
  8
0
 10
153.49999997764829
 20
-44.937543807884651
 30
0.0
 11
153.4999999776482
 21
-43.287543816825348
 31
0.0
  0
LINE
  5
8BA5
  8
0
 10
155.4062179848552
 20
-45.287543678989607
 30
0.0
 11
153.59378229826689
 21
-45.287543678989607
 31
0.0
  0
LINE
  5
8BA6
  8
0
 10
154.50000014156109
 20
-49.787543816825377
 30
0.0
 11
152.29829397052529
 21
-51.058699479660021
 31
0.0
  0
LINE
  5
8BA7
  8
0
 10
152.29829397052529
 20
-56.516388533970343
 30
0.0
 11
154.50000014156109
 21
-57.787544196804987
 31
0.0
  0
LINE
  5
8BA8
  8
0
 10
152.29829397052529
 20
-56.516388533970343
 30
0.0
 11
152.29829397052529
 21
-51.058699479660021
 31
0.0
  0
LINE
  5
8BA9
  8
0
 10
175.499999858439
 20
-57.787544196804987
 30
0.0
 11
177.70170602947479
 21
-56.516388533970343
 31
0.0
  0
LINE
  5
8BAB
  8
0
 10
177.70170602947479
 20
-51.058699479660021
 30
0.0
 11
175.499999858439
 21
-49.787543816825377
 31
0.0
  0
LINE
  5
8BAC
  8
0
 10
154.50000014156049
 20
-57.787544196804639
 30
0.0
 11
175.499999858439
 21
-57.787544196804987
 31
0.0
  0
LINE
  5
8BAD
  8
0
 10
177.70170602947479
 20
-56.516388533970343
 30
0.0
 11
177.70170602947479
 21
-51.058699479660021
 31
0.0
  0
LINE
  5
8BAE
  8
0
 10
172.00000021606689
 20
-43.687543835824329
 30
0.0
 11
172.00000021606661
 21
-49.787543816825377
 31
0.0
  0
LINE
  5
8BB2
  8
0
 10
172.00000021606681
 20
-45.28754455070753
 30
0.0
 11
157.99999978393311
 21
-45.28754455070753
 31
0.0
  0
LINE
  5
8BB4
  8
0
 10
177.50000018626449
 20
-40.587543804997559
 30
0.0
 11
177.19999976456171
 21
-40.28754379074833
 31
0.0
  0
LINE
  5
8BB6
  8
0
 10
177.19999976456171
 20
-43.287543816825348
 30
0.0
 11
177.50000018626449
 21
-42.987543860783767
 31
0.0
  0
ARC
  5
8BB8
  8
0
 10
172.40000000000009
 20
-43.6875437907484
 30
0.0
 40
0.4000000000000057
 50
90.0
 51
180.0
  0
ARC
  5
8BB9
  8
0
 10
157.59999999999999
 20
-43.6875437907484
 30
0.0
 40
0.4000000000000057
 50
0.0
 51
90.0
  0
LINE
  5
8BBC
  8
0
 10
157.99999978393311
 20
-49.787543816825377
 30
0.0
 11
157.99999978393319
 21
-43.687543835824329
 31
0.0
  0
LINE
  5
8BBD
  8
0
 10
152.8000002354384
 20
-40.28754379074833
 30
0.0
 11
152.49999981373551
 21
-40.587543804997559
 31
0.0
  0
LINE
  5
8BBE
  8
0
 10
152.49999981373551
 20
-42.987543860783767
 30
0.0
 11
152.8000002354384
 21
-43.287543816825348
 31
0.0
  0
LINE
  5
8BC0
  8
1
 10
165.0
 20
-35.28754379074833
 30
0.0
 11
165.0
 21
-61.287544550707537
 31
0.0
  0
LINE
  5
8BC1
  8
1
 10
154.50000014156109
 20
-37.287543790748451
 30
0.0
 11
154.50000014156109
 21
-48.287543678989607
 31
0.0
  0
ARC
  5
8BC2
  8
0
 10
155.47372047789401
 20
-51.719010291261299
 30
0.0
 40
5.753101033991836
 50
236.49907720031689
 51
303.50092279968311
  0
ARC
  5
8BC3
  8
0
 10
165.0
 20
-36.02129975884371
 30
0.0
 40
21.45651411378654
 50
252.78325781142371
 51
287.2167421885797
  0
ARC
  5
8BC4
  8
0
 10
174.52627952210611
 20
-51.719010398750157
 30
0.0
 40
5.7531009443593684
 50
236.49907660945991
 51
303.50092339054009
  0
ARC
  5
8BC5
  8
0
 10
174.52627952210611
 20
-55.856075563609608
 30
0.0
 40
5.7530992338522324
 50
56.499065333751332
 51
123.5009346662486
  0
ARC
  5
8BC6
  8
0
 10
165.0
 20
-71.598021432135312
 30
0.0
 40
21.49876927366385
 50
72.81815015111134
 51
107.1818498488886
  0
ARC
  5
8BC7
  8
0
 10
155.47372047789401
 20
-55.856075456121033
 30
0.0
 40
5.7530991442200259
 50
56.499064742892308
 51
123.5009352571077
  0
LINE
  5
8BC8
  8
0
 10
171.3508530147374
 20
-56.516388533970343
 30
0.0
 11
171.3508530147374
 21
-51.058699479660021
 31
0.0
  0
LINE
  5
8BC9
  8
0
 10
158.64914698526269
 20
-56.516388533970343
 30
0.0
 11
158.64914698526269
 21
-51.058699479660021
 31
0.0
  0
LINE
  5
8BCB
  8
3
 10
158.8120000000003
 20
-49.787543816825377
 30
0.0
 11
158.81200000000021
 21
-45.28754455070753
 31
0.0
  0
LINE
  5
8BCD
  8
3
 10
171.18799999999979
 20
-49.787543816825377
 30
0.0
 11
171.18799999999979
 21
-45.28754455070753
 31
0.0
  0
LINE
  5
8BCF
  8
3
 10
171.18799999999979
 20
-45.28754455070753
 30
0.0
 11
172.00000021606689
 21
-43.881118920722592
 31
0.0
  0
LINE
  5
8BD0
  8
3
 10
158.81200000000021
 20
-45.28754455070753
 30
0.0
 11
157.99999978393319
 21
-43.881118920722592
 31
0.0
  0
LINE
  5
8BD1
  8
0
 10
155.5000003054738
 20
-44.937543807884651
 30
0.0
 11
153.5000003054738
 21
-44.937543807884651
 31
0.0
  0
LINE
  5
8BD2
  8
0
 10
172.00000021606689
 20
-43.787543816825369
 30
0.0
 11
172.5
 21
-43.787543816825369
 31
0.0
  0
LINE
  5
8BD3
  8
0
 10
172.0000002160667
 20
-49.287543816825369
 30
0.0
 11
172.5
 21
-49.287543816825369
 31
0.0
  0
LINE
  5
8CEA
  8
0
 10
164.4034120589495
 20
110.2113248654051
 30
0.0
 11
164.9034120589495
 21
110.5
 31
0.0
  0
LINE
  5
8CEB
  8
0
 10
185.9034120589495
 20
110.5
 30
0.0
 11
186.4034120589495
 21
110.2113248654051
 31
0.0
  0
LINE
  5
8CEC
  8
0
 10
186.4034120589495
 20
102.7886751345947
 30
0.0
 11
185.9034120589495
 21
102.5
 31
0.0
  0
LINE
  5
8CED
  8
0
 10
164.9034120589495
 20
102.5
 30
0.0
 11
164.4034120589495
 21
102.7886751345947
 31
0.0
  0
LINE
  5
8CEE
  8
0
 10
187.9034120589495
 20
113.2999999999999
 30
0.0
 11
187.60341205894949
 21
113.0
 31
0.0
  0
LINE
  5
8CEF
  8
0
 10
163.20341205894951
 20
113.0
 30
0.0
 11
162.9034120589495
 21
113.2999999999999
 31
0.0
  0
LINE
  5
8CF0
  8
0
 10
187.9034120589495
 20
115.7
 30
0.0
 11
187.9034120589495
 21
113.2999999999999
 31
0.0
  0
LINE
  5
8CF1
  8
0
 10
162.9034120589495
 20
113.2999999999999
 30
0.0
 11
162.9034120589495
 21
115.7
 31
0.0
  0
LINE
  5
8CF2
  8
0
 10
162.9034120589495
 20
115.7
 30
0.0
 11
163.20341205894951
 21
116.0
 31
0.0
  0
LINE
  5
8CF3
  8
0
 10
187.60341205894949
 20
116.0
 30
0.0
 11
187.9034120589495
 21
115.7
 31
0.0
  0
ARC
  5
8CF4
  8
0
 10
182.8034120589495
 20
112.59999999999989
 30
0.0
 40
0.4000000000000057
 50
90.0
 51
180.0
  0
ARC
  5
8CF5
  8
0
 10
168.00341205894949
 20
112.59999999999989
 30
0.0
 40
0.4000000000000057
 50
0.000000000000007
 51
90.0
  0
LINE
  5
8CF6
  8
0
 10
182.4034120589495
 20
101.0
 30
0.0
 11
181.4034120589495
 21
100.0
 31
0.0
  0
LINE
  5
8CF7
  8
0
 10
169.4034120589495
 20
100.0
 30
0.0
 11
168.4034120589495
 21
101.0
 31
0.0
  0
LINE
  5
8CF8
  8
0
 10
182.4034120589495
 20
112.59999999999989
 30
0.0
 11
182.4034120589495
 21
110.5
 31
0.0
  0
LINE
  5
8CF9
  8
0
 10
182.4034120589495
 20
102.5
 30
0.0
 11
182.4034120589495
 21
101.0
 31
0.0
  0
LINE
  5
8CFA
  8
0
 10
168.4034120589495
 20
101.0
 30
0.0
 11
168.4034120589495
 21
102.5
 31
0.0
  0
LINE
  5
8CFB
  8
0
 10
168.4034120589495
 20
110.5
 30
0.0
 11
168.4034120589495
 21
112.59999999999989
 31
0.0
  0
ARC
  5
8CFD
  8
0
 10
169.90341205894941
 20
94.033715693587595
 30
0.0
 40
16.159886733375469
 50
70.101866407746385
 51
109.8981335922536
  0
ARC
  5
8CFE
  8
0
 10
180.90341205894941
 20
94.033715693587496
 30
0.0
 40
16.159886733375622
 50
70.101866407746385
 51
109.8981335922536
  0
LINE
  5
8CFF
  8
0
 10
164.9034120589495
 20
110.5
 30
0.0
 11
185.9034120589495
 21
110.5
 31
0.0
  0
LINE
  5
8D00
  8
0
 10
186.40341205894899
 20
110.2113248654054
 30
0.0
 11
186.4034120589495
 21
102.78867759759591
 31
0.0
  0
ARC
  5
8D01
  8
0
 10
180.90341205894941
 20
118.9662843064124
 30
0.0
 40
16.15988673337565
 50
250.1018664077464
 51
289.8981335922536
  0
ARC
  5
8D02
  8
0
 10
169.90341205894941
 20
118.96628430641221
 30
0.0
 40
16.15988673337537
 50
250.10186640774469
 51
289.8981335922536
  0
LINE
  5
8D03
  8
0
 10
164.4034120589495
 20
102.7904572294174
 30
0.0
 11
164.4034120589491
 21
110.2113248654049
 31
0.0
  0
LINE
  5
8D04
  8
0
 10
164.9034120589495
 20
102.5
 30
0.0
 11
185.9034120589495
 21
102.5
 31
0.0
  0
LINE
  5
8D05
  8
0
 10
175.40341205894941
 20
103.77115550684221
 30
0.0
 11
175.40341205894941
 21
109.22884449315769
 31
0.0
  0
LINE
  5
8D06
  8
0
 10
163.20341205894951
 20
113.0
 30
0.0
 11
187.60341205894949
 21
113.0
 31
0.0
  0
LINE
  5
8D07
  8
0
 10
187.60341205894949
 20
116.0
 30
0.0
 11
163.20341205894951
 21
116.0
 31
0.0
  0
LINE
  5
8D08
  8
0
 10
182.4034120589495
 20
101.0
 30
0.0
 11
168.4034120589495
 21
101.0
 31
0.0
  0
LINE
  5
8D09
  8
0
 10
169.4034120589495
 20
100.0
 30
0.0
 11
181.4034120589495
 21
100.0
 31
0.0
  0
LINE
  5
8D0A
  8
0
 10
168.40341184288269
 20
111.0
 30
0.0
 11
182.40341227501631
 21
111.0
 31
0.0
  0
LINE
  5
8D0B
  8
1
 10
175.40341205894941
 20
121.00000075995921
 30
0.0
 11
175.40341205894941
 21
94.999999999999986
 31
0.0
  0
LINE
  5
8D0C
  8
3
 10
181.59141205894929
 20
100.1880001229342
 30
0.0
 11
181.59141205894929
 21
102.5000004097821
 31
0.0
  0
LINE
  5
8D0D
  8
3
 10
181.59141205894929
 20
110.5000007897615
 30
0.0
 11
181.59141205894929
 21
111.0
 31
0.0
  0
LINE
  5
8D0E
  8
3
 10
169.2154120589496
 20
100.1880001229342
 30
0.0
 11
169.21541205894971
 21
102.5000004097819
 31
0.0
  0
LINE
  5
8D0F
  8
3
 10
169.2154120589496
 20
110.5000007897615
 30
0.0
 11
169.2154120589496
 21
111.0
 31
0.0
  0
LINE
  5
8D10
  8
3
 10
169.2154120589496
 20
111.0
 30
0.0
 11
168.4034118428826
 21
112.40642562998489
 31
0.0
  0
LINE
  5
8D11
  8
3
 10
181.59141205894929
 20
111.0
 30
0.0
 11
182.40341227501631
 21
112.40642562998489
 31
0.0
  0
ENDSEC
  0
EOF
