  0
SECTION
  2
HEADER
  9
$ACADVER
  1
AC1009
  9
$INSBASE
 10
0.0
 20
0.0
 30
0.0
  9
$EXTMIN
 10
0.0
 20
-2.9604365620736548
 30
0.0
  9
$EXTMAX
 10
174.5
 20
168.50000075995919
 30
0.0
  9
$LIMMIN
 10
0.0
 20
0.0
  9
$LIMMAX
 10
375.0
 20
270.0
  9
$ORTHOMODE
 70
     1
  9
$REGENMODE
 70
     1
  9
$FILLMODE
 70
     1
  9
$QTEXTMODE
 70
     0
  9
$MIRRTEXT
 70
     0
  9
$DRAGMODE
 70
     2
  9
$LTSCALE
 40
5.0
  9
$OSMODE
 70
    37
  9
$ATTMODE
 70
     1
  9
$TEXTSIZE
 40
4.000000000000048
  9
$TRACEWID
 40
0.05
  9
$TEXTSTYLE
  7
STANDARD
  9
$CLAYER
  8
0
  9
$CELTYPE
  6
BYLAYER
  9
$CECOLOR
 62
   256
  9
$DIMSCALE
 40
1.0
  9
$DIMASZ
 40
3.0
  9
$DIMEXO
 40
2.0
  9
$DIMDLI
 40
0.38
  9
$DIMRND
 40
0.0
  9
$DIMDLE
 40
0.0
  9
$DIMEXE
 40
2.0
  9
$DIMTP
 40
0.0
  9
$DIMTM
 40
0.0
  9
$DIMTXT
 40
3.2000000000000002
  9
$DIMCEN
 40
0.0
  9
$DIMTSZ
 40
0.0
  9
$DIMTOL
 70
     0
  9
$DIMLIM
 70
     0
  9
$DIMTIH
 70
     0
  9
$DIMTOH
 70
     0
  9
$DIMSE1
 70
     0
  9
$DIMSE2
 70
     0
  9
$DIMTAD
 70
     1
  9
$DIMZIN
 70
     8
  9
$DIMBLK
  1

  9
$DIMASO
 70
     0
  9
$DIMSHO
 70
     0
  9
$DIMPOST
  1

  9
$DIMAPOST
  1

  9
$DIMALT
 70
     0
  9
$DIMALTD
 70
     2
  9
$DIMALTF
 40
25.399999999999999
  9
$DIMLFAC
 40
1.0
  9
$DIMTOFL
 70
     0
  9
$DIMTVP
 40
1.6000000000000001
  9
$DIMTIX
 70
     1
  9
$DIMSOXD
 70
     0
  9
$DIMSAH
 70
     0
  9
$DIMBLK1
  1

  9
$DIMBLK2
  1

  9
$DIMSTYLE
  2
STANDARD
  9
$DIMCLRD
 70
     4
  9
$DIMCLRE
 70
     4
  9
$DIMCLRT
 70
     4
  9
$DIMTFAC
 40
1.0
  9
$DIMGAP
 40
0.09
  9
$LUNITS
 70
     2
  9
$LUPREC
 70
     1
  9
$SKETCHINC
 40
0.1
  9
$FILLETRAD
 40
22.0
  9
$AUNITS
 70
     0
  9
$AUPREC
 70
     0
  9
$MENU
  1
E:\r13\win\SUPPORT\ACAD
  9
$ELEVATION
 40
0.0
  9
$PELEVATION
 40
0.0
  9
$THICKNESS
 40
0.0
  9
$LIMCHECK
 70
     0
  9
$BLIPMODE
 70
     0
  9
$CHAMFERA
 40
1.1999999999999991
  9
$CHAMFERB
 40
1.1999999999999991
  9
$SKPOLY
 70
     0
  9
$TDCREATE
 40
2449954.6020138888
  9
$TDUPDATE
 40
2459814.6761463201
  9
$TDINDWG
 40
0.5558532639
  9
$TDUSRTIMER
 40
0.5558532639
  9
$USRTIMER
 70
     1
  9
$ANGBASE
 50
0.0
  9
$ANGDIR
 70
     0
  9
$PDMODE
 70
     0
  9
$PDSIZE
 40
0.0
  9
$PLINEWID
 40
0.0
  9
$COORDS
 70
     1
  9
$SPLFRAME
 70
     0
  9
$SPLINETYPE
 70
     6
  9
$SPLINESEGS
 70
     8
  9
$ATTDIA
 70
     0
  9
$ATTREQ
 70
     1
  9
$HANDLING
 70
     1
  9
$HANDSEED
  5
53B7
  9
$SURFTAB1
 70
     6
  9
$SURFTAB2
 70
     6
  9
$SURFTYPE
 70
     6
  9
$SURFU
 70
     6
  9
$SURFV
 70
     6
  9
$UCSNAME
  2

  9
$UCSORG
 10
0.0
 20
0.0
 30
0.0
  9
$UCSXDIR
 10
1.0
 20
0.0
 30
0.0
  9
$UCSYDIR
 10
0.0
 20
1.0
 30
0.0
  9
$PUCSNAME
  2

  9
$PUCSORG
 10
0.0
 20
0.0
 30
0.0
  9
$PUCSXDIR
 10
1.0
 20
0.0
 30
0.0
  9
$PUCSYDIR
 10
0.0
 20
1.0
 30
0.0
  9
$USERI1
 70
     0
  9
$USERI2
 70
     1
  9
$USERI3
 70
     0
  9
$USERI4
 70
     0
  9
$USERI5
 70
     0
  9
$USERR1
 40
0.0
  9
$USERR2
 40
0.0
  9
$USERR3
 40
0.0
  9
$USERR4
 40
0.0
  9
$USERR5
 40
0.0
  9
$WORLDVIEW
 70
     1
  9
$SHADEDGE
 70
     3
  9
$SHADEDIF
 70
    70
  9
$TILEMODE
 70
     1
  9
$MAXACTVP
 70
    16
  9
$PLIMCHECK
 70
     0
  9
$PEXTMIN
 10
1.0000000000000000E+020
 20
1.0000000000000000E+020
 30
1.0000000000000000E+020
  9
$PEXTMAX
 10
-1.0000000000000000E+020
 20
-1.0000000000000000E+020
 30
-1.0000000000000000E+020
  9
$PLIMMIN
 10
0.0
 20
0.0
  9
$PLIMMAX
 10
12.0
 20
9.0
  9
$UNITMODE
 70
     0
  9
$VISRETAIN
 70
     0
  9
$PLINEGEN
 70
     0
  9
$PSLTSCALE
 70
     0
  0
ENDSEC
  0
SECTION
  2
TABLES
  0
TABLE
  2
VPORT
 70
     1
  0
VPORT
  2
*ACTIVE
 70
     0
 10
0.0
 20
0.0
 11
1.0
 21
1.0
 12
241.50646713059189
 22
100.0
 13
0.0
 23
0.0
 14
10.0
 24
10.0
 15
10.0
 25
10.0
 16
0.0
 26
0.0
 36
1.0
 17
0.0
 27
0.0
 37
0.0
 40
200.08362249165211
 41
2.4148802017654472
 42
50.0
 43
0.0
 44
0.0
 50
0.0
 51
0.0
 71
     0
 72
   500
 73
     1
 74
     0
 75
     0
 76
     0
 77
     0
 78
     2
  0
ENDTAB
  0
TABLE
  2
LTYPE
 70
     5
  0
LTYPE
  2
CONTINUOUS
 70
     0
  3
Solid Line
 72
    65
 73
     0
 40
0.0
  0
LTYPE
  2
CENTER
 70
     0
  3
____ _ ____ _ ____ _ ____ _ ____ _ ____ _ ____
 72
    65
 73
     4
 40
2.0
 49
1.25
 49
-0.25
 49
0.25
 49
-0.25
  0
LTYPE
  2
HIDDEN
 70
     0
  3
_ _ _ _ _ _ _ _ _ _ _ _ _ _ _ _ _ _ _ _ _ _ _
 72
    65
 73
     2
 40
0.375
 49
0.25
 49
-0.125
  0
LTYPE
  2
PHANTOM
 70
     0
  3
_____ _ _ _____ _ _ _____ _ _ _____ _ _ ____
 72
    65
 73
     6
 40
2.5
 49
1.25
 49
-0.25
 49
0.25
 49
-0.25
 49
0.25
 49
-0.25
  0
LTYPE
  2
PHANTOM2
 70
     0
  3
___ _ _ ___ _ _ ___ _ _ ___ _ _
 72
    65
 73
     6
 40
1.25
 49
0.625
 49
-0.125
 49
0.125
 49
-0.125
 49
0.125
 49
-0.125
  0
ENDTAB
  0
TABLE
  2
LAYER
 70
     7
  0
LAYER
  2
0
 70
     0
 62
     7
  6
CONTINUOUS
  0
LAYER
  2
1
 70
     0
 62
     1
  6
CENTER
  0
LAYER
  2
3
 70
     0
 62
     3
  6
CONTINUOUS
  0
LAYER
  2
2
 70
     0
 62
     2
  6
HIDDEN
  0
LAYER
  2
5
 70
     0
 62
     3
  6
PHANTOM
  0
LAYER
  2
DEFPOINTS
 70
     0
 62
     7
  6
CONTINUOUS
  0
LAYER
  2
4
 70
     0
 62
     4
  6
CONTINUOUS
  0
ENDTAB
  0
TABLE
  2
STYLE
 70
     2
  0
STYLE
  2
STANDARD
 70
     0
 40
0.0
 41
1.0
 50
0.0
 71
     0
 42
4.000000000000048
  3
SIMPLEX
  4
BIGFONT
  0
STYLE
  2
STANDARD1
 70
     0
 40
0.0
 41
1.0
 50
0.0
 71
     0
 42
3.0
  3
txt
  4

  0
ENDTAB
  0
TABLE
  2
VIEW
 70
     1
  0
VIEW
  2
ALL
 70
     0
 40
270.0
 10
220.78595317725751
 20
135.0
 41
441.57190635451502
 11
0.0
 21
0.0
 31
1.0
 12
0.0
 22
0.0
 32
0.0
 42
50.0
 43
0.0
 44
0.0
 50
0.0
 71
     0
  0
ENDTAB
  0
TABLE
  2
UCS
 70
     0
  0
ENDTAB
  0
TABLE
  2
APPID
 70
     8
  0
APPID
  2
ACAD
 70
     0
  0
APPID
  2
ACAD_EXEMPT_FROM_CAD_STANDARDS
 70
     0
  0
APPID
  2
ACAD_MLEADERVER
 70
     0
  0
APPID
  2
ACAD_NAV_VCDISPLAY
 70
     0
  0
APPID
  2
ACAD_DSTYLE_DIMJAG
 70
     0
  0
APPID
  2
ACAD_DSTYLE_DIMTALN
 70
     0
  0
APPID
  2
ACAECLAYERSTANDARD
 70
     0
  0
APPID
  2
ACCMTRANSPARENCY
 70
     0
  0
ENDTAB
  0
TABLE
  2
DIMSTYLE
 70
     1
  0
DIMSTYLE
  2
STANDARD
 70
     0
  3

  4

  5

  6

  7

 40
1.0
 41
0.18
 42
0.0625
 43
0.38
 44
0.18
 45
0.0
 46
0.0
 47
0.0
 48
0.0
140
0.18
141
0.09
142
0.0
143
25.399999999999999
144
1.0
145
0.0
146
1.0
147
0.09
 71
     0
 72
     0
 73
     1
 74
     1
 75
     0
 76
     0
 77
     0
 78
     0
170
     0
171
     2
172
     0
173
     0
174
     0
175
     0
176
     0
177
     0
178
     0
  0
ENDTAB
  0
ENDSEC
  0
SECTION
  2
BLOCKS
  0
BLOCK
  8
0
  2
$MODEL_SPACE
 70
     0
 10
0.0
 20
0.0
 30
0.0
  3
$MODEL_SPACE
  1

  0
ENDBLK
  5
1126
  8
0
  0
BLOCK
 67
     1
  8
0
  2
$PAPER_SPACE
 70
     0
 10
0.0
 20
0.0
 30
0.0
  3
$PAPER_SPACE
  1

  0
ENDBLK
  5
1124
 67
     1
  8
0
  0
ENDSEC
  0
SECTION
  2
ENTITIES
  0
LINE
  5
4BAB
  8
0
 10
54.000000774860382
 20
73.443375716917217
 30
0.0
 11
55.249999582767479
 21
72.721687858458608
 31
0.0
  0
CIRCLE
  5
4BAC
  8
0
 10
54.0
 20
72.0
 30
0.0
 40
2.75
  0
LINE
  5
4BAD
  8
0
 10
55.249999582767479
 20
71.278312141541392
 30
0.0
 11
55.249999582767479
 21
72.721687858458608
 31
0.0
  0
LINE
  5
4BAE
  8
0
 10
54.000000774860382
 20
70.556624283082783
 30
0.0
 11
55.249999582767479
 21
71.278312141541392
 31
0.0
  0
LINE
  5
4BAF
  8
0
 10
54.000000774860382
 20
70.556624283082783
 30
0.0
 11
52.750000104308128
 21
71.278312141541392
 31
0.0
  0
LINE
  5
4BB0
  8
0
 10
54.000000774860382
 20
73.443375716917217
 30
0.0
 11
52.750000104308128
 21
72.721687858458608
 31
0.0
  0
LINE
  5
4BB1
  8
0
 10
52.750000104308128
 20
72.721687858458608
 30
0.0
 11
52.750000104308128
 21
71.278312141541392
 31
0.0
  0
LINE
  5
4BB2
  8
0
 10
89.999999225139618
 20
73.443375716917217
 30
0.0
 11
91.249999895691886
 21
72.721687858458608
 31
0.0
  0
CIRCLE
  5
4BB3
  8
0
 10
90.0
 20
72.0
 30
0.0
 40
2.75
  0
LINE
  5
4BB4
  8
0
 10
91.249999895691886
 20
71.278312141541392
 30
0.0
 11
91.249999895691886
 21
72.721687858458608
 31
0.0
  0
LINE
  5
4BB5
  8
0
 10
89.999999225139618
 20
70.556624283082783
 30
0.0
 11
91.249999895691886
 21
71.278312141541392
 31
0.0
  0
LINE
  5
4BB6
  8
0
 10
89.999999225139618
 20
70.556624283082783
 30
0.0
 11
88.750000417232513
 21
71.278312141541392
 31
0.0
  0
LINE
  5
4BB7
  8
0
 10
89.999999225139618
 20
73.443375716917217
 30
0.0
 11
88.750000417232513
 21
72.721687858458608
 31
0.0
  0
LINE
  5
4BB8
  8
0
 10
88.750000417232513
 20
72.721687858458608
 30
0.0
 11
88.750000417232513
 21
71.278312141541392
 31
0.0
  0
CIRCLE
  5
4BBA
  8
0
 10
90.0
 20
72.0
 30
0.0
 40
3.4999999999999849
  0
CIRCLE
  5
4BBC
  8
0
 10
54.0
 20
72.0
 30
0.0
 40
3.5
  0
CIRCLE
  5
4BC0
  8
0
 10
72.0
 20
72.0
 30
0.0
 40
9.9999999999999858
  0
LINE
  5
4BC2
  8
0
 10
52.790628120303147
 20
88.000000759959235
 30
0.0
 11
91.209371879696846
 21
88.000000759959235
 31
0.0
  0
ARC
  5
4BC4
  8
0
 10
72.0
 20
72.0
 30
0.0
 40
25.000000000000021
 50
140.2081805004452
 51
39.791819499554762
  0
LINE
  5
4BC6
  8
2
 10
56.699999913573258
 20
78.000000052154078
 30
0.0
 11
59.300000153482188
 21
78.000000052154078
 31
0.0
  0
LINE
  5
4BC8
  8
2
 10
84.699999846518054
 20
78.000000052154078
 30
0.0
 11
87.300000086426735
 21
78.000000052154078
 31
0.0
  0
LINE
  5
4BCD
  8
2
 10
80.849999867379665
 20
76.663790576159954
 30
0.0
 11
80.849999867379879
 21
88.000000759959235
 31
0.0
  0
LINE
  5
4BCE
  8
2
 10
63.150000132620562
 20
88.000000759959235
 30
0.0
 11
63.150000132620328
 21
76.659583326429129
 31
0.0
  0
LINE
  5
4BCF
  8
2
 10
56.200000762939453
 20
88.000000759959235
 30
0.0
 11
56.699999913573258
 21
87.499999746680274
 31
0.0
  0
LINE
  5
4BD0
  8
2
 10
59.30000015348196
 20
87.499999746680274
 30
0.0
 11
59.80000023543834
 21
88.000000759959235
 31
0.0
  0
LINE
  5
4BD1
  8
2
 10
84.199999764561653
 20
88.000000759959235
 30
0.0
 11
84.699999846518054
 21
87.499999746680274
 31
0.0
  0
LINE
  5
4BD2
  8
2
 10
87.300000086426735
 20
87.499999746680274
 30
0.0
 11
87.799999237060547
 21
88.000000759959235
 31
0.0
  0
LINE
  5
4BD3
  8
2
 10
56.699999913573258
 20
87.499999746680274
 30
0.0
 11
56.699999913573258
 21
78.000000052154078
 31
0.0
  0
LINE
  5
4BD4
  8
2
 10
59.30000015348196
 20
78.000000052154078
 30
0.0
 11
59.30000015348196
 21
87.499999746680274
 31
0.0
  0
LINE
  5
4BD5
  8
2
 10
56.699999913573258
 20
78.000000052154078
 30
0.0
 11
57.999999567866318
 21
77.21888118237257
 31
0.0
  0
LINE
  5
4BD6
  8
2
 10
57.999999567866318
 20
77.21888118237257
 30
0.0
 11
59.30000015348196
 21
78.000000052154078
 31
0.0
  0
LINE
  5
4BD7
  8
2
 10
84.699999846518054
 20
87.499999746680274
 30
0.0
 11
84.699999846518054
 21
78.000000052154078
 31
0.0
  0
LINE
  5
4BD8
  8
2
 10
87.300000086426735
 20
78.000000052154078
 30
0.0
 11
87.300000086426735
 21
87.499999746680274
 31
0.0
  0
LINE
  5
4BD9
  8
2
 10
84.699999846518054
 20
78.000000052154078
 30
0.0
 11
86.000000432133675
 21
77.21888118237257
 31
0.0
  0
LINE
  5
4BDA
  8
2
 10
86.000000432133675
 20
77.21888118237257
 30
0.0
 11
87.300000086426735
 21
78.000000052154078
 31
0.0
  0
LINE
  5
4BDB
  8
2
 10
56.5
 20
87.70000040531265
 30
0.0
 11
56.5
 21
82.000000000000014
 31
0.0
  0
LINE
  5
4BDC
  8
2
 10
56.5
 20
82.000000000000014
 30
0.0
 11
59.5
 21
82.000000000000014
 31
0.0
  0
LINE
  5
4BDD
  8
2
 10
59.5
 20
82.000000000000014
 30
0.0
 11
59.5
 21
87.699999965726946
 31
0.0
  0
LINE
  5
4BDE
  8
2
 10
84.500000000000014
 20
87.699999965727088
 30
0.0
 11
84.500000000000014
 21
82.000000000000014
 31
0.0
  0
LINE
  5
4BDF
  8
2
 10
84.500000000000014
 20
82.000000000000014
 30
0.0
 11
87.5
 21
82.000000000000014
 31
0.0
  0
LINE
  5
4BE0
  8
2
 10
87.5
 20
82.000000000000014
 30
0.0
 11
87.5
 21
87.700000405312494
 31
0.0
  0
LINE
  5
4BEB
  8
0
 10
144.5
 20
46.99999999999995
 30
0.0
 11
167.5
 21
46.99999999999995
 31
0.0
  0
LINE
  5
4BEC
  8
0
 10
167.5
 20
46.99999999999995
 30
0.0
 11
168.0
 21
47.499999999999943
 31
0.0
  0
LINE
  5
4BED
  8
0
 10
144.0
 20
47.499999999999943
 30
0.0
 11
144.5
 21
46.99999999999995
 31
0.0
  0
LINE
  5
4BF1
  8
0
 10
144.5
 20
87.999999999999929
 30
0.0
 11
167.5
 21
87.999999999999929
 31
0.0
  0
LINE
  5
4BF3
  8
0
 10
167.5
 20
87.999999999999929
 30
0.0
 11
168.0
 21
87.499999999999986
 31
0.0
  0
LINE
  5
4BF4
  8
0
 10
168.0
 20
87.499999999999986
 30
0.0
 11
168.0
 21
47.499999999999943
 31
0.0
  0
LINE
  5
4BF5
  8
0
 10
144.0
 20
47.499999999999943
 30
0.0
 11
144.0
 21
87.499999999999986
 31
0.0
  0
LINE
  5
4BF6
  8
0
 10
144.0
 20
87.499999999999986
 30
0.0
 11
144.5
 21
87.999999999999929
 31
0.0
  0
LINE
  5
4C2D
  8
0
 10
47.0
 20
161.50000075995919
 30
0.0
 11
47.0
 21
138.50000075995919
 31
0.0
  0
LINE
  5
4C2E
  8
0
 10
97.0
 20
138.50000075995919
 30
0.0
 11
97.0
 21
161.50000075995919
 31
0.0
  0
LINE
  5
4C2F
  8
0
 10
97.0
 20
161.50000075995919
 30
0.0
 11
96.5
 21
162.00000075995919
 31
0.0
  0
LINE
  5
4C30
  8
0
 10
47.5
 20
162.00000075995919
 30
0.0
 11
47.0
 21
161.50000075995919
 31
0.0
  0
LINE
  5
4C31
  8
0
 10
47.0
 20
138.50000075995919
 30
0.0
 11
47.5
 21
138.00000075995919
 31
0.0
  0
LINE
  5
4C32
  8
0
 10
96.5
 20
138.00000075995919
 30
0.0
 11
97.0
 21
138.50000075995919
 31
0.0
  0
LINE
  5
4C36
  8
0
 10
52.790627287701462
 20
138.50000075995919
 30
0.0
 11
52.790627287701462
 21
161.50000075995919
 31
0.0
  0
LINE
  5
4C38
  8
0
 10
91.209372712298546
 20
138.50000075995919
 30
0.0
 11
91.209372712298546
 21
161.50000075995919
 31
0.0
  0
LINE
  5
4C3C
  8
0
 10
53.026334038989717
 20
162.00000075995919
 30
0.0
 11
52.790627287701462
 21
161.50000075995919
 31
0.0
  0
LINE
  5
4C3E
  8
0
 10
91.209372712298546
 20
161.50000075995919
 30
0.0
 11
90.973665961010283
 21
162.00000075995919
 31
0.0
  0
LINE
  5
4C43
  8
0
 10
47.5
 20
162.00000075995919
 30
0.0
 11
96.5
 21
162.00000075995919
 31
0.0
  0
CIRCLE
  5
4C45
  8
0
 10
72.0
 20
150.00000075995919
 30
0.0
 40
8.8499999999999943
  0
CIRCLE
  5
4C46
  8
0
 10
86.0
 20
150.00000075995919
 30
0.0
 40
1.2999999999999821
  0
CIRCLE
  5
4C47
  8
0
 10
58.0
 20
150.00000075995919
 30
0.0
 40
1.2999999999999821
  0
LINE
  5
4C49
  8
0
 10
96.5
 20
138.00000075995919
 30
0.0
 11
47.500000000000227
 21
138.00000075995919
 31
0.0
  0
LINE
  5
4C4A
  8
0
 10
90.973665961010283
 20
138.00000075995919
 30
0.0
 11
91.209372712298546
 21
138.50000075995919
 31
0.0
  0
LINE
  5
4C4B
  8
0
 10
52.790627287701462
 20
138.50000075995919
 30
0.0
 11
53.026334038989717
 21
138.00000075995919
 31
0.0
  0
LINE
  5
4C4D
  8
2
 10
56.75
 20
139.00000075995919
 30
0.0
 11
51.25
 21
139.00000075995919
 31
0.0
  0
LINE
  5
4C53
  8
2
 10
92.75
 20
139.00000075995919
 30
0.0
 11
87.249999999999986
 21
139.00000075995919
 31
0.0
  0
LINE
  5
4C5B
  8
2
 10
93.499999999999986
 20
142.00000075995919
 30
0.0
 11
86.5
 21
142.00000075995919
 31
0.0
  0
LINE
  5
4C5C
  8
2
 10
57.5
 20
142.00000075995919
 30
0.0
 11
50.5
 21
142.00000075995919
 31
0.0
  0
LINE
  5
4C5F
  8
2
 10
56.75
 20
139.00000075995919
 30
0.0
 11
56.75
 21
142.00000075995919
 31
0.0
  0
LINE
  5
4C60
  8
2
 10
51.25
 20
142.00000075995919
 30
0.0
 11
51.25
 21
139.00000075995919
 31
0.0
  0
LINE
  5
4C61
  8
2
 10
55.5
 20
142.00000075995919
 30
0.0
 11
55.5
 21
162.00000075995911
 31
0.0
  0
LINE
  5
4C62
  8
2
 10
52.5
 20
162.00000075995911
 30
0.0
 11
52.5
 21
142.00000075995919
 31
0.0
  0
LINE
  5
4C63
  8
2
 10
92.75
 20
139.00000075995919
 30
0.0
 11
92.75
 21
142.00000075995919
 31
0.0
  0
LINE
  5
4C64
  8
2
 10
87.249999999999986
 20
142.00000075995919
 30
0.0
 11
87.249999999999986
 21
139.00000075995919
 31
0.0
  0
LINE
  5
4C6B
  8
2
 10
62.0
 20
162.00000075995919
 30
0.0
 11
62.0
 21
138.00000075995919
 31
0.0
  0
LINE
  5
4C6C
  8
2
 10
82.0
 20
138.00000075995919
 30
0.0
 11
81.999999999999773
 21
162.00000075995919
 31
0.0
  0
LINE
  5
4C71
  8
2
 10
93.499999999999986
 20
138.00000075995919
 30
0.0
 11
93.499999999999986
 21
142.00000075995919
 31
0.0
  0
LINE
  5
4C72
  8
2
 10
86.5
 20
142.00000075995919
 30
0.0
 11
86.500000000000227
 21
138.00000075995919
 31
0.0
  0
LINE
  5
4C73
  8
2
 10
57.500000000000227
 20
138.00000075995919
 30
0.0
 11
57.5
 21
142.00000075995919
 31
0.0
  0
LINE
  5
4C74
  8
2
 10
50.5
 20
142.00000075995919
 30
0.0
 11
50.5
 21
138.00000075995919
 31
0.0
  0
LINE
  5
4C7B
  8
2
 10
55.75
 20
142.00000075995919
 30
0.0
 11
55.75
 21
162.00000075995919
 31
0.0
  0
LINE
  5
4C7C
  8
2
 10
52.25
 20
162.00000075995919
 30
0.0
 11
52.25
 21
142.00000075995919
 31
0.0
  0
CIRCLE
  5
4C7D
  8
3
 10
58.0
 20
150.00000075995919
 30
0.0
 40
1.499999999999998
  0
CIRCLE
  5
4C7E
  8
3
 10
86.0
 20
150.00000075995919
 30
0.0
 40
1.5000000000000051
  0
LINE
  5
518E
  8
2
 10
56.699999913573258
 20
87.495274647094234
 30
0.0
 11
59.300000153482188
 21
87.495274647094234
 31
0.0
  0
LINE
  5
518F
  8
2
 10
84.699999846518054
 20
87.495274647094234
 30
0.0
 11
87.300000086426735
 21
87.495274647094234
 31
0.0
  0
LINE
  5
51AE
  8
0
 10
55.5
 20
162.00000075995919
 30
0.0
 11
55.5
 21
166.40000075995931
 31
0.0
  0
LINE
  5
51AF
  8
0
 10
52.5
 20
166.4000007599592
 30
0.0
 11
52.5
 21
162.00000075995919
 31
0.0
  0
LINE
  5
51B0
  8
3
 10
55.229500000000833
 20
162.00000075995931
 30
0.0
 11
55.229500000000833
 21
166.67050075995849
 31
0.0
  0
LINE
  5
51B1
  8
3
 10
52.770499999999402
 20
162.00000075995931
 30
0.0
 11
52.770499999999402
 21
166.67050075995849
 31
0.0
  0
LINE
  5
51B2
  8
0
 10
55.5
 20
166.4000007599592
 30
0.0
 11
52.5
 21
166.4000007599592
 31
0.0
  0
LINE
  5
51B3
  8
0
 10
54.900000000000091
 20
167.00000075995919
 30
0.0
 11
55.5
 21
166.4000007599592
 31
0.0
  0
LINE
  5
51B4
  8
0
 10
52.5
 20
166.4000007599592
 30
0.0
 11
53.100000000000129
 21
167.00000075995919
 31
0.0
  0
LINE
  5
51B5
  8
0
 10
53.100000000000129
 20
167.00000075995919
 30
0.0
 11
54.900000000000091
 21
167.00000075995919
 31
0.0
  0
LINE
  5
51B6
  8
1
 10
54.0
 20
168.50000075995919
 30
0.0
 11
54.0
 21
136.50000075995919
 31
0.0
  0
LINE
  5
51B9
  8
2
 10
55.229500000000833
 20
143.50000075995919
 30
0.0
 11
55.229500000000833
 21
162.00000075995931
 31
0.0
  0
LINE
  5
51BA
  8
2
 10
55.229500000000833
 20
143.50000075995919
 30
0.0
 11
55.5
 21
143.03148101651311
 31
0.0
  0
LINE
  5
51BB
  8
2
 10
52.770499999999402
 20
143.50000075995919
 30
0.0
 11
52.5
 21
143.03148101651311
 31
0.0
  0
LINE
  5
51BC
  8
2
 10
52.770499999999402
 20
143.50000075995919
 30
0.0
 11
52.770499999999402
 21
162.00000075995931
 31
0.0
  0
LINE
  5
51BD
  8
2
 10
52.5
 20
143.50000075995919
 30
0.0
 11
55.5
 21
143.50000075995919
 31
0.0
  0
LINE
  5
51BE
  8
2
 10
91.5
 20
142.00000075995919
 30
0.0
 11
91.5
 21
162.00000075995911
 31
0.0
  0
LINE
  5
51BF
  8
2
 10
88.499999999999986
 20
162.00000075995911
 30
0.0
 11
88.499999999999986
 21
142.00000075995919
 31
0.0
  0
LINE
  5
51C0
  8
2
 10
91.75
 20
142.00000075995919
 30
0.0
 11
91.75
 21
162.00000075995919
 31
0.0
  0
LINE
  5
51C1
  8
2
 10
88.250000000000014
 20
162.00000075995919
 30
0.0
 11
88.250000000000014
 21
142.00000075995919
 31
0.0
  0
LINE
  5
51C2
  8
0
 10
91.5
 20
162.00000075995919
 30
0.0
 11
91.5
 21
166.40000075995931
 31
0.0
  0
LINE
  5
51C3
  8
0
 10
88.499999999999986
 20
166.4000007599592
 30
0.0
 11
88.499999999999986
 21
162.00000075995919
 31
0.0
  0
LINE
  5
51C4
  8
3
 10
91.229500000000826
 20
162.00000075995931
 30
0.0
 11
91.229500000000826
 21
166.67050075995849
 31
0.0
  0
LINE
  5
51C5
  8
3
 10
88.770499999999402
 20
162.00000075995931
 30
0.0
 11
88.770499999999402
 21
166.67050075995849
 31
0.0
  0
LINE
  5
51C6
  8
0
 10
91.5
 20
166.4000007599592
 30
0.0
 11
88.499999999999986
 21
166.4000007599592
 31
0.0
  0
LINE
  5
51C7
  8
0
 10
90.900000000000077
 20
167.00000075995919
 30
0.0
 11
91.5
 21
166.4000007599592
 31
0.0
  0
LINE
  5
51C8
  8
0
 10
88.499999999999986
 20
166.4000007599592
 30
0.0
 11
89.100000000000136
 21
167.00000075995919
 31
0.0
  0
LINE
  5
51C9
  8
0
 10
89.100000000000136
 20
167.00000075995919
 30
0.0
 11
90.900000000000077
 21
167.00000075995919
 31
0.0
  0
LINE
  5
51CA
  8
1
 10
90.0
 20
168.50000075995919
 30
0.0
 11
90.0
 21
136.50000075995919
 31
0.0
  0
LINE
  5
51CB
  8
2
 10
91.229500000000826
 20
143.50000075995919
 30
0.0
 11
91.229500000000826
 21
162.00000075995931
 31
0.0
  0
LINE
  5
51CC
  8
2
 10
91.229500000000826
 20
143.50000075995919
 30
0.0
 11
91.5
 21
143.03148101651311
 31
0.0
  0
LINE
  5
51CD
  8
2
 10
88.770499999999402
 20
143.50000075995919
 30
0.0
 11
88.499999999999986
 21
143.03148101651311
 31
0.0
  0
LINE
  5
51CE
  8
2
 10
88.770499999999402
 20
143.50000075995919
 30
0.0
 11
88.770499999999402
 21
162.00000075995931
 31
0.0
  0
LINE
  5
51CF
  8
2
 10
88.499999999999986
 20
143.50000075995919
 30
0.0
 11
91.5
 21
143.50000075995919
 31
0.0
  0
LINE
  5
51D8
  8
0
 10
168.0
 20
70.499999999999986
 30
0.0
 11
172.40000000000009
 21
70.499999999999986
 31
0.0
  0
LINE
  5
51D9
  8
0
 10
172.40000000000009
 20
73.499999999999986
 30
0.0
 11
168.0
 21
73.499999999999986
 31
0.0
  0
LINE
  5
51DA
  8
3
 10
168.0
 20
70.77049999999916
 30
0.0
 11
172.67049999999921
 21
70.77049999999916
 31
0.0
  0
LINE
  5
51DB
  8
3
 10
168.0
 20
73.229500000000584
 30
0.0
 11
172.67049999999921
 21
73.229500000000584
 31
0.0
  0
LINE
  5
51DC
  8
0
 10
172.40000000000009
 20
70.499999999999986
 30
0.0
 11
172.40000000000009
 21
73.499999999999986
 31
0.0
  0
LINE
  5
51DD
  8
0
 10
173.0
 20
71.100000000000122
 30
0.0
 11
172.40000000000009
 21
70.499999999999986
 31
0.0
  0
LINE
  5
51DE
  8
0
 10
172.40000000000009
 20
73.499999999999986
 30
0.0
 11
173.0
 21
72.899999999999835
 31
0.0
  0
LINE
  5
51DF
  8
0
 10
173.0
 20
72.899999999999835
 30
0.0
 11
173.0
 21
71.100000000000122
 31
0.0
  0
LINE
  5
51E0
  8
1
 10
174.5
 20
71.999999999999986
 30
0.0
 11
142.5
 21
71.999999999999986
 31
0.0
  0
LINE
  5
51E8
  8
1
 10
58.0
 20
89.500000759959235
 30
0.0
 11
58.0
 21
75.71888118237257
 31
0.0
  0
LINE
  5
51E9
  8
1
 10
72.0
 20
43.999999999999979
 30
0.0
 11
72.0
 21
91.000000759959235
 31
0.0
  0
LINE
  5
51EA
  8
1
 10
86.0
 20
89.500000759959235
 30
0.0
 11
86.0
 21
75.71888118237257
 31
0.0
  0
LINE
  5
51EB
  8
1
 10
90.0
 20
67.000000000000014
 30
0.0
 11
90.0
 21
76.999999999999986
 31
0.0
  0
LINE
  5
51EC
  8
1
 10
54.0
 20
67.0
 30
0.0
 11
54.0
 21
77.0
 31
0.0
  0
LINE
  5
51ED
  8
1
 10
100.0
 20
72.0
 30
0.0
 11
44.0
 21
72.0
 31
0.0
  0
LINE
  5
51EE
  8
1
 10
100.0
 20
150.00000075995919
 30
0.0
 11
44.0
 21
150.00000075995919
 31
0.0
  0
LINE
  5
51F5
  8
1
 10
72.0
 20
135.00000075995919
 30
0.0
 11
72.0
 21
165.00000075995919
 31
0.0
  0
LINE
  5
5204
  8
1
 10
58.0
 20
147.00000075995919
 30
0.0
 11
58.0
 21
153.00000075995919
 31
0.0
  0
LINE
  5
520C
  8
1
 10
86.0
 20
147.00000075995919
 30
0.0
 11
86.0
 21
153.00000075995919
 31
0.0
  0
TEXT
  5
5233
  8
0
 62
     3
 10
0.0
 20
0.0000000000000142
 30
0.0
 40
10.0
  1
QCPSC1036-20
  7
STANDARD1
  0
ENDSEC
  0
EOF
