  0
SECTION
  2
HEADER
  9
$ACADVER
  1
AC1009
  9
$INSBASE
 10
0.0
 20
0.0
 30
0.0
  9
$EXTMIN
 10
0.0
 20
-2.960436562073669
 30
0.0
  9
$EXTMAX
 10
172.0000000000001137
 20
168.0000007599595904
 30
0.0
  9
$LIMMIN
 10
0.0
 20
0.0
  9
$LIMMAX
 10
375.0
 20
270.0
  9
$ORTHOMODE
 70
     1
  9
$REGENMODE
 70
     1
  9
$FILLMODE
 70
     1
  9
$QTEXTMODE
 70
     0
  9
$MIRRTEXT
 70
     0
  9
$DRAGMODE
 70
     2
  9
$LTSCALE
 40
5.0
  9
$OSMODE
 70
    37
  9
$ATTMODE
 70
     1
  9
$TEXTSIZE
 40
4.000000000000048
  9
$TRACEWID
 40
0.05
  9
$TEXTSTYLE
  7
STANDARD
  9
$CLAYER
  8
1
  9
$CELTYPE
  6
BYLAYER
  9
$CECOLOR
 62
   256
  9
$DIMSCALE
 40
1.0
  9
$DIMASZ
 40
3.0
  9
$DIMEXO
 40
2.0
  9
$DIMDLI
 40
0.38
  9
$DIMRND
 40
0.0
  9
$DIMDLE
 40
0.0
  9
$DIMEXE
 40
2.0
  9
$DIMTP
 40
0.0
  9
$DIMTM
 40
0.0
  9
$DIMTXT
 40
3.2000000000000002
  9
$DIMCEN
 40
0.0
  9
$DIMTSZ
 40
0.0
  9
$DIMTOL
 70
     0
  9
$DIMLIM
 70
     0
  9
$DIMTIH
 70
     0
  9
$DIMTOH
 70
     0
  9
$DIMSE1
 70
     0
  9
$DIMSE2
 70
     0
  9
$DIMTAD
 70
     1
  9
$DIMZIN
 70
     8
  9
$DIMBLK
  1

  9
$DIMASO
 70
     0
  9
$DIMSHO
 70
     0
  9
$DIMPOST
  1

  9
$DIMAPOST
  1

  9
$DIMALT
 70
     0
  9
$DIMALTD
 70
     2
  9
$DIMALTF
 40
25.3999999999999986
  9
$DIMLFAC
 40
1.0
  9
$DIMTOFL
 70
     0
  9
$DIMTVP
 40
1.6000000000000001
  9
$DIMTIX
 70
     1
  9
$DIMSOXD
 70
     0
  9
$DIMSAH
 70
     0
  9
$DIMBLK1
  1

  9
$DIMBLK2
  1

  9
$DIMSTYLE
  2
STANDARD
  9
$DIMCLRD
 70
     4
  9
$DIMCLRE
 70
     4
  9
$DIMCLRT
 70
     4
  9
$DIMTFAC
 40
1.0
  9
$DIMGAP
 40
0.09
  9
$LUNITS
 70
     2
  9
$LUPREC
 70
     1
  9
$SKETCHINC
 40
0.1
  9
$FILLETRAD
 40
22.0
  9
$AUNITS
 70
     0
  9
$AUPREC
 70
     0
  9
$MENU
  1
E:\r13\win\SUPPORT\ACAD
  9
$ELEVATION
 40
0.0
  9
$PELEVATION
 40
0.0
  9
$THICKNESS
 40
0.0
  9
$LIMCHECK
 70
     0
  9
$BLIPMODE
 70
     0
  9
$CHAMFERA
 40
1.1999999999999991
  9
$CHAMFERB
 40
1.1999999999999991
  9
$SKPOLY
 70
     0
  9
$TDCREATE
 40
2449954.6020138887688518
  9
$TDUPDATE
 40
2460713.4588194438256323
  9
$TDINDWG
 40
0.5871466898
  9
$TDUSRTIMER
 40
0.5871466898
  9
$USRTIMER
 70
     1
  9
$ANGBASE
 50
0.0
  9
$ANGDIR
 70
     0
  9
$PDMODE
 70
     0
  9
$PDSIZE
 40
0.0
  9
$PLINEWID
 40
0.0
  9
$COORDS
 70
     1
  9
$SPLFRAME
 70
     0
  9
$SPLINETYPE
 70
     6
  9
$SPLINESEGS
 70
     8
  9
$ATTDIA
 70
     1
  9
$ATTREQ
 70
     1
  9
$HANDLING
 70
     1
  9
$HANDSEED
  5
5B29
  9
$SURFTAB1
 70
     6
  9
$SURFTAB2
 70
     6
  9
$SURFTYPE
 70
     6
  9
$SURFU
 70
     6
  9
$SURFV
 70
     6
  9
$UCSNAME
  2

  9
$UCSORG
 10
0.0
 20
0.0
 30
0.0
  9
$UCSXDIR
 10
1.0
 20
0.0
 30
0.0
  9
$UCSYDIR
 10
0.0
 20
1.0
 30
0.0
  9
$PUCSNAME
  2

  9
$PUCSORG
 10
0.0
 20
0.0
 30
0.0
  9
$PUCSXDIR
 10
1.0
 20
0.0
 30
0.0
  9
$PUCSYDIR
 10
0.0
 20
1.0
 30
0.0
  9
$USERI1
 70
     0
  9
$USERI2
 70
     1
  9
$USERI3
 70
     0
  9
$USERI4
 70
     0
  9
$USERI5
 70
     0
  9
$USERR1
 40
0.0
  9
$USERR2
 40
0.0
  9
$USERR3
 40
0.0
  9
$USERR4
 40
0.0
  9
$USERR5
 40
0.0
  9
$WORLDVIEW
 70
     1
  9
$SHADEDGE
 70
     3
  9
$SHADEDIF
 70
    70
  9
$TILEMODE
 70
     1
  9
$MAXACTVP
 70
    16
  9
$PLIMCHECK
 70
     0
  9
$PEXTMIN
 10
1.0000000000000000E+20
 20
1.0000000000000000E+20
 30
1.0000000000000000E+20
  9
$PEXTMAX
 10
-1.0000000000000000E+20
 20
-1.0000000000000000E+20
 30
-1.0000000000000000E+20
  9
$PLIMMIN
 10
0.0
 20
0.0
  9
$PLIMMAX
 10
12.0
 20
9.0
  9
$UNITMODE
 70
     0
  9
$VISRETAIN
 70
     0
  9
$PLINEGEN
 70
     0
  9
$PSLTSCALE
 70
     0
  0
ENDSEC
  0
SECTION
  2
TABLES
  0
TABLE
  2
VPORT
 70
     1
  0
VPORT
  2
*ACTIVE
 70
     0
 10
0.0
 20
0.0
 11
1.0
 21
1.0
 12
127.2371008749550043
 22
82.5177684096246082
 13
0.0
 23
0.0
 14
10.0
 24
10.0
 15
10.0
 25
10.0
 16
0.0
 26
0.0
 36
1.0
 17
0.0
 27
0.0
 37
0.0
 40
172.3109142220818057
 41
2.3485221674876842
 42
50.0
 43
0.0
 44
0.0
 50
0.0
 51
0.0
 71
     0
 72
   500
 73
     1
 74
     0
 75
     0
 76
     0
 77
     0
 78
     2
  0
ENDTAB
  0
TABLE
  2
LTYPE
 70
     5
  0
LTYPE
  2
CONTINUOUS
 70
     0
  3
Solid Line
 72
    65
 73
     0
 40
0.0
  0
LTYPE
  2
CENTER
 70
     0
  3
____ _ ____ _ ____ _ ____ _ ____ _ ____ _ ____
 72
    65
 73
     4
 40
2.0
 49
1.25
 49
-0.25
 49
0.25
 49
-0.25
  0
LTYPE
  2
HIDDEN
 70
     0
  3
_ _ _ _ _ _ _ _ _ _ _ _ _ _ _ _ _ _ _ _ _ _ _
 72
    65
 73
     2
 40
0.375
 49
0.25
 49
-0.125
  0
LTYPE
  2
PHANTOM
 70
     0
  3
_____ _ _ _____ _ _ _____ _ _ _____ _ _ ____
 72
    65
 73
     6
 40
2.5
 49
1.25
 49
-0.25
 49
0.25
 49
-0.25
 49
0.25
 49
-0.25
  0
LTYPE
  2
PHANTOM2
 70
     0
  3
___ _ _ ___ _ _ ___ _ _ ___ _ _
 72
    65
 73
     6
 40
1.25
 49
0.625
 49
-0.125
 49
0.125
 49
-0.125
 49
0.125
 49
-0.125
  0
ENDTAB
  0
TABLE
  2
LAYER
 70
     7
  0
LAYER
  2
0
 70
     0
 62
     7
  6
CONTINUOUS
  0
LAYER
  2
1
 70
     0
 62
     1
  6
CENTER
  0
LAYER
  2
3
 70
     0
 62
     3
  6
CONTINUOUS
  0
LAYER
  2
2
 70
     0
 62
     2
  6
HIDDEN
  0
LAYER
  2
5
 70
     0
 62
     3
  6
PHANTOM
  0
LAYER
  2
DEFPOINTS
 70
     0
 62
     7
  6
CONTINUOUS
  0
LAYER
  2
4
 70
     0
 62
     4
  6
CONTINUOUS
  0
ENDTAB
  0
TABLE
  2
STYLE
 70
     2
  0
STYLE
  2
STANDARD
 70
     0
 40
0.0
 41
1.0
 50
0.0
 71
     0
 42
4.000000000000048
  3
SIMPLEX
  4
BIGFONT
  0
STYLE
  2
STANDARD1
 70
     0
 40
0.0
 41
1.0
 50
0.0
 71
     0
 42
3.0
  3
txt
  4

  0
ENDTAB
  0
TABLE
  2
VIEW
 70
     1
  0
VIEW
  2
ALL
 70
     0
 40
270.0
 10
220.785953177257511
 20
135.0
 41
441.571906354515022
 11
0.0
 21
0.0
 31
1.0
 12
0.0
 22
0.0
 32
0.0
 42
50.0
 43
0.0
 44
0.0
 50
0.0
 71
     0
  0
ENDTAB
  0
TABLE
  2
UCS
 70
     0
  0
ENDTAB
  0
TABLE
  2
APPID
 70
     8
  0
APPID
  2
ACAD
 70
     0
  0
APPID
  2
ACAD_EXEMPT_FROM_CAD_STANDARDS
 70
     0
  0
APPID
  2
ACAD_MLEADERVER
 70
     0
  0
APPID
  2
ACAD_NAV_VCDISPLAY
 70
     0
  0
APPID
  2
ACAD_DSTYLE_DIMJAG
 70
     0
  0
APPID
  2
ACAD_DSTYLE_DIMTALN
 70
     0
  0
APPID
  2
ACAECLAYERSTANDARD
 70
     0
  0
APPID
  2
ACCMTRANSPARENCY
 70
     0
  0
ENDTAB
  0
TABLE
  2
DIMSTYLE
 70
     2
  0
DIMSTYLE
  2
STANDARD
 70
     0
  3

  4

  5

  6

  7

 40
1.0
 41
0.18
 42
0.0625
 43
0.38
 44
0.18
 45
0.0
 46
0.0
 47
0.0
 48
0.0
140
0.18
141
0.09
142
0.0
143
25.3999999999999986
144
1.0
145
0.0
146
1.0
147
0.09
 71
     0
 72
     0
 73
     1
 74
     1
 75
     0
 76
     0
 77
     0
 78
     0
170
     0
171
     2
172
     0
173
     0
174
     0
175
     0
176
     0
177
     0
178
     0
  0
DIMSTYLE
  2
ISO-25
 70
     0
  3

  4

  5

  6

  7

 40
1.0
 41
2.5
 42
0.625
 43
3.75
 44
1.25
 45
0.0
 46
0.0
 47
0.0
 48
0.0
140
2.5
141
2.5
142
0.0
143
0.03937007874016
144
1.0
145
0.0
146
1.0
147
0.625
 71
     0
 72
     0
 73
     0
 74
     0
 75
     0
 76
     0
 77
     1
 78
     8
170
     0
171
     3
172
     1
173
     0
174
     0
175
     0
176
     0
177
     0
178
     0
  0
ENDTAB
  0
ENDSEC
  0
SECTION
  2
BLOCKS
  0
BLOCK
  8
0
  2
$MODEL_SPACE
 70
     0
 10
0.0
 20
0.0
 30
0.0
  3
$MODEL_SPACE
  1

  0
ENDBLK
  5
1126
  8
0
  0
BLOCK
 67
     1
  8
0
  2
$PAPER_SPACE
 70
     0
 10
0.0
 20
0.0
 30
0.0
  3
$PAPER_SPACE
  1

  0
ENDBLK
  5
1124
 67
     1
  8
0
  0
ENDSEC
  0
SECTION
  2
ENTITIES
  0
TEXT
  5
5088
  8
0
 62
     3
 10
0.0
 20
0.0
 30
0.0
 40
10.0
  1
QCPSC1036-14
  7
STANDARD1
  0
CIRCLE
  5
59F6
  8
0
 10
89.9999999999997158
 20
74.0
 30
0.0
 40
3.5
  0
CIRCLE
  5
59F7
  8
0
 10
71.9999999999999432
 20
72.0
 30
0.0
 40
7.0
  0
ARC
  5
59F8
  8
0
 10
71.9999999999999432
 20
74.0
 30
0.0
 40
23.0000000000000711
 50
151.4281218576890069
 51
28.5718781423110499
  0
CIRCLE
  5
59F9
  8
0
 10
53.9999999999997087
 20
74.0
 30
0.0
 40
3.5
  0
LINE
  5
59FA
  8
0
 10
51.800990123275767
 20
85.0000000000001137
 30
0.0
 11
92.1990098767240625
 21
85.0000000000001137
 31
0.0
  0
CIRCLE
  5
59FB
  8
0
 10
89.9999999999997158
 20
74.0000000000001137
 30
0.0
 40
2.7500000000001079
  0
LINE
  5
59FC
  8
0
 10
91.2499999999998437
 20
74.7216878364872628
 30
0.0
 11
89.9999999999997158
 21
75.4433756729741845
 31
0.0
  0
LINE
  5
59FD
  8
0
 10
89.9999999999997158
 20
75.4433756729741845
 30
0.0
 11
88.7499999999998437
 21
74.7216878364869217
 31
0.0
  0
LINE
  5
59FE
  8
0
 10
88.7499999999998437
 20
74.7216878364869217
 30
0.0
 11
88.7500000000000568
 21
73.2783121635129646
 31
0.0
  0
LINE
  5
59FF
  8
0
 10
88.7500000000000568
 20
73.2783121635129646
 30
0.0
 11
90.0000000000000568
 21
72.5566243270260429
 31
0.0
  0
LINE
  5
5A00
  8
0
 10
90.0000000000000568
 20
72.5566243270260429
 30
0.0
 11
91.25
 21
73.278312163513192
 31
0.0
  0
LINE
  5
5A01
  8
0
 10
91.25
 20
73.278312163513192
 30
0.0
 11
91.2499999999998437
 21
74.7216878364872628
 31
0.0
  0
CIRCLE
  5
5A02
  8
0
 10
53.9999999999997087
 20
74.0000000000001137
 30
0.0
 40
2.7500000000001079
  0
LINE
  5
5A03
  8
0
 10
55.2499999999998295
 20
74.7216878364871491
 30
0.0
 11
53.9999999999997087
 21
75.4433756729740708
 31
0.0
  0
LINE
  5
5A04
  8
0
 10
55.25
 20
73.278312163513192
 30
0.0
 11
55.2499999999998295
 21
74.7216878364871491
 31
0.0
  0
LINE
  5
5A05
  8
0
 10
52.75
 20
73.2783121635128509
 30
0.0
 11
54.0000000000001705
 21
72.556624327025915
 31
0.0
  0
LINE
  5
5A06
  8
0
 10
54.0000000000001705
 20
72.556624327025915
 30
0.0
 11
55.25
 21
73.278312163513192
 31
0.0
  0
LINE
  5
5A07
  8
0
 10
52.7499999999997726
 20
74.7216878364867938
 30
0.0
 11
52.75
 21
73.2783121635128509
 31
0.0
  0
LINE
  5
5A08
  8
0
 10
53.9999999999997087
 20
75.4433756729740708
 30
0.0
 11
52.7499999999997726
 21
74.7216878364867938
 31
0.0
  0
LINE
  5
5A09
  8
0
 10
139.9999999999998863
 20
51.0
 30
0.0
 11
164.0
 21
51.0000000000001208
 31
0.0
  0
LINE
  5
5A0A
  8
0
 10
164.0
 20
72.5000000000000568
 30
0.0
 11
169.0
 21
72.5000000000001705
 31
0.0
  0
LINE
  5
5A0B
  8
0
 10
169.0
 20
75.5000000000001705
 30
0.0
 11
164.0
 21
75.5000000000000568
 31
0.0
  0
LINE
  5
5A0C
  8
0
 10
139.9999999999998863
 20
85.0000000000001137
 30
0.0
 11
140.0
 21
50.9999999999999432
 31
0.0
  0
LINE
  5
5A0D
  8
0
 10
139.9999999999998863
 20
85.0000000000001137
 30
0.0
 11
164.0
 21
85.0000000000001137
 31
0.0
  0
LINE
  5
5A0E
  8
0
 10
164.0
 20
51.0000000000000497
 30
0.0
 11
164.0
 21
85.0000000000001137
 31
0.0
  0
LINE
  5
5A0F
  8
0
 10
169.0
 20
72.5000000000001705
 30
0.0
 11
169.0
 21
75.5000000000001705
 31
0.0
  0
LINE
  5
5A10
  8
0
 10
48.9999999999997087
 20
160.0000007599589935
 30
0.0
 11
48.9999999999998792
 21
136.0000007599589082
 31
0.0
  0
LINE
  5
5A11
  8
0
 10
94.9999999999998863
 20
136.0000007599593062
 30
0.0
 11
94.9999999999997158
 21
160.0000007599593914
 31
0.0
  0
LINE
  5
5A12
  8
0
 10
91.4999999999997726
 20
160.0000007599593062
 30
0.0
 11
91.4999999999997158
 21
165.0000007599593914
 31
0.0
  0
LINE
  5
5A13
  8
0
 10
88.4999999999997158
 20
165.0000007599593914
 30
0.0
 11
88.4999999999997868
 21
160.0000007599593062
 31
0.0
  0
LINE
  5
5A14
  8
0
 10
55.4999999999997726
 20
160.0000007599589935
 30
0.0
 11
55.4999999999997229
 21
165.0000007599589935
 31
0.0
  0
LINE
  5
5A15
  8
0
 10
52.4999999999997087
 20
165.0000007599589935
 30
0.0
 11
52.4999999999997726
 21
160.0000007599589935
 31
0.0
  0
LINE
  5
5A16
  8
0
 10
48.9999999999998295
 20
136.0000007599591072
 30
0.0
 11
94.9999999999999432
 21
136.0000007599593062
 31
0.0
  0
LINE
  5
5A17
  8
0
 10
51.800990123275767
 20
136.0000007599593062
 30
0.0
 11
51.8009901232755894
 21
160.0000007599589935
 31
0.0
  0
LINE
  5
5A18
  8
0
 10
94.9999999999996589
 20
160.0000007599593062
 30
0.0
 11
48.9999999999997726
 21
160.0000007599589935
 31
0.0
  0
LINE
  5
5A19
  8
0
 10
92.1990098767240625
 20
136.0000007599593062
 30
0.0
 11
92.1990098767238919
 21
160.0000007599593914
 31
0.0
  0
CIRCLE
  5
5A1A
  8
0
 10
71.9999999999998295
 20
148.0000007599591925
 30
0.0
 40
8.8499999999999091
  0
CIRCLE
  5
5A1B
  8
3
 10
57.9999999999997229
 20
148.0000007599589935
 30
0.0
 40
1.5
  0
CIRCLE
  5
5A1C
  8
3
 10
85.9999999999997868
 20
148.0000007599591925
 30
0.0
 40
1.4999999999998861
  0
LINE
  5
5A1D
  8
0
 10
64.9999999999997726
 20
153.4150261523280108
 30
0.0
 11
64.9999999999998863
 21
142.5849753675902889
 31
0.0
  0
LINE
  5
5A1E
  8
0
 10
78.9999999999998863
 20
142.5849753675902889
 30
0.0
 11
78.9999999999997726
 21
153.415026152328096
 31
0.0
  0
LINE
  5
5A1F
  8
0
 10
91.4999999999997158
 20
165.0000007599593914
 30
0.0
 11
88.4999999999997158
 21
165.0000007599593914
 31
0.0
  0
LINE
  5
5A20
  8
0
 10
55.4999999999997229
 20
165.0000007599589935
 30
0.0
 11
52.4999999999997087
 21
165.0000007599589935
 31
0.0
  0
LINE
  5
5A21
  8
3
 10
88.7704999999998137
 20
160.0000007599593914
 30
0.0
 11
88.7704999999996858
 21
165.0000007599595904
 31
0.0
  0
LINE
  5
5A22
  8
3
 10
91.2294999999997884
 20
160.0000007599593914
 30
0.0
 11
91.2294999999997458
 21
165.0000007599597041
 31
0.0
  0
LINE
  5
5A23
  8
1
 10
89.9999999999996021
 20
168.0000007599595904
 30
0.0
 11
90.0000000000003979
 21
133.0000007599593914
 31
0.0
  0
LINE
  5
5A24
  8
1
 10
71.9999999999999432
 20
131.0000007599593062
 30
0.0
 11
71.9999999999996021
 21
165.0000007599593062
 31
0.0
  0
CIRCLE
  5
5A25
  8
0
 10
85.9999999999997158
 20
148.0000007599593914
 30
0.0
 40
1.2295
  0
LINE
  5
5A26
  8
1
 10
90.4999999999998153
 20
148.0000007599593914
 30
0.0
 11
53.4999999999997229
 21
148.0000007599591072
 31
0.0
  0
LINE
  5
5A27
  8
1
 10
85.9999999999997158
 20
152.5000007599595051
 30
0.0
 11
85.9999999999997158
 21
143.5000007599593062
 31
0.0
  0
LINE
  5
5A28
  8
1
 10
57.9999999999997229
 20
152.5000007599591072
 30
0.0
 11
57.9999999999997229
 21
143.5000007599591072
 31
0.0
  0
CIRCLE
  5
5A29
  8
0
 10
57.9999999999997229
 20
148.0000007599591072
 30
0.0
 40
1.2295
  0
LINE
  5
5A2A
  8
3
 10
52.7704999999997426
 20
160.0000007599589935
 30
0.0
 11
52.7704999999996787
 21
165.0000007599593062
 31
0.0
  0
LINE
  5
5A2B
  8
3
 10
55.2294999999998026
 20
160.0000007599589935
 30
0.0
 11
55.229499999999689
 21
165.0000007599593914
 31
0.0
  0
LINE
  5
5A2C
  8
1
 10
53.9999999999996021
 20
168.0000007599593062
 30
0.0
 11
54.0000000000003979
 21
133.0000007599589935
 31
0.0
  0
LINE
  5
5A2D
  8
1
 10
47.4999999999997087
 20
74.0
 30
0.0
 11
60.4999999999997229
 21
74.0
 31
0.0
  0
LINE
  5
5A2E
  8
1
 10
53.9999999999997087
 20
80.5
 30
0.0
 11
53.9999999999997087
 21
67.4999999999999432
 31
0.0
  0
LINE
  5
5A2F
  8
1
 10
83.4999999999997158
 20
74.0
 30
0.0
 11
96.4999999999997158
 21
74.0
 31
0.0
  0
LINE
  5
5A30
  8
1
 10
89.9999999999997158
 20
80.5
 30
0.0
 11
89.9999999999997158
 21
67.4999999999999432
 31
0.0
  0
LINE
  5
5A31
  8
1
 10
81.9999999999999289
 20
72.0
 30
0.0
 11
61.9999999999999432
 21
72.0
 31
0.0
  0
LINE
  5
5A32
  8
1
 10
72.0
 20
45.9668013077890905
 30
0.0
 11
72.0
 21
89.9668013077892113
 31
0.0
  0
LINE
  5
5A33
  8
3
 10
163.9999999999998863
 20
75.2295000000001437
 30
0.0
 11
169.0000000000001137
 21
75.2295000000001437
 31
0.0
  0
LINE
  5
5A34
  8
3
 10
163.9999999999998863
 20
72.7705000000000837
 30
0.0
 11
169.0000000000003126
 21
72.7705000000001974
 31
0.0
  0
LINE
  5
5A35
  8
1
 10
172.0000000000001137
 20
74.0000000000002274
 30
0.0
 11
136.9999999999998863
 21
73.9999999999994742
 31
0.0
  0
LINE
  5
5A36
  8
1
 10
151.9999999999998863
 20
90.0250000000001052
 30
0.0
 11
151.9999999999998863
 21
46.025000000000027
 31
0.0
  0
LINE
  5
5A37
  8
2
 10
57.4999999999997087
 20
140.0000007599589082
 30
0.0
 11
50.4999999999998224
 21
140.0000007599589082
 31
0.0
  0
LINE
  5
5A38
  8
2
 10
56.7499999999997229
 20
137.0000007599589082
 30
0.0
 11
51.2499999999998295
 21
137.0000007599589082
 31
0.0
  0
LINE
  5
5A39
  8
2
 10
57.4999999999997087
 20
136.0000007599589082
 30
0.0
 11
57.4999999999997087
 21
140.0000007599589082
 31
0.0
  0
LINE
  5
5A3A
  8
2
 10
50.4999999999998224
 20
140.0000007599589082
 30
0.0
 11
50.4999999999998224
 21
136.0000007599589082
 31
0.0
  0
LINE
  5
5A3B
  8
2
 10
51.2499999999998295
 20
140.0000007599589082
 30
0.0
 11
51.2499999999998295
 21
137.0000007599589082
 31
0.0
  0
LINE
  5
5A3C
  8
2
 10
56.7499999999997229
 20
137.0000007599589082
 30
0.0
 11
56.7499999999997229
 21
140.0000007599589082
 31
0.0
  0
LINE
  5
5A3D
  8
2
 10
55.7499999999997087
 20
140.0000007599589082
 30
0.0
 11
55.7499999999997087
 21
160.0000007599589935
 31
0.0
  0
LINE
  5
5A3E
  8
2
 10
52.2499999999996021
 20
160.0000007599589935
 30
0.0
 11
52.2499999999998295
 21
140.0000007599589082
 31
0.0
  0
LINE
  5
5A3F
  8
2
 10
55.4999999999997229
 20
140.0000007599589082
 30
0.0
 11
55.4999999999996021
 21
160.0000007599589935
 31
0.0
  0
LINE
  5
5A40
  8
2
 10
52.4999999999996021
 20
160.0000007599589935
 30
0.0
 11
52.4999999999997087
 21
140.0000007599589082
 31
0.0
  0
LINE
  5
5A41
  8
2
 10
93.4999999999997158
 20
140.0000007599591072
 30
0.0
 11
86.4999999999998153
 21
140.0000007599591072
 31
0.0
  0
LINE
  5
5A42
  8
2
 10
92.7499999999997158
 20
137.0000007599591072
 30
0.0
 11
87.2499999999998295
 21
137.0000007599591072
 31
0.0
  0
LINE
  5
5A43
  8
2
 10
93.4999999999997158
 20
136.0000007599591072
 30
0.0
 11
93.4999999999997158
 21
140.0000007599591072
 31
0.0
  0
LINE
  5
5A44
  8
2
 10
86.4999999999998153
 20
140.0000007599591072
 30
0.0
 11
86.4999999999998153
 21
136.0000007599591072
 31
0.0
  0
LINE
  5
5A45
  8
2
 10
87.2499999999998295
 20
140.0000007599591072
 30
0.0
 11
87.2499999999998295
 21
137.0000007599591072
 31
0.0
  0
LINE
  5
5A46
  8
2
 10
92.7499999999997158
 20
137.0000007599591072
 30
0.0
 11
92.7499999999997158
 21
140.0000007599591072
 31
0.0
  0
LINE
  5
5A47
  8
2
 10
91.7499999999997158
 20
140.0000007599591072
 30
0.0
 11
91.7499999999997158
 21
160.0000007599593062
 31
0.0
  0
LINE
  5
5A48
  8
2
 10
88.2499999999996021
 20
160.0000007599593062
 30
0.0
 11
88.2499999999998295
 21
140.0000007599591072
 31
0.0
  0
LINE
  5
5A49
  8
2
 10
91.4999999999997158
 20
140.0000007599591072
 30
0.0
 11
91.4999999999996163
 21
160.0000007599593062
 31
0.0
  0
LINE
  5
5A4A
  8
2
 10
88.4999999999996021
 20
160.0000007599593062
 30
0.0
 11
88.4999999999997158
 21
140.0000007599591072
 31
0.0
  0
LINE
  5
5A4B
  8
2
 10
63.150000000000027
 20
85.0000000000001137
 30
0.0
 11
63.1499999999999702
 21
72.0
 31
0.0
  0
LINE
  5
5A4C
  8
2
 10
80.8500000000000227
 20
85.0000000000001137
 30
0.0
 11
80.8500000000000654
 21
72.0
 31
0.0
  0
LINE
  5
5A4D
  8
2
 10
64.9999999999999432
 20
72.0
 30
0.0
 11
63.150000000000027
 21
72.0
 31
0.0
  0
LINE
  5
5A4E
  8
2
 10
78.9999999999999432
 20
72.0
 30
0.0
 11
80.8500000000000654
 21
72.0
 31
0.0
  0
LINE
  5
5A4F
  8
2
 10
64.9999999999997726
 20
153.4150261523280108
 30
0.0
 11
64.9999999999997158
 21
160.0000007599591072
 31
0.0
  0
LINE
  5
5A50
  8
2
 10
64.9999999999998863
 20
142.5849753675902889
 30
0.0
 11
64.9999999999998863
 21
136.0000007599591072
 31
0.0
  0
LINE
  5
5A51
  8
2
 10
78.9999999999997726
 20
153.415026152328096
 30
0.0
 11
78.9999999999996021
 21
160.0000007599593062
 31
0.0
  0
LINE
  5
5A52
  8
2
 10
78.9999999999999432
 20
142.5849753675904026
 30
0.0
 11
79.0000000000001137
 21
136.0000007599593062
 31
0.0
  0
LINE
  5
5A55
  8
1
 10
134.9999999999998863
 20
72.0000000000000142
 30
0.0
 11
169.0
 21
72.0000000000000142
 31
0.0
  0
LINE
  5
5A7A
  8
2
 10
55.2294999999997174
 20
141.5000007599587946
 30
0.0
 11
55.2294999999995966
 21
160.0000007599587946
 31
0.0
  0
LINE
  5
5A7B
  8
2
 10
52.7704999999996787
 20
141.5000007599587946
 30
0.0
 11
52.7704999999995721
 21
160.0000007599589082
 31
0.0
  0
LINE
  5
5A7C
  8
2
 10
55.2295000000008329
 20
141.5000007599587946
 30
0.0
 11
55.5000000000001066
 21
141.0314810165127142
 31
0.0
  0
LINE
  5
5A7D
  8
2
 10
52.7704999999994016
 20
141.5000007599587946
 30
0.0
 11
52.5000000000001066
 21
141.0314810165127142
 31
0.0
  0
LINE
  5
5A7E
  8
2
 10
52.5000000000001066
 20
141.5000007599587946
 30
0.0
 11
55.5000000000001066
 21
141.5000007599587946
 31
0.0
  0
LINE
  5
5A8A
  8
2
 10
91.2294999999992342
 20
141.5000007599589935
 30
0.0
 11
91.2294999999991347
 21
160.0000007599589935
 31
0.0
  0
LINE
  5
5A8B
  8
2
 10
88.7704999999992168
 20
141.5000007599589935
 30
0.0
 11
88.7704999999990889
 21
160.0000007599591072
 31
0.0
  0
LINE
  5
5A8C
  8
2
 10
91.2295000000003569
 20
141.5000007599589935
 30
0.0
 11
91.4999999999996447
 21
141.0314810165129131
 31
0.0
  0
LINE
  5
5A8D
  8
2
 10
88.7704999999989326
 20
141.5000007599589935
 30
0.0
 11
88.4999999999996447
 21
141.0314810165129131
 31
0.0
  0
LINE
  5
5A8E
  8
2
 10
88.4999999999996447
 20
141.5000007599589935
 30
0.0
 11
91.4999999999996447
 21
141.5000007599589935
 31
0.0
  0
LINE
  5
5AA0
  8
2
 10
84.4999999999998579
 20
79.0000000000001137
 30
0.0
 11
87.4999999999998437
 21
79.0000000000001137
 31
0.0
  0
LINE
  5
5AA1
  8
2
 10
84.4999999999998579
 20
84.9750000000001364
 30
0.0
 11
84.4999999999998579
 21
79.0000000000001137
 31
0.0
  0
LINE
  5
5AA2
  8
2
 10
84.7704999999998137
 20
79.0000000000002274
 30
0.0
 11
84.7704999999998137
 21
84.9750000000002501
 31
0.0
  0
LINE
  5
5AA3
  8
2
 10
87.2294999999999447
 20
79.0000000000001137
 30
0.0
 11
87.2294999999998311
 21
84.9750000000003638
 31
0.0
  0
LINE
  5
5AA4
  8
1
 10
85.9999999999998437
 20
88.0000000000001137
 30
0.0
 11
85.9999999999998437
 21
76.0000000000001137
 31
0.0
  0
LINE
  5
5AA5
  8
2
 10
59.5000000000002487
 20
79.0000000000001137
 30
0.0
 11
56.5000000000002629
 21
79.0000000000001137
 31
0.0
  0
LINE
  5
5AA6
  8
2
 10
59.5000000000002487
 20
84.9750000000001364
 30
0.0
 11
59.5000000000002487
 21
79.0000000000001137
 31
0.0
  0
LINE
  5
5AA7
  8
2
 10
56.5000000000002629
 20
79.0000000000001137
 30
0.0
 11
56.5000000000002629
 21
84.9750000000001364
 31
0.0
  0
LINE
  5
5AA8
  8
2
 10
59.2295000000002787
 20
79.0000000000002274
 30
0.0
 11
59.2295000000002787
 21
84.9750000000002501
 31
0.0
  0
LINE
  5
5AA9
  8
2
 10
56.7705000000001689
 20
79.0000000000001137
 30
0.0
 11
56.7705000000002826
 21
84.9750000000003638
 31
0.0
  0
LINE
  5
5AAA
  8
1
 10
58.0000000000002487
 20
88.0000000000001137
 30
0.0
 11
58.0000000000002487
 21
76.0000000000001137
 31
0.0
  0
LINE
  5
5AB2
  8
2
 10
87.4999999999998437
 20
79.0000000000001137
 30
0.0
 11
87.4999999999997442
 21
84.9750000000003638
 31
0.0
  0
ENDSEC
  0
EOF
