  0
SECTION
  2
HEADER
  9
$ACADVER
  1
AC1009
  9
$INSBASE
 10
0.0
 20
0.0
 30
0.0
  9
$EXTMIN
 10
0.0
 20
-2.960436562073669
 30
0.0
  9
$EXTMAX
 10
261.00000101327868
 20
244.39505266398189
 30
0.0
  9
$LIMMIN
 10
0.0
 20
0.0
  9
$LIMMAX
 10
375.0
 20
270.0
  9
$ORTHOMODE
 70
     1
  9
$REGENMODE
 70
     1
  9
$FILLMODE
 70
     1
  9
$QTEXTMODE
 70
     0
  9
$MIRRTEXT
 70
     0
  9
$DRAGMODE
 70
     2
  9
$LTSCALE
 40
5.0
  9
$OSMODE
 70
    37
  9
$ATTMODE
 70
     1
  9
$TEXTSIZE
 40
4.000000000000048
  9
$TRACEWID
 40
0.05
  9
$TEXTSTYLE
  7
STANDARD
  9
$CLAYER
  8
0
  9
$CELTYPE
  6
BYLAYER
  9
$CECOLOR
 62
   256
  9
$DIMSCALE
 40
1.0
  9
$DIMASZ
 40
3.0
  9
$DIMEXO
 40
2.0
  9
$DIMDLI
 40
0.38
  9
$DIMRND
 40
0.0
  9
$DIMDLE
 40
0.0
  9
$DIMEXE
 40
2.0
  9
$DIMTP
 40
0.0
  9
$DIMTM
 40
0.0
  9
$DIMTXT
 40
3.2000000000000002
  9
$DIMCEN
 40
0.0
  9
$DIMTSZ
 40
0.0
  9
$DIMTOL
 70
     0
  9
$DIMLIM
 70
     0
  9
$DIMTIH
 70
     0
  9
$DIMTOH
 70
     0
  9
$DIMSE1
 70
     0
  9
$DIMSE2
 70
     0
  9
$DIMTAD
 70
     1
  9
$DIMZIN
 70
     8
  9
$DIMBLK
  1

  9
$DIMASO
 70
     0
  9
$DIMSHO
 70
     0
  9
$DIMPOST
  1

  9
$DIMAPOST
  1

  9
$DIMALT
 70
     0
  9
$DIMALTD
 70
     2
  9
$DIMALTF
 40
25.399999999999999
  9
$DIMLFAC
 40
1.0
  9
$DIMTOFL
 70
     0
  9
$DIMTVP
 40
1.6000000000000001
  9
$DIMTIX
 70
     1
  9
$DIMSOXD
 70
     0
  9
$DIMSAH
 70
     0
  9
$DIMBLK1
  1

  9
$DIMBLK2
  1

  9
$DIMSTYLE
  2
STANDARD
  9
$DIMCLRD
 70
     4
  9
$DIMCLRE
 70
     4
  9
$DIMCLRT
 70
     4
  9
$DIMTFAC
 40
1.0
  9
$DIMGAP
 40
0.09
  9
$LUNITS
 70
     2
  9
$LUPREC
 70
     1
  9
$SKETCHINC
 40
0.1
  9
$FILLETRAD
 40
22.0
  9
$AUNITS
 70
     0
  9
$AUPREC
 70
     0
  9
$MENU
  1
E:\r13\win\SUPPORT\ACAD
  9
$ELEVATION
 40
0.0
  9
$PELEVATION
 40
0.0
  9
$THICKNESS
 40
0.0
  9
$LIMCHECK
 70
     0
  9
$BLIPMODE
 70
     0
  9
$CHAMFERA
 40
1.1999999999999991
  9
$CHAMFERB
 40
1.1999999999999991
  9
$SKPOLY
 70
     0
  9
$TDCREATE
 40
2449954.6020138888
  9
$TDUPDATE
 40
2459814.6761099072
  9
$TDINDWG
 40
1.2428475809999999
  9
$TDUSRTIMER
 40
1.2428475809999999
  9
$USRTIMER
 70
     1
  9
$ANGBASE
 50
0.0
  9
$ANGDIR
 70
     0
  9
$PDMODE
 70
     0
  9
$PDSIZE
 40
0.0
  9
$PLINEWID
 40
0.0
  9
$COORDS
 70
     1
  9
$SPLFRAME
 70
     0
  9
$SPLINETYPE
 70
     6
  9
$SPLINESEGS
 70
     8
  9
$ATTDIA
 70
     0
  9
$ATTREQ
 70
     1
  9
$HANDLING
 70
     1
  9
$HANDSEED
  5
DAAB
  9
$SURFTAB1
 70
     6
  9
$SURFTAB2
 70
     6
  9
$SURFTYPE
 70
     6
  9
$SURFU
 70
     6
  9
$SURFV
 70
     6
  9
$UCSNAME
  2

  9
$UCSORG
 10
0.0
 20
0.0
 30
0.0
  9
$UCSXDIR
 10
1.0
 20
0.0
 30
0.0
  9
$UCSYDIR
 10
0.0
 20
1.0
 30
0.0
  9
$PUCSNAME
  2

  9
$PUCSORG
 10
0.0
 20
0.0
 30
0.0
  9
$PUCSXDIR
 10
1.0
 20
0.0
 30
0.0
  9
$PUCSYDIR
 10
0.0
 20
1.0
 30
0.0
  9
$USERI1
 70
     0
  9
$USERI2
 70
     1
  9
$USERI3
 70
     0
  9
$USERI4
 70
     0
  9
$USERI5
 70
     0
  9
$USERR1
 40
0.0
  9
$USERR2
 40
0.0
  9
$USERR3
 40
0.0
  9
$USERR4
 40
0.0
  9
$USERR5
 40
0.0
  9
$WORLDVIEW
 70
     1
  9
$SHADEDGE
 70
     3
  9
$SHADEDIF
 70
    70
  9
$TILEMODE
 70
     1
  9
$MAXACTVP
 70
    16
  9
$PLIMCHECK
 70
     0
  9
$PEXTMIN
 10
1.0000000000000000E+020
 20
1.0000000000000000E+020
 30
1.0000000000000000E+020
  9
$PEXTMAX
 10
-1.0000000000000000E+020
 20
-1.0000000000000000E+020
 30
-1.0000000000000000E+020
  9
$PLIMMIN
 10
0.0
 20
0.0
  9
$PLIMMAX
 10
12.0
 20
9.0
  9
$UNITMODE
 70
     0
  9
$VISRETAIN
 70
     0
  9
$PLINEGEN
 70
     0
  9
$PSLTSCALE
 70
     0
  0
ENDSEC
  0
SECTION
  2
TABLES
  0
TABLE
  2
VPORT
 70
     1
  0
VPORT
  2
*ACTIVE
 70
     0
 10
0.0
 20
0.0
 11
1.0
 21
1.0
 12
362.23203026481713
 22
150.0
 13
0.0
 23
0.0
 14
10.0
 24
10.0
 15
10.0
 25
10.0
 16
0.0
 26
0.0
 36
1.0
 17
0.0
 27
0.0
 37
0.0
 40
300.0
 41
2.4148802017654472
 42
50.0
 43
0.0
 44
0.0
 50
0.0
 51
0.0
 71
     0
 72
   500
 73
     1
 74
     0
 75
     0
 76
     0
 77
     0
 78
     2
  0
ENDTAB
  0
TABLE
  2
LTYPE
 70
     5
  0
LTYPE
  2
CONTINUOUS
 70
     0
  3
Solid Line
 72
    65
 73
     0
 40
0.0
  0
LTYPE
  2
CENTER
 70
     0
  3
____ _ ____ _ ____ _ ____ _ ____ _ ____ _ ____
 72
    65
 73
     4
 40
2.0
 49
1.25
 49
-0.25
 49
0.25
 49
-0.25
  0
LTYPE
  2
HIDDEN
 70
     0
  3
_ _ _ _ _ _ _ _ _ _ _ _ _ _ _ _ _ _ _ _ _ _ _
 72
    65
 73
     2
 40
0.375
 49
0.25
 49
-0.125
  0
LTYPE
  2
PHANTOM
 70
     0
  3
_____ _ _ _____ _ _ _____ _ _ _____ _ _ ____
 72
    65
 73
     6
 40
2.5
 49
1.25
 49
-0.25
 49
0.25
 49
-0.25
 49
0.25
 49
-0.25
  0
LTYPE
  2
PHANTOM2
 70
     0
  3
___ _ _ ___ _ _ ___ _ _ ___ _ _
 72
    65
 73
     6
 40
1.25
 49
0.625
 49
-0.125
 49
0.125
 49
-0.125
 49
0.125
 49
-0.125
  0
ENDTAB
  0
TABLE
  2
LAYER
 70
     7
  0
LAYER
  2
0
 70
     0
 62
     7
  6
CONTINUOUS
  0
LAYER
  2
1
 70
     0
 62
     1
  6
CENTER
  0
LAYER
  2
3
 70
     0
 62
     3
  6
CONTINUOUS
  0
LAYER
  2
2
 70
     0
 62
     2
  6
HIDDEN
  0
LAYER
  2
5
 70
     0
 62
     3
  6
PHANTOM
  0
LAYER
  2
DEFPOINTS
 70
     0
 62
     7
  6
CONTINUOUS
  0
LAYER
  2
4
 70
     0
 62
     4
  6
CONTINUOUS
  0
ENDTAB
  0
TABLE
  2
STYLE
 70
     2
  0
STYLE
  2
STANDARD
 70
     0
 40
0.0
 41
1.0
 50
0.0
 71
     0
 42
4.000000000000048
  3
SIMPLEX
  4
BIGFONT
  0
STYLE
  2
STANDARD1
 70
     0
 40
0.0
 41
1.0
 50
0.0
 71
     0
 42
3.0
  3
txt
  4

  0
ENDTAB
  0
TABLE
  2
VIEW
 70
     1
  0
VIEW
  2
ALL
 70
     0
 40
270.0
 10
220.78595317725751
 20
135.0
 41
441.57190635451502
 11
0.0
 21
0.0
 31
1.0
 12
0.0
 22
0.0
 32
0.0
 42
50.0
 43
0.0
 44
0.0
 50
0.0
 71
     0
  0
ENDTAB
  0
TABLE
  2
UCS
 70
     0
  0
ENDTAB
  0
TABLE
  2
APPID
 70
    11
  0
APPID
  2
ACAD
 70
     0
  0
APPID
  2
ACAD_EXEMPT_FROM_CAD_STANDARDS
 70
     0
  0
APPID
  2
ACAD_MLEADERVER
 70
     0
  0
APPID
  2
ACAD_NAV_VCDISPLAY
 70
     0
  0
APPID
  2
ACAD_DSTYLE_DIMJAG
 70
     0
  0
APPID
  2
ACAD_DSTYLE_DIMTALN
 70
     0
  0
APPID
  2
ACAECLAYERSTANDARD
 70
     0
  0
APPID
  2
ACCMTRANSPARENCY
 70
     0
  0
APPID
  2
ACAD_PSEXT
 70
     0
  0
APPID
  2
ACADANNOTATIVE
 70
     0
  0
APPID
  2
ACAD_DSTYLE_DIMRADIAL_EXTENSION
 70
     0
  0
ENDTAB
  0
TABLE
  2
DIMSTYLE
 70
     1
  0
DIMSTYLE
  2
STANDARD
 70
     0
  3

  4

  5

  6

  7

 40
1.0
 41
0.18
 42
0.0625
 43
0.38
 44
0.18
 45
0.0
 46
0.0
 47
0.0
 48
0.0
140
0.18
141
0.09
142
0.0
143
25.399999999999999
144
1.0
145
0.0
146
1.0
147
0.09
 71
     0
 72
     0
 73
     1
 74
     1
 75
     0
 76
     0
 77
     0
 78
     0
170
     0
171
     2
172
     0
173
     0
174
     0
175
     0
176
     0
177
     0
178
     0
  0
ENDTAB
  0
ENDSEC
  0
SECTION
  2
BLOCKS
  0
BLOCK
  8
0
  2
$MODEL_SPACE
 70
     0
 10
0.0
 20
0.0
 30
0.0
  3
$MODEL_SPACE
  1

  0
ENDBLK
  5
1126
  8
0
  0
BLOCK
 67
     1
  8
0
  2
$PAPER_SPACE
 70
     0
 10
0.0
 20
0.0
 30
0.0
  3
$PAPER_SPACE
  1

  0
ENDBLK
  5
1124
 67
     1
  8
0
  0
ENDSEC
  0
SECTION
  2
ENTITIES
  0
TEXT
  5
5088
  8
0
 62
     3
 10
0.0
 20
0.0
 30
0.0
 40
10.0
  1
QCPS1036-6-BK-D
  7
STANDARD1
  0
LINE
  5
6A30
  8
0
 10
181.5000019744038
 20
130.00000005215401
 30
0.0
 11
181.5000019744038
 21
126.4999999441206
 31
0.0
  0
LINE
  5
6A31
  8
0
 10
184.5000015348196
 20
126.4999999441206
 30
0.0
 11
184.5000015348196
 21
130.00000005215401
 31
0.0
  0
LINE
  5
6A32
  8
0
 10
181.5000019744038
 20
126.4999999441206
 30
0.0
 11
182.00000205636019
 21
125.9999998621642
 31
0.0
  0
LINE
  5
6A33
  8
0
 10
184.00000145286319
 20
125.9999998621642
 30
0.0
 11
184.5000015348196
 21
126.4999999441206
 31
0.0
  0
LINE
  5
6A34
  8
0
 10
153.50000204145911
 20
130.00000005215401
 30
0.0
 11
153.50000204145911
 21
126.4999999441206
 31
0.0
  0
LINE
  5
6A35
  8
0
 10
156.5000016018748
 20
126.4999999441206
 30
0.0
 11
156.5000016018748
 21
130.00000005215401
 31
0.0
  0
LINE
  5
6A36
  8
0
 10
153.50000204145911
 20
126.4999999441206
 30
0.0
 11
154.00000212341541
 21
125.9999998621642
 31
0.0
  0
LINE
  5
6A37
  8
0
 10
156.00000151991841
 20
125.9999998621642
 30
0.0
 11
156.5000016018748
 21
126.4999999441206
 31
0.0
  0
ARC
  5
6A38
  8
0
 10
152.01775321554831
 20
140.3547619215359
 30
0.0
 40
14.55372138756529
 50
62.785913182710111
 51
87.538383498416792
  0
ARC
  5
6A39
  8
0
 10
178.99999875195959
 20
163.89505300291771
 30
0.0
 40
1.500003058531433
 50
0.0000007139810927
 51
89.999892564436465
  0
ARC
  5
6A3A
  8
0
 10
158.5000023545083
 20
147.89505452675169
 30
0.0
 40
1.000000566368981
 50
180.00001344144931
 51
269.99997566031197
  0
ARC
  5
6A3B
  8
0
 10
179.50000120596539
 20
147.89505456490861
 30
0.0
 40
1.000000604525763
 50
270.00002524524621
 51
359.99997475475612
  0
LINE
  5
6A3C
  8
0
 10
180.50000181049111
 20
147.89505412429571
 30
0.0
 11
180.50000181049111
 21
163.89505302160981
 31
0.0
  0
ARC
  5
6A3D
  8
0
 10
157.18218797108881
 20
150.2916831153307
 30
0.0
 40
3.3553458893431878
 50
2.592081069366091
 51
63.612989430233071
  0
ARC
  5
6A3E
  8
0
 10
125.00000194000989
 20
153.89505688387101
 30
0.0
 40
1.000001940011529
 50
180.00010176276439
 51
270.00000495882688
  0
ARC
  5
6A3F
  8
0
 10
125.5000060729259
 20
163.89504998852351
 30
0.0
 40
1.5000060729292191
 50
90.00016366617767
 51
179.99988414510969
  0
LINE
  5
6A40
  8
0
 10
124.0
 20
163.89505302160981
 30
0.0
 11
124.0
 21
153.89505510777229
 31
0.0
  0
ARC
  5
6A41
  8
0
 10
168.9999272444341
 20
158.0636799532991
 30
0.0
 40
11.999901390077349
 50
128.95675026717069
 51
142.3415655225146
  0
ARC
  5
6A42
  8
0
 10
169.0000763318447
 20
158.0636799532991
 30
0.0
 40
11.99990139007725
 50
37.658434477485663
 51
51.04324973283056
  0
ARC
  5
6A43
  8
0
 10
149.66789749599121
 20
146.9256866879868
 30
0.0
 40
7.8918648743559672
 50
7.0555302218042053
 51
43.794247929246097
  0
LINE
  5
6A44
  8
0
 10
162.00000157207251
 20
124.2000001259148
 30
0.0
 11
162.20000169798729
 21
124.0
 31
0.0
  0
LINE
  5
6A45
  8
0
 10
175.80000187829131
 20
124.0
 30
0.0
 11
176.00000200420621
 21
124.2000001259148
 31
0.0
  0
LINE
  5
6A46
  8
0
 10
162.00000157207251
 20
127.9999999571591
 30
0.0
 11
162.00000157207251
 21
124.2000001259148
 31
0.0
  0
LINE
  5
6A47
  8
0
 10
176.00000200420621
 20
124.2000001259148
 30
0.0
 11
176.00000200420621
 21
127.9999999571591
 31
0.0
  0
LINE
  5
6A48
  8
0
 10
151.0000025629997
 20
137.499999884516
 30
0.0
 11
151.0000025629997
 21
130.50000007590279
 31
0.0
  0
LINE
  5
6A49
  8
0
 10
151.50000171363351
 20
138.00000043213359
 30
0.0
 11
151.0000025629997
 21
137.499999884516
 31
0.0
  0
LINE
  5
6A4A
  8
0
 10
187.0000010132789
 20
137.499999884516
 30
0.0
 11
186.50000186264509
 21
138.00000043213359
 31
0.0
  0
LINE
  5
6A4B
  8
0
 10
187.0000010132789
 20
130.50000007590279
 30
0.0
 11
187.0000010132789
 21
137.499999884516
 31
0.0
  0
LINE
  5
6A4C
  8
0
 10
151.0000025629997
 20
130.50000007590279
 30
0.0
 11
151.50000171363351
 21
130.00000005215401
 31
0.0
  0
LINE
  5
6A4D
  8
0
 10
186.50000186264509
 20
130.00000005215401
 30
0.0
 11
187.0000010132789
 21
130.50000007590279
 31
0.0
  0
ARC
  5
6A4E
  8
0
 10
159.60000178813939
 20
138.4000000521541
 30
0.0
 40
0.4000000000000341
 50
270.0
 51
0.0
  0
ARC
  5
6A4F
  8
0
 10
178.40000178813941
 20
138.4000000521541
 30
0.0
 40
0.4000000000000341
 50
180.0
 51
270.0
  0
ARC
  5
6A50
  8
0
 10
178.15000178813941
 20
129.60000005215409
 30
0.0
 40
0.3999999999999915
 50
90.0
 51
180.0
  0
ARC
  5
6A51
  8
0
 10
159.85000178813931
 20
129.60000005215409
 30
0.0
 40
0.4000000000000057
 50
0.0
 51
90.0
  0
LINE
  5
6A52
  8
0
 10
178.0000014007091
 20
138.3999997526407
 30
0.0
 11
178.0000014007091
 21
146.89505396038291
 31
0.0
  0
LINE
  5
6A53
  8
0
 10
160.00000217556951
 20
146.89505396038291
 30
0.0
 11
160.00000217556951
 21
138.3999997526407
 31
0.0
  0
LINE
  5
6A54
  8
0
 10
160.25000175088641
 20
128.300000029616
 30
0.0
 11
160.5500021725893
 21
127.9999999571591
 31
0.0
  0
LINE
  5
6A55
  8
0
 10
177.45000140368941
 20
127.9999999571591
 30
0.0
 11
177.75000182539219
 21
128.300000029616
 31
0.0
  0
LINE
  5
6A56
  8
0
 10
177.75000182539219
 20
128.300000029616
 30
0.0
 11
177.75000182539219
 21
129.60000006225891
 31
0.0
  0
LINE
  5
6A57
  8
0
 10
160.25000175088641
 20
129.60000006225891
 30
0.0
 11
160.25000175088641
 21
128.300000029616
 31
0.0
  0
LINE
  5
6A58
  8
0
 10
172.39598760008809
 20
133.92185110226271
 30
0.0
 11
172.8648803438991
 21
133.92185110226271
 31
0.0
  0
LINE
  5
6A59
  8
0
 10
172.39598760008809
 20
134.2344467304647
 30
0.0
 11
172.39598760008809
 21
133.92185110226271
 31
0.0
  0
ARC
  5
6A5A
  8
0
 10
172.63043401671041
 20
134.23444667153129
 30
0.0
 40
0.2344464000000244
 50
0.0
 51
180.0
  0
LINE
  5
6A5B
  8
0
 10
172.8648803438991
 20
133.92185110226271
 30
0.0
 11
172.8648803438991
 21
134.2344467304647
 31
0.0
  0
ARC
  5
6A5C
  8
0
 10
164.8416036167103
 20
131.8564901092972
 30
0.0
 40
1.312899839999963
 50
54.718738172723981
 51
82.966538684622705
  0
LINE
  5
6A5D
  8
0
 10
165.00236669182769
 20
132.69698007591069
 30
0.0
 11
165.00236669182769
 21
133.1595100238919
 31
0.0
  0
ARC
  5
6A5E
  8
0
 10
164.84160361671039
 20
134.00000005215401
 30
0.0
 40
1.3128998399999909
 50
277.03346131537069
 51
305.28126182727578
  0
ARC
  5
6A5F
  8
0
 10
164.8416036167103
 20
131.8564901092972
 30
0.0
 40
1.312899839999967
 50
97.033461315377281
 51
108.02016074838561
  0
LINE
  5
6A60
  8
0
 10
164.68084014579651
 20
132.69698007591069
 30
0.0
 11
164.68084014579651
 21
133.1595100238919
 31
0.0
  0
ARC
  5
6A61
  8
0
 10
164.84160361671039
 20
134.00000005215401
 30
0.0
 40
1.3128998400000229
 50
241.63809460783901
 51
262.96653868461618
  0
ARC
  5
6A62
  8
0
 10
163.10000178813931
 20
134.00000005215401
 30
0.0
 40
1.60763245714279
 50
314.05787401223068
 51
326.17031835294648
  0
LINE
  5
6A63
  8
0
 10
164.68084014579651
 20
133.45606431923801
 30
0.0
 11
164.68084014579651
 21
133.7077134996652
 31
0.0
  0
LINE
  5
6A64
  8
0
 10
164.60963867232201
 20
133.44729940965769
 30
0.0
 11
164.68084014579651
 21
133.45606431923801
 31
0.0
  0
ARC
  5
6A65
  8
0
 10
163.10000178813931
 20
134.00000005215401
 30
0.0
 40
1.607632457142842
 50
339.89157145151768
 51
349.52468615668067
  0
LINE
  5
6A66
  8
0
 10
164.68084014579651
 20
134.8404899947345
 30
0.0
 11
164.68084014579651
 21
135.30302017554641
 31
0.0
  0
ARC
  5
6A67
  8
0
 10
164.84160361671039
 20
136.14350999501079
 30
0.0
 40
1.3128998399999501
 50
234.7187381727162
 51
262.96653868460299
  0
ARC
  5
6A68
  8
0
 10
164.84160361671039
 20
134.00000005215401
 30
0.0
 40
1.3128998400000289
 50
97.033461315396977
 51
125.2812618272758
  0
CIRCLE
  5
6A69
  8
0
 10
175.20934441671031
 20
134.00000005215401
 30
0.0
 40
0.4688928000000204
  0
ARC
  5
6A6A
  8
0
 10
164.84160361671039
 20
134.00000005215401
 30
0.0
 40
1.312899839999959
 50
54.718738172732223
 51
82.966538684609588
  0
ARC
  5
6A6B
  8
0
 10
164.84160361671039
 20
136.14350999501079
 30
0.0
 40
1.312899839999643
 50
277.03346131539041
 51
305.28126182727578
  0
LINE
  5
6A6C
  8
0
 10
165.00236669182769
 20
134.8404899947345
 30
0.0
 11
165.00236669182769
 21
135.30302017554641
 31
0.0
  0
LINE
  5
6A6D
  8
0
 10
165.00236669182769
 20
133.45606431923801
 30
0.0
 11
165.00236669182769
 21
133.83923673629761
 31
0.0
  0
LINE
  5
6A6E
  8
0
 10
165.00236669182769
 20
133.83923673629761
 30
0.0
 11
166.14462358504531
 21
133.83923673629761
 31
0.0
  0
ARC
  5
6A6F
  8
0
 10
164.84160361671039
 20
134.00000005215401
 30
0.0
 40
1.312899839999996
 50
318.440852408132
 51
352.96653868461522
  0
ARC
  5
6A70
  8
0
 10
164.8416036167103
 20
131.8564901092972
 30
0.0
 40
1.607632457142812
 50
52.331770223292438
 51
84.26082952273191
  0
ARC
  5
6A71
  8
0
 10
164.84160361671039
 20
134.00000005215401
 30
0.0
 40
1.312899839999994
 50
7.033461315385015
 51
41.559147591860423
  0
LINE
  5
6A72
  8
0
 10
165.00236669182769
 20
134.16076328232879
 30
0.0
 11
166.14462358504531
 21
134.16076328232879
 31
0.0
  0
LINE
  5
6A73
  8
0
 10
165.00236669182769
 20
134.16076328232879
 30
0.0
 11
165.00236669182769
 21
134.543935932219
 31
0.0
  0
ARC
  5
6A74
  8
0
 10
164.84160361671039
 20
136.14350999501079
 30
0.0
 40
1.6076324571427181
 50
275.73917047727463
 51
307.66822977670751
  0
LINE
  5
6A75
  8
0
 10
167.7070595799014
 20
135.25038089230651
 30
0.0
 11
166.92557155713439
 21
135.25038089230651
 31
0.0
  0
LINE
  5
6A76
  8
0
 10
166.92557155713439
 20
135.25038089230651
 30
0.0
 11
166.92557155713439
 21
132.7496193591505
 31
0.0
  0
LINE
  5
6A77
  8
0
 10
166.92557155713439
 20
132.7496193591505
 30
0.0
 11
167.7070595799014
 21
132.7496193591505
 31
0.0
  0
LINE
  5
6A78
  8
0
 10
168.01965485885739
 20
132.7496193591505
 30
0.0
 11
168.80114282341671
 21
132.7496193591505
 31
0.0
  0
LINE
  5
6A79
  8
0
 10
169.27003562543541
 20
134.23444626480341
 30
0.0
 11
169.27003562543541
 21
132.7496193591505
 31
0.0
  0
LINE
  5
6A7A
  8
0
 10
169.27003562543541
 20
132.7496193591505
 30
0.0
 11
170.05152364820239
 21
132.7496193591505
 31
0.0
  0
LINE
  5
6A7B
  8
0
 10
170.5204163920134
 20
134.23444626480341
 30
0.0
 11
170.5204163920134
 21
132.7496193591505
 31
0.0
  0
LINE
  5
6A7C
  8
0
 10
170.5204163920134
 20
132.7496193591505
 30
0.0
 11
171.3019045311957
 21
132.7496193591505
 31
0.0
  0
LINE
  5
6A7D
  8
0
 10
171.3019045311957
 20
132.7496193591505
 30
0.0
 11
171.3019045311957
 21
134.23444626480341
 31
0.0
  0
LINE
  5
6A7E
  8
0
 10
170.05152364820239
 20
132.7496193591505
 30
0.0
 11
170.05152364820239
 21
134.23444626480341
 31
0.0
  0
ARC
  5
6A7F
  8
0
 10
170.28597001671039
 20
134.23444645215409
 30
0.0
 40
0.2344464000000244
 50
0.0
 51
180.0
  0
ARC
  5
6A80
  8
0
 10
164.84160361671039
 20
134.00000005215401
 30
0.0
 40
1.312899840000012
 50
138.4408524081399
 51
180.00000000000199
  0
LINE
  5
6A81
  8
0
 10
164.41290143504739
 20
134.16076328232879
 30
0.0
 11
164.41290143504739
 21
134.00000024214381
 31
0.0
  0
LINE
  5
6A82
  8
0
 10
167.7070595799014
 20
132.7496193591505
 30
0.0
 11
167.7070595799014
 21
135.25038089230651
 31
0.0
  0
ARC
  5
6A83
  8
0
 10
169.03558921671041
 20
134.23444645215409
 30
0.0
 40
1.015934399999997
 50
52.020127555146139
 51
180.0
  0
LINE
  5
6A84
  8
0
 10
168.01965485885739
 20
134.23444626480341
 30
0.0
 11
168.01965485885739
 21
132.7496193591505
 31
0.0
  0
LINE
  5
6A85
  8
0
 10
168.80114282341671
 20
132.7496193591505
 30
0.0
 11
168.80114282341671
 21
134.23444626480341
 31
0.0
  0
ARC
  5
6A86
  8
0
 10
169.03558921671041
 20
134.23444645215409
 30
0.0
 40
0.2344463999999959
 50
0.0
 51
180.0
  0
LINE
  5
6A87
  8
0
 10
164.11816903948781
 20
134.00000024214381
 30
0.0
 11
164.11816903948781
 21
134.16076328232879
 31
0.0
  0
ARC
  5
6A88
  8
0
 10
163.10000178813931
 20
134.00000005215401
 30
0.0
 40
1.312899839999575
 50
277.03346131538382
 51
0.0000000000012213
  0
LINE
  5
6A89
  8
0
 10
163.2607650719583
 20
132.40042601339519
 30
0.0
 11
163.2607650719583
 21
132.69698007591069
 31
0.0
  0
ARC
  5
6A8A
  8
0
 10
163.10000178813931
 20
134.00000005215401
 30
0.0
 40
1.607632457142504
 50
275.73917047726809
 51
302.797168295821
  0
ARC
  5
6A8B
  8
0
 10
164.84160361671039
 20
134.00000005215401
 30
0.0
 40
1.6076324571427361
 50
237.20283170417119
 51
122.7971682958288
  0
ARC
  5
6A8C
  8
0
 10
163.10000178813931
 20
134.00000005215401
 30
0.0
 40
1.60763245714256
 50
57.202831704186679
 51
264.26082952272537
  0
LINE
  5
6A8D
  8
0
 10
164.41290143504739
 20
134.16076328232879
 30
0.0
 11
164.68084014579651
 21
134.16076328232879
 31
0.0
  0
ARC
  5
6A8E
  8
0
 10
163.10000178813931
 20
134.00000005215401
 30
0.0
 40
1.312899839999969
 50
180.00000000000259
 51
262.96653868461618
  0
LINE
  5
6A8F
  8
0
 10
161.78710216283801
 20
134.00000024214381
 30
0.0
 11
161.78710216283801
 21
134.16076328232879
 31
0.0
  0
LINE
  5
6A90
  8
0
 10
161.78710216283801
 20
134.16076328232879
 30
0.0
 11
162.0818345583975
 21
134.16076328232879
 31
0.0
  0
ARC
  5
6A91
  8
0
 10
163.00000178813929
 20
134.00000005215401
 30
0.0
 40
2.3500000000000218
 50
90.0
 51
270.0
  0
ARC
  5
6A92
  8
0
 10
163.10000178813931
 20
134.00000005215401
 30
0.0
 40
1.018167222857016
 50
180.0
 51
260.91527971260371
  0
LINE
  5
6A93
  8
0
 10
162.93923852592701
 20
132.99460469372571
 30
0.0
 11
162.93923852592701
 21
133.29465424269429
 31
0.0
  0
ARC
  5
6A94
  8
0
 10
163.10000178813931
 20
134.00000005215401
 30
0.0
 40
0.7234346057141536
 50
179.9999999999977
 51
257.16041159308548
  0
LINE
  5
6A95
  8
0
 10
162.37656695395711
 20
134.00000024214381
 30
0.0
 11
162.37656695395711
 21
134.16076328232879
 31
0.0
  0
LINE
  5
6A96
  8
0
 10
162.37656695395711
 20
134.16076328232879
 30
0.0
 11
162.67129981517789
 21
134.16076328232879
 31
0.0
  0
LINE
  5
6A97
  8
0
 10
162.67129981517789
 20
134.16076328232879
 30
0.0
 11
162.67129981517789
 21
134.00000024214381
 31
0.0
  0
ARC
  5
6A98
  8
0
 10
163.10000178813931
 20
134.00000005215401
 30
0.0
 40
0.4287019885711061
 50
180.0
 51
0.0
  0
LINE
  5
6A99
  8
0
 10
172.39598760008809
 20
132.7496193591505
 30
0.0
 11
172.39598760008809
 21
133.29666077718139
 31
0.0
  0
LINE
  5
6A9A
  8
0
 10
172.39598760008809
 20
133.29666077718139
 30
0.0
 11
172.8648803438991
 21
133.29666077718139
 31
0.0
  0
LINE
  5
6A9B
  8
0
 10
173.64636825025079
 20
132.7496193591505
 30
0.0
 11
173.64636825025079
 21
134.2344467304647
 31
0.0
  0
ARC
  5
6A9C
  8
0
 10
163.10000178813931
 20
134.00000005215401
 30
0.0
 40
1.0181672228569589
 50
279.08472028739629
 51
0.0000000000016284
  0
LINE
  5
6A9D
  8
0
 10
163.823436178267
 20
134.16076328232879
 30
0.0
 11
164.11816903948781
 21
134.16076328232879
 31
0.0
  0
ARC
  5
6A9E
  8
0
 10
163.10000178813931
 20
134.00000005215401
 30
0.0
 40
0.7234346057140897
 50
282.83958840691452
 51
0.0000000000022391
  0
LINE
  5
6A9F
  8
0
 10
163.2607650719583
 20
132.99460469372571
 30
0.0
 11
163.2607650719583
 21
133.29465424269429
 31
0.0
  0
ARC
  5
6AA0
  8
0
 10
170.28597001671039
 20
134.23444645215409
 30
0.0
 40
1.015934399999997
 50
0.0
 51
127.9798724448538
  0
LINE
  5
6AA1
  8
0
 10
163.00000173598531
 20
131.65000004321331
 30
0.0
 11
175.00000184029341
 21
131.65000004321331
 31
0.0
  0
ARC
  5
6AA2
  8
0
 10
175.00000178813929
 20
134.00000005215401
 30
0.0
 40
2.3500000000000218
 50
270.0
 51
90.0
  0
LINE
  5
6AA3
  8
0
 10
175.00000184029341
 20
136.34999997541311
 30
0.0
 11
163.00000173598531
 21
136.34999997541311
 31
0.0
  0
LINE
  5
6AA4
  8
0
 10
162.0818345583975
 20
134.16076328232879
 30
0.0
 11
162.0818345583975
 21
134.00000024214381
 31
0.0
  0
ARC
  5
6AA5
  8
0
 10
172.63043401671041
 20
134.23444667153129
 30
0.0
 40
1.0159344000000201
 50
0.0
 51
180.0
  0
ARC
  5
6AA6
  8
0
 10
164.84160361671039
 20
136.14350999501079
 30
0.0
 40
1.6076324571428451
 50
232.33177022328431
 51
264.26082952273839
  0
LINE
  5
6AA7
  8
0
 10
171.61449969373641
 20
132.7496193591505
 30
0.0
 11
172.39598760008809
 21
132.7496193591505
 31
0.0
  0
LINE
  5
6AA8
  8
0
 10
164.68084014579651
 20
134.16076328232879
 30
0.0
 11
164.68084014579651
 21
134.543935932219
 31
0.0
  0
CIRCLE
  5
6AA9
  8
0
 10
175.20934441671031
 20
134.00000005215401
 30
0.0
 40
1.250380799999959
  0
LINE
  5
6AAA
  8
0
 10
171.61449969373641
 20
134.2344467304647
 30
0.0
 11
171.61449969373641
 21
132.7496193591505
 31
0.0
  0
LINE
  5
6AAB
  8
0
 10
163.823436178267
 20
134.16076328232879
 30
0.0
 11
163.823436178267
 21
134.00000024214381
 31
0.0
  0
LINE
  5
6AAC
  8
0
 10
162.93923852592701
 20
132.40042601339519
 30
0.0
 11
162.93923852592701
 21
132.69698007591069
 31
0.0
  0
LINE
  5
6AAD
  8
0
 10
172.8648803438991
 20
132.7496193591505
 30
0.0
 11
173.64636825025079
 21
132.7496193591505
 31
0.0
  0
LINE
  5
6AAE
  8
0
 10
172.8648803438991
 20
132.7496193591505
 30
0.0
 11
172.8648803438991
 21
133.29666077718139
 31
0.0
  0
LINE
  5
6AB0
  8
0
 10
181.5000019744038
 20
126.4999999441206
 30
0.0
 11
184.5000015348196
 21
126.4999999441206
 31
0.0
  0
LINE
  5
6AB1
  8
0
 10
184.00000145286319
 20
125.9999998621642
 30
0.0
 11
182.00000205636019
 21
125.9999998621642
 31
0.0
  0
LINE
  5
6AB2
  8
0
 10
153.50000204145911
 20
126.4999999441206
 30
0.0
 11
156.5000016018748
 21
126.4999999441206
 31
0.0
  0
LINE
  5
6AB3
  8
0
 10
156.00000151991841
 20
125.9999998621642
 30
0.0
 11
154.00000212341541
 21
125.9999998621642
 31
0.0
  0
LINE
  5
6AB6
  8
0
 10
170.20000184513631
 20
165.39505606144661
 30
0.0
 11
179.0000015646219
 21
165.39505606144661
 31
0.0
  0
LINE
  5
6AB7
  8
0
 10
170.00000183563679
 20
147.32894410937931
 30
0.0
 11
170.00000183563679
 21
165.19505267590279
 31
0.0
  0
ARC
  5
6AB8
  8
0
 10
170.20000477495219
 20
165.19505312215199
 30
0.0
 40
0.200002939316108
 50
90.000839318118267
 51
180.0001278390927
  0
LINE
  5
6ABB
  8
0
 10
152.64283695816991
 20
154.89505340903989
 30
0.0
 11
139.4142156243324
 21
154.89505340903989
 31
0.0
  0
LINE
  5
6ABD
  8
0
 10
125.50000178813811
 20
165.39505606144661
 30
0.0
 11
167.8000017311424
 21
165.39505606144661
 31
0.0
  0
ARC
  5
6ABE
  8
0
 10
167.79999880132669
 20
165.19505312215239
 30
0.0
 40
0.2000029393156386
 50
359.99987216080137
 51
89.999160681979433
  0
LINE
  5
6ABF
  8
0
 10
168.00000174064189
 20
165.19505267590279
 30
0.0
 11
168.00000174064189
 21
147.32894410938019
 31
0.0
  0
LINE
  5
6AC1
  8
0
 10
179.50000164657831
 20
146.89505396038291
 30
0.0
 11
158.50000192970029
 21
146.89505396038291
 31
0.0
  0
LINE
  5
6AC3
  8
0
 10
160.56600974500199
 20
146.89505396038291
 30
0.0
 11
160.56600974500191
 21
147.93042948096991
 31
0.0
  0
POLYLINE
  5
6AC4
  8
0
 66
     1
 10
0.0
 20
0.0
 30
0.0
 70
   128
  0
VERTEX
  5
DA4E
  8
0
 10
167.78758661914611
 20
147.07107020169491
 30
0.0
  0
VERTEX
  5
DA4F
  8
0
 10
169.00000178813929
 20
147.02902843803159
 30
0.0
  0
VERTEX
  5
DA50
  8
0
 10
170.21241695713249
 20
147.07107020169491
 30
0.0
  0
SEQEND
  5
DA51
  8
0
  0
POLYLINE
  5
6AC7
  8
0
 66
     1
 10
0.0
 20
0.0
 30
0.0
 70
   128
  0
VERTEX
  5
DA52
  8
0
 10
168.00000174064189
 20
147.32894410938019
 30
0.0
  0
VERTEX
  5
DA53
  8
0
 10
167.98588428739461
 20
147.22894427925351
 30
0.0
  0
VERTEX
  5
DA54
  8
0
 10
167.94971043802789
 20
147.15362635999921
 30
0.0
  0
VERTEX
  5
DA55
  8
0
 10
167.901496916078
 20
147.10433518141511
 30
0.0
  0
VERTEX
  5
DA56
  8
0
 10
167.83859108202159
 20
147.0751587077975
 30
0.0
  0
VERTEX
  5
DA57
  8
0
 10
167.78758661914611
 20
147.07107020169491
 30
0.0
  0
SEQEND
  5
DA58
  8
0
  0
ARC
  5
6AC9
  8
0
 10
170.2282452205649
 20
147.3005301384664
 30
0.0
 40
0.2300052097376836
 50
172.90376863508251
 51
266.05395882407799
  0
ARC
  5
6ACC
  8
0
 10
139.41420878793119
 20
153.89506637460889
 30
0.0
 40
0.9999870344543715
 50
89.999608297982746
 51
135.00017949802421
  0
LINE
  5
6ACD
  8
0
 10
138.7071089595556
 20
154.6021617725491
 30
0.0
 11
137.29289376735679
 21
153.1879465803504
 31
0.0
  0
ARC
  5
6ACE
  8
0
 10
136.58579093606701
 20
153.89504922802359
 30
0.0
 40
0.9999942841659882
 50
269.99988707844312
 51
315.00000743912949
  0
LINE
  5
6AD1
  8
0
 10
168.00000174064189
 20
164.89505504816771
 30
0.0
 11
170.00000183563679
 21
164.89505504816771
 31
0.0
  0
LINE
  5
6AD2
  8
0
 10
136.5857889652253
 20
152.89505494385949
 30
0.0
 11
125.00000202655789
 21
152.89505494385949
 31
0.0
  0
LINE
  5
6AD6
  8
0
 10
161.45518624782559
 20
167.39505266398189
 30
0.0
 11
176.54481732845301
 21
167.39505266398189
 31
0.0
  0
ARC
  5
6AD7
  8
0
 10
169.00000178813929
 20
164.8313518329272
 30
0.0
 40
0.9829798769842875
 50
3.7157272039818441
 51
176.28427279601809
  0
ARC
  5
6AD9
  8
0
 10
149.83103754772921
 20
147.53679217808221
 30
0.0
 40
7.3585005038864439
 50
41.237848250019077
 51
89.537947921963664
  0
LINE
  5
6ADA
  8
0
 10
175.8000018782912
 20
124.0
 30
0.0
 11
162.20000169798729
 21
124.0
 31
0.0
  0
LINE
  5
6AEF
  8
0
 10
151.50000171363359
 20
138.00000043213359
 30
0.0
 11
186.50000186264509
 21
138.00000043213359
 31
0.0
  0
LINE
  5
6AF3
  8
0
 10
186.50000186264509
 20
130.00000005215401
 30
0.0
 11
151.50000171363359
 21
130.00000005215401
 31
0.0
  0
LINE
  5
6AF4
  8
0
 10
168.00000174064189
 20
146.89505396038291
 30
0.0
 11
168.00000174064189
 21
140.99999999254939
 31
0.0
  0
ARC
  5
6AF5
  8
0
 10
169.00000178813929
 20
141.00000007030991
 30
0.0
 40
1.000000047497454
 50
180.00000445535329
 51
359.99999554464819
  0
LINE
  5
6AF6
  8
0
 10
170.00000183563679
 20
140.99999999254939
 30
0.0
 11
170.00000183563679
 21
146.89505396038291
 31
0.0
  0
LINE
  5
6AF7
  8
0
 10
177.45000140368941
 20
127.9999999571591
 30
0.0
 11
160.5500021725893
 21
127.9999999571591
 31
0.0
  0
LINE
  5
6AF8
  8
0
 10
160.25000175088641
 20
128.300000029616
 30
0.0
 11
177.75000182539219
 21
128.300000029616
 31
0.0
  0
POLYLINE
  5
6AFC
  8
0
 66
     1
 10
0.0
 20
0.0
 30
0.0
 70
   128
  0
VERTEX
  5
DA59
  8
0
 10
167.77913987264029
 20
148.2075277492404
 30
0.0
  0
VERTEX
  5
DA5A
  8
0
 10
167.72504737693811
 20
148.2358492687344
 30
0.0
  0
VERTEX
  5
DA5B
  8
0
 10
166.49052540399131
 20
148.9841241165995
 30
0.0
  0
VERTEX
  5
DA5C
  8
0
 10
165.28417558968059
 20
149.78489016741511
 30
0.0
  0
VERTEX
  5
DA5D
  8
0
 10
162.85775245726111
 20
151.3587116971612
 30
0.0
  0
VERTEX
  5
DA5E
  8
0
 10
161.4311539344489
 20
152.20134814828631
 30
0.0
  0
VERTEX
  5
DA5F
  8
0
 10
159.96262261271471
 20
152.97522319108239
 30
0.0
  0
VERTEX
  5
DA60
  8
0
 10
158.43256672471759
 20
153.66142725199461
 30
0.0
  0
VERTEX
  5
DA61
  8
0
 10
156.84343797713521
 20
154.22746648639441
 30
0.0
  0
VERTEX
  5
DA62
  8
0
 10
154.7902274653315
 20
154.71378450840709
 30
0.0
  0
VERTEX
  5
DA63
  8
0
 10
153.72386498004201
 20
154.84808681160209
 30
0.0
  0
VERTEX
  5
DA64
  8
0
 10
152.64283695816991
 20
154.89505340903989
 30
0.0
  0
SEQEND
  5
DA65
  8
0
  0
ARC
  5
6B05
  8
0
 10
167.83716911467749
 20
148.57667183252249
 30
0.0
 40
0.3736773302645441
 50
261.06624626720139
 51
295.83349209375638
  0
POLYLINE
  5
6B1F
  8
0
 66
     1
 10
0.0
 20
0.0
 30
0.0
 70
   128
  0
VERTEX
  5
DA66
  8
0
 10
160.56600974500179
 20
147.93042948096991
 30
0.0
  0
VERTEX
  5
DA67
  8
0
 10
160.5682821720838
 20
147.93022459000349
 30
0.0
  0
VERTEX
  5
DA68
  8
0
 10
160.57581470906729
 20
147.93241319805381
 30
0.0
  0
VERTEX
  5
DA69
  8
0
 10
160.58106364309779
 20
147.9369748160243
 30
0.0
  0
VERTEX
  5
DA6A
  8
0
 10
160.5880141034722
 20
147.9477409049868
 30
0.0
  0
VERTEX
  5
DA6B
  8
0
 10
160.5939540788531
 20
147.9621726796031
 30
0.0
  0
VERTEX
  5
DA6C
  8
0
 10
160.6060491651296
 20
148.01197236031291
 30
0.0
  0
VERTEX
  5
DA6D
  8
0
 10
160.62014473229641
 20
148.1265660151839
 30
0.0
  0
VERTEX
  5
DA6E
  8
0
 10
160.62935737520451
 20
148.2700120434165
 30
0.0
  0
VERTEX
  5
DA6F
  8
0
 10
160.63604985922569
 20
148.48643464595079
 30
0.0
  0
VERTEX
  5
DA70
  8
0
 10
160.63732670247549
 20
148.80142842978239
 30
0.0
  0
VERTEX
  5
DA71
  8
0
 10
160.58005967736241
 20
150.0202763602137
 30
0.0
  0
VERTEX
  5
DA72
  8
0
 10
160.53410077095029
 20
150.44342835992569
 30
0.0
  0
SEQEND
  5
DA73
  8
0
  0
CIRCLE
  5
6B37
  8
0
 10
175.20934441671031
 20
134.00000005215401
 30
0.0
 40
0.4688927999999635
  0
CIRCLE
  5
6B38
  8
0
 10
175.20934441671031
 20
134.00000005215401
 30
0.0
 40
1.250380799999959
  0
ARC
  5
6B39
  8
0
 10
164.84160361671039
 20
134.00000005215401
 30
0.0
 40
1.3128998400000289
 50
97.033461315396977
 51
125.2812618272758
  0
ARC
  5
6B3A
  8
0
 10
164.84160361671039
 20
136.14350999501079
 30
0.0
 40
1.312899839999973
 50
234.7187381727162
 51
262.96653868460299
  0
ARC
  5
6B3B
  8
0
 10
164.84160361671039
 20
134.00000005215401
 30
0.0
 40
1.312899839999959
 50
54.718738172732223
 51
82.966538684609588
  0
ARC
  5
6B3C
  8
0
 10
164.84160361671039
 20
136.14350999501079
 30
0.0
 40
1.312899839999643
 50
277.03346131539041
 51
305.28126182727578
  0
ARC
  5
6B3D
  8
0
 10
163.10000178813931
 20
134.00000005215401
 30
0.0
 40
1.607632457142842
 50
339.89157145151768
 51
349.52468615668067
  0
ARC
  5
6B3E
  8
0
 10
164.8416036167103
 20
131.8564901092972
 30
0.0
 40
1.607632457142812
 50
52.331770223292438
 51
84.26082952273191
  0
ARC
  5
6B3F
  8
0
 10
164.84160361671039
 20
134.00000005215401
 30
0.0
 40
1.312899839999996
 50
318.440852408132
 51
352.96653868461522
  0
ARC
  5
6B40
  8
0
 10
164.84160361671039
 20
134.00000005215401
 30
0.0
 40
1.312899839999994
 50
7.033461315385015
 51
41.559147591860629
  0
ARC
  5
6B41
  8
0
 10
164.84160361671039
 20
136.14350999501079
 30
0.0
 40
1.6076324571427041
 50
275.73917047727463
 51
307.66822977670751
  0
ARC
  5
6B42
  8
0
 10
169.03558921671041
 20
134.23444645215409
 30
0.0
 40
0.2344463999999959
 50
0.0
 51
180.0
  0
ARC
  5
6B43
  8
0
 10
170.28597001671039
 20
134.23444645215409
 30
0.0
 40
0.2344464000000244
 50
0.0
 51
180.0
  0
ARC
  5
6B44
  8
0
 10
170.28597001671039
 20
134.23444645215409
 30
0.0
 40
1.015934399999997
 50
0.0
 51
127.9798724448538
  0
ARC
  5
6B45
  8
0
 10
169.03558921671041
 20
134.23444645215409
 30
0.0
 40
1.015934399999997
 50
52.020127555146139
 51
180.0
  0
ARC
  5
6B46
  8
0
 10
164.8416036167103
 20
131.8564901092972
 30
0.0
 40
1.312899839999967
 50
97.033461315377281
 51
108.02016074838561
  0
ARC
  5
6B47
  8
0
 10
163.10000178813931
 20
134.00000005215401
 30
0.0
 40
1.60763245714279
 50
314.05787401223068
 51
326.17031835294648
  0
ARC
  5
6B48
  8
0
 10
164.84160361671039
 20
134.00000005215401
 30
0.0
 40
1.3128998400000229
 50
241.63809460783901
 51
262.96653868461618
  0
ARC
  5
6B49
  8
0
 10
164.84160361671039
 20
134.00000005215401
 30
0.0
 40
1.3128998399999909
 50
277.03346131537069
 51
305.28126182727578
  0
ARC
  5
6B4A
  8
0
 10
164.8416036167103
 20
131.8564901092972
 30
0.0
 40
1.312899839999963
 50
54.718738172723981
 51
82.966538684622705
  0
ARC
  5
6B4B
  8
0
 10
172.63043401671041
 20
134.23444667153129
 30
0.0
 40
1.0159344000000201
 50
0.0
 51
180.0
  0
ARC
  5
6B4C
  8
0
 10
172.63043401671041
 20
134.23444667153129
 30
0.0
 40
0.2344464000000244
 50
0.0
 51
180.0
  0
ARC
  5
6B4D
  8
0
 10
164.84160361671039
 20
136.14350999501079
 30
0.0
 40
1.6076324571428451
 50
232.33177022328431
 51
264.26082952273839
  0
ARC
  5
6B4E
  8
0
 10
163.10000178813931
 20
134.00000005215401
 30
0.0
 40
1.312899839999575
 50
277.03346131538382
 51
0.0000000000012213
  0
ARC
  5
6B4F
  8
0
 10
163.10000178813931
 20
134.00000005215401
 30
0.0
 40
1.607632457142504
 50
275.73917047726809
 51
302.797168295821
  0
ARC
  5
6B50
  8
0
 10
164.84160361671039
 20
134.00000005215401
 30
0.0
 40
1.60763245714276
 50
237.20283170417119
 51
122.7971682958288
  0
ARC
  5
6B51
  8
0
 10
163.10000178813931
 20
134.00000005215401
 30
0.0
 40
1.607632457142584
 50
57.202831704186679
 51
264.26082952272537
  0
ARC
  5
6B52
  8
0
 10
163.10000178813931
 20
134.00000005215401
 30
0.0
 40
1.312899839999969
 50
180.00000000000259
 51
262.96653868461618
  0
ARC
  5
6B53
  8
0
 10
163.10000178813931
 20
134.00000005215401
 30
0.0
 40
1.018167222857016
 50
180.0
 51
260.91527971260371
  0
ARC
  5
6B54
  8
0
 10
163.10000178813931
 20
134.00000005215401
 30
0.0
 40
0.7234346057141536
 50
179.9999999999977
 51
257.16041159308548
  0
ARC
  5
6B55
  8
0
 10
163.10000178813931
 20
134.00000005215401
 30
0.0
 40
0.4287019885711061
 50
180.0
 51
0.000000000003664
  0
ARC
  5
6B56
  8
0
 10
164.84160361671039
 20
134.00000005215401
 30
0.0
 40
1.312899840000012
 50
138.4408524081399
 51
180.0
  0
ARC
  5
6B57
  8
0
 10
163.10000178813931
 20
134.00000005215401
 30
0.0
 40
0.7234346057140897
 50
282.83958840691452
 51
0.0000000000022391
  0
ARC
  5
6B58
  8
0
 10
163.10000178813931
 20
134.00000005215401
 30
0.0
 40
1.0181672228569589
 50
279.08472028739629
 51
0.0000000000016284
  0
LINE
  5
6B59
  8
0
 10
164.68084037099601
 20
132.69698003362041
 30
0.0
 11
164.68084037099601
 21
133.15951012783091
 31
0.0
  0
LINE
  5
6B5A
  8
0
 10
164.68084037099601
 20
132.69698003362041
 30
0.0
 11
164.68084037099601
 21
133.15951012783091
 31
0.0
  0
LINE
  5
6B5B
  8
0
 10
164.68084037099601
 20
133.4560642076392
 30
0.0
 11
164.68084037099601
 21
133.70771339113301
 31
0.0
  0
LINE
  5
6B5C
  8
0
 10
164.68084037099629
 20
134.1607632978685
 30
0.0
 11
164.68084037099629
 21
134.54393589666881
 31
0.0
  0
LINE
  5
6B5D
  8
0
 10
164.68084037099581
 20
134.8404899764773
 30
0.0
 11
164.68084037099581
 21
135.30302007068769
 31
0.0
  0
LINE
  5
6B5E
  8
0
 10
165.00236686242511
 20
134.8404899764775
 30
0.0
 11
165.00236686242511
 21
135.30302007068761
 31
0.0
  0
LINE
  5
6B5F
  8
0
 10
164.60963889893191
 20
133.44729949038759
 30
0.0
 11
164.68084037099601
 21
133.4560642076392
 31
0.0
  0
LINE
  5
6B60
  8
0
 10
165.00236686242459
 20
132.69698003362041
 30
0.0
 11
165.00236686242459
 21
133.15951012783091
 31
0.0
  0
LINE
  5
6B61
  8
0
 10
165.00236686242471
 20
133.4560642076392
 30
0.0
 11
165.00236686242471
 21
133.83923680643969
 31
0.0
  0
LINE
  5
6B62
  8
0
 10
165.00236686242471
 20
133.83923680643969
 30
0.0
 11
166.1446236352441
 21
133.8392368064396
 31
0.0
  0
LINE
  5
6B63
  8
0
 10
165.00236686242499
 20
134.1607632978685
 30
0.0
 11
165.00236686242499
 21
134.5439358966689
 31
0.0
  0
LINE
  5
6B64
  8
0
 10
165.00236686242499
 20
134.1607632978685
 30
0.0
 11
166.1446236352441
 21
134.1607632978685
 31
0.0
  0
LINE
  5
6B65
  8
0
 10
168.8011428167103
 20
132.7496192521541
 30
0.0
 11
168.8011428167103
 21
134.23444645215409
 31
0.0
  0
LINE
  5
6B66
  8
0
 10
169.2700356167104
 20
134.23444645215409
 30
0.0
 11
169.2700356167104
 21
132.7496192521541
 31
0.0
  0
LINE
  5
6B67
  8
0
 10
169.2700356167104
 20
132.7496192521541
 30
0.0
 11
170.05152361671031
 21
132.7496192521541
 31
0.0
  0
LINE
  5
6B68
  8
0
 10
170.05152361671031
 20
132.7496192521541
 30
0.0
 11
170.05152361671031
 21
134.23444645215409
 31
0.0
  0
LINE
  5
6B69
  8
0
 10
170.52041641671039
 20
134.23444645215409
 30
0.0
 11
170.52041641671039
 21
132.7496192521541
 31
0.0
  0
LINE
  5
6B6A
  8
0
 10
170.52041641671039
 20
132.7496192521541
 30
0.0
 11
171.3019044167103
 21
132.7496192521541
 31
0.0
  0
LINE
  5
6B6B
  8
0
 10
171.3019044167103
 20
132.7496192521541
 30
0.0
 11
171.3019044167103
 21
134.23444645215409
 31
0.0
  0
LINE
  5
6B6C
  8
0
 10
168.01965481671041
 20
134.23444645215409
 30
0.0
 11
168.01965481671041
 21
132.7496192521541
 31
0.0
  0
LINE
  5
6B6D
  8
0
 10
168.01965481671041
 20
132.7496192521541
 30
0.0
 11
168.8011428167103
 21
132.7496192521541
 31
0.0
  0
LINE
  5
6B6E
  8
0
 10
165.00236686242459
 20
132.69698003362041
 30
0.0
 11
165.00236686242459
 21
133.15951012783091
 31
0.0
  0
LINE
  5
6B6F
  8
0
 10
161.78710194813951
 20
134.1607632978685
 30
0.0
 11
162.08183456528241
 21
134.1607632978685
 31
0.0
  0
LINE
  5
6B70
  8
0
 10
167.70705961671041
 20
135.25038085215411
 30
0.0
 11
166.92557161671041
 21
135.25038085215411
 31
0.0
  0
LINE
  5
6B71
  8
0
 10
166.92557161671041
 20
135.25038085215411
 30
0.0
 11
166.92557161671041
 21
132.7496192521541
 31
0.0
  0
LINE
  5
6B72
  8
0
 10
166.92557161671041
 20
132.7496192521541
 30
0.0
 11
167.70705961671041
 21
132.7496192521541
 31
0.0
  0
LINE
  5
6B73
  8
0
 10
167.70705961671041
 20
132.7496192521541
 30
0.0
 11
167.70705961671041
 21
135.25038085215411
 31
0.0
  0
LINE
  5
6B74
  8
0
 10
172.39598761671041
 20
133.2966608521541
 30
0.0
 11
172.86488041671041
 21
133.2966608521541
 31
0.0
  0
LINE
  5
6B75
  8
0
 10
172.86488041671041
 20
132.7496192521543
 30
0.0
 11
172.86488041671041
 21
133.2966608521541
 31
0.0
  0
LINE
  5
6B76
  8
0
 10
172.86488041671041
 20
132.7496192521543
 30
0.0
 11
173.6463684167104
 21
132.7496192521543
 31
0.0
  0
LINE
  5
6B77
  8
0
 10
173.6463684167104
 20
132.7496192521543
 30
0.0
 11
173.6463684167104
 21
134.23444667153129
 31
0.0
  0
LINE
  5
6B78
  8
0
 10
171.61449961671039
 20
134.23444667153129
 30
0.0
 11
171.61449961671039
 21
132.7496192521541
 31
0.0
  0
LINE
  5
6B79
  8
0
 10
171.61449961671039
 20
132.7496192521541
 30
0.0
 11
172.39598761671041
 21
132.74961925215399
 31
0.0
  0
LINE
  5
6B7A
  8
0
 10
172.39598761671041
 20
132.74961925215399
 30
0.0
 11
172.39598761671041
 21
133.2966608521541
 31
0.0
  0
LINE
  5
6B7B
  8
0
 10
172.86488041671041
 20
133.921851252154
 30
0.0
 11
172.86488041671041
 21
134.23444667153129
 31
0.0
  0
LINE
  5
6B7C
  8
0
 10
172.39598761671041
 20
134.23444667153129
 30
0.0
 11
172.39598761671041
 21
133.921851252154
 31
0.0
  0
LINE
  5
6B7D
  8
0
 10
172.39598761671041
 20
133.921851252154
 30
0.0
 11
172.86488041671041
 21
133.921851252154
 31
0.0
  0
LINE
  5
6B7E
  8
0
 10
161.78710194813951
 20
134.1607632978685
 30
0.0
 11
162.08183456528241
 21
134.1607632978685
 31
0.0
  0
LINE
  5
6B7F
  8
0
 10
164.412901628139
 20
134.1607632978685
 30
0.0
 11
164.68084037099629
 21
134.1607632978685
 31
0.0
  0
LINE
  5
6B80
  8
0
 10
164.412901628139
 20
134.1607632978685
 30
0.0
 11
164.412901628139
 21
134.00000005215401
 31
0.0
  0
LINE
  5
6B81
  8
0
 10
163.2607650338536
 20
132.4004259538124
 30
0.0
 11
163.2607650338536
 21
132.6969800336208
 31
0.0
  0
LINE
  5
6B82
  8
0
 10
162.9392385424249
 20
132.4004259538124
 30
0.0
 11
162.9392385424249
 21
132.69698003362041
 31
0.0
  0
LINE
  5
6B83
  8
0
 10
161.78710194813951
 20
134.00000005215401
 30
0.0
 11
161.78710194813951
 21
134.1607632978685
 31
0.0
  0
LINE
  5
6B84
  8
0
 10
162.37656718242519
 20
134.1607632978685
 30
0.0
 11
162.6712997995682
 21
134.1607632978685
 31
0.0
  0
LINE
  5
6B85
  8
0
 10
162.08183456528241
 20
134.1607632978685
 30
0.0
 11
162.08183456528241
 21
134.00000005215401
 31
0.0
  0
LINE
  5
6B86
  8
0
 10
162.9392385424249
 20
132.99460477042271
 30
0.0
 11
162.9392385424249
 21
133.294654174182
 31
0.0
  0
LINE
  5
6B87
  8
0
 10
162.37656718242519
 20
134.00000005215401
 30
0.0
 11
162.37656718242519
 21
134.1607632978685
 31
0.0
  0
LINE
  5
6B88
  8
0
 10
163.82343639385351
 20
134.1607632978685
 30
0.0
 11
164.1181690109963
 21
134.1607632978685
 31
0.0
  0
LINE
  5
6B89
  8
0
 10
162.6712997995682
 20
134.1607632978685
 30
0.0
 11
162.6712997995682
 21
134.00000005215401
 31
0.0
  0
LINE
  5
6B8A
  8
0
 10
164.1181690109963
 20
134.00000005215401
 30
0.0
 11
164.1181690109963
 21
134.1607632978685
 31
0.0
  0
LINE
  5
6B8B
  8
0
 10
163.82343639385351
 20
134.1607632978685
 30
0.0
 11
163.82343639385351
 21
134.00000005215401
 31
0.0
  0
LINE
  5
6B8C
  8
0
 10
163.2607650338536
 20
132.99460477042271
 30
0.0
 11
163.2607650338536
 21
133.29465417418211
 31
0.0
  0
LINE
  5
6D58
  8
0
 10
169.8660271919241
 20
230.89505266398189
 30
0.0
 11
168.13397638435461
 21
230.89505266398189
 31
0.0
  0
LINE
  5
6D5A
  8
0
 10
170.73205259570841
 20
229.3950526639816
 30
0.0
 11
169.86602719192359
 21
230.89505266398231
 31
0.0
  0
LINE
  5
6D5D
  8
0
 10
169.86602719192359
 20
227.8950526639816
 30
0.0
 11
170.73205259570841
 21
229.39505266398231
 31
0.0
  0
LINE
  5
6D5F
  8
0
 10
168.13397638435501
 20
230.8950526639822
 30
0.0
 11
167.2679509805703
 21
229.3950526639816
 31
0.0
  0
LINE
  5
6D61
  8
0
 10
168.13397638435461
 20
227.89505266398189
 30
0.0
 11
169.8660271919241
 21
227.89505266398189
 31
0.0
  0
LINE
  5
6D63
  8
0
 10
167.2679509805703
 20
229.3950526639822
 30
0.0
 11
168.13397638435501
 21
227.8950526639816
 31
0.0
  0
CIRCLE
  5
6D64
  8
0
 10
169.00000178813929
 20
229.39505266398189
 30
0.0
 40
5.0
  0
LINE
  5
6D65
  8
0
 10
153.75000178813929
 20
230.11674050046901
 30
0.0
 11
153.75000178813929
 21
228.793679877784
 31
0.0
  0
LINE
  5
6D66
  8
0
 10
155.00000178813929
 20
230.83842833695601
 30
0.0
 11
155.72763979880989
 21
230.41832633562279
 31
0.0
  0
LINE
  5
6D67
  8
0
 10
155.00000178813929
 20
230.83842833695601
 30
0.0
 11
153.75000178813929
 21
230.11674050046901
 31
0.0
  0
ARC
  5
6D68
  8
0
 10
155.00000178813929
 20
229.39505266398189
 30
0.0
 40
2.75
 50
50.54407952216944
 51
208.7721706949323
  0
LINE
  5
6D69
  8
0
 10
184.25000178813929
 20
228.67336482749479
 30
0.0
 11
184.25000178813929
 21
230.11674050046881
 31
0.0
  0
LINE
  5
6D6A
  8
0
 10
183.00000178813929
 20
230.8384283369559
 30
0.0
 11
184.25000178813929
 21
230.11674050046881
 31
0.0
  0
LINE
  5
6D6B
  8
0
 10
183.00000178813929
 20
230.8384283369559
 30
0.0
 11
181.75000178813929
 21
230.11674050046881
 31
0.0
  0
LINE
  5
6D6C
  8
0
 10
181.75000178813929
 20
230.11674050046881
 30
0.0
 11
181.75000178813929
 21
228.67336482749479
 31
0.0
  0
LINE
  5
6D6D
  8
0
 10
183.00000178813929
 20
227.95167699100779
 30
0.0
 11
181.75000178813929
 21
228.67336482749479
 31
0.0
  0
LINE
  5
6D6E
  8
0
 10
183.00000178813929
 20
227.95167699100779
 30
0.0
 11
184.25000178813929
 21
228.67336482749479
 31
0.0
  0
ARC
  5
6D6F
  8
0
 10
183.00000178813929
 20
229.3950526639818
 30
0.0
 40
2.7499999999999738
 50
202.159662499436
 51
157.84033750056469
  0
CIRCLE
  5
6D70
  8
0
 10
169.00000178813929
 20
229.39505266398189
 30
0.0
 40
7.5448156639359922
  0
ARC
  5
6D71
  8
0
 10
169.00000178813929
 20
229.39505266398189
 30
0.0
 40
9.5000000000002611
 50
277.3804220338165
 51
262.6195779661835
  0
ARC
  5
6D73
  8
0
 10
169.00000178813929
 20
220.3950526639816
 30
0.0
 40
1.000000000000056
 50
0.0000000000016284
 51
180.0
  0
ARC
  5
6D74
  8
0
 10
169.00000178813929
 20
229.39505266398189
 30
0.0
 40
8.8600225733349234
 50
263.64362148061571
 51
276.35637851938429
  0
POLYLINE
  5
6D75
  8
0
 66
     1
 10
0.0
 20
0.0
 30
0.0
 70
   128
  0
VERTEX
  5
DA74
  8
0
 10
170.0000017881394
 20
220.0707523867639
 30
0.0
  0
VERTEX
  5
DA75
  8
0
 10
170.00002202748851
 20
220.06934658907701
 30
0.0
  0
VERTEX
  5
DA76
  8
0
 10
170.01029995532059
 20
220.0395018620531
 30
0.0
  0
VERTEX
  5
DA77
  8
0
 10
170.0406188412785
 20
220.01124271587139
 30
0.0
  0
VERTEX
  5
DA78
  8
0
 10
170.08456590197599
 20
219.9903961584846
 30
0.0
  0
VERTEX
  5
DA79
  8
0
 10
170.13878970350331
 20
219.97713939882061
 30
0.0
  0
VERTEX
  5
DA7A
  8
0
 10
170.20000178813939
 20
219.9724452865587
 30
0.0
  0
SEQEND
  5
DA7B
  8
0
  0
LINE
  5
6D76
  8
0
 10
170.0000017881394
 20
218.1589501368596
 30
0.0
 11
170.0000017881394
 21
220.39505266398169
 31
0.0
  0
LINE
  5
6D77
  8
0
 10
170.22034077119019
 20
219.97375908154589
 30
0.0
 11
170.20000178813939
 21
219.9724452865587
 31
0.0
  0
LINE
  5
6D78
  8
0
 10
167.8000017881393
 20
219.9724452865587
 30
0.0
 11
167.77966280508849
 21
219.97375908154589
 31
0.0
  0
LINE
  5
6D79
  8
0
 10
168.00000178813929
 20
220.39505266398169
 30
0.0
 11
168.0000017881394
 21
218.0950526639817
 31
0.0
  0
POLYLINE
  5
6D7A
  8
0
 66
     1
 10
0.0
 20
0.0
 30
0.0
 70
   128
  0
VERTEX
  5
DA7C
  8
0
 10
167.8000017881393
 20
219.9724452865587
 30
0.0
  0
VERTEX
  5
DA7D
  8
0
 10
167.86121387277529
 20
219.97713939882061
 30
0.0
  0
VERTEX
  5
DA7E
  8
0
 10
167.91543767430261
 20
219.99039615848471
 30
0.0
  0
VERTEX
  5
DA7F
  8
0
 10
167.95938473500021
 20
220.01124271587139
 30
0.0
  0
VERTEX
  5
DA80
  8
0
 10
167.98970362095801
 20
220.0395018620531
 30
0.0
  0
VERTEX
  5
DA81
  8
0
 10
167.99998154879029
 20
220.0693465890769
 30
0.0
  0
VERTEX
  5
DA82
  8
0
 10
168.00000178813929
 20
220.0707523867639
 30
0.0
  0
SEQEND
  5
DA83
  8
0
  0
ARC
  5
6D7B
  8
0
 10
169.00000178813929
 20
229.39505266398189
 30
0.0
 40
11.500000000000339
 50
276.09600213615931
 51
153.65719192071549
  0
ARC
  5
6D7C
  8
0
 10
170.20000178813939
 20
218.1589501368596
 30
0.0
 40
0.2000000000000107
 50
180.00000000001711
 51
276.09600213616579
  0
ARC
  5
6D7E
  8
0
 10
145.25189049517161
 20
241.15418571097521
 30
0.0
 40
15.00000000000106
 50
272.7449246778308
 51
333.65719192071572
  0
ARC
  5
6D7F
  8
0
 10
143.0968562783851
 20
286.10255417440908
 30
0.0
 40
60.00000000000238
 50
260.8928719487684
 51
272.7449246778308
  0
ARC
  5
6D80
  8
0
 10
132.01719270643031
 20
216.9849655653388
 30
0.0
 40
10.00000000000046
 50
80.892871948768374
 51
135.78610870840379
  0
ARC
  5
6D81
  8
0
 10
127.00000178813821
 20
221.8663378405713
 30
0.0
 40
3.000000000000135
 50
135.7861087084037
 51
265.36498425442289
  0
LINE
  5
6D82
  8
0
 10
167.8000017881393
 20
217.89505266398169
 30
0.0
 11
151.00000178813869
 21
217.89505266398169
 31
0.0
  0
ARC
  5
6D83
  8
0
 10
151.00000178813929
 20
517.89505266399158
 30
0.0
 40
300.00000000000989
 50
265.36498425442289
 51
270.0
  0
ARC
  5
6D84
  8
0
 10
167.8000017881393
 20
218.0950526639817
 30
0.0
 40
0.200000000000017
 50
270.0
 51
0.0
  0
LINE
  5
6D88
  8
0
 10
170.00000178813929
 20
218.39505266398169
 30
0.0
 11
168.00000178813929
 21
218.39505266398169
 31
0.0
  0
LINE
  5
6D8B
  8
0
 10
155.5835939231406
 20
241.39505266398189
 30
0.0
 11
182.41640965313809
 21
241.39505266398189
 31
0.0
  0
LINE
  5
6D8D
  8
0
 10
155.5835939231406
 20
217.39505266398189
 30
0.0
 11
155.15261936401339
 21
217.8950526639816
 31
0.0
  0
ARC
  5
6D8E
  8
0
 10
169.00000178813929
 20
229.39505266398189
 30
0.0
 40
18.0
 50
138.189685104224
 51
186.52924611245751
  0
ARC
  5
6D92
  8
0
 10
169.00000178813929
 20
229.39505266398189
 30
0.0
 40
17.999999999999979
 50
318.18968510422508
 51
41.810314895776088
  0
ARC
  5
6D98
  8
0
 10
183.00000178813929
 20
229.39505266398189
 30
0.0
 40
3.0
 50
209.99472552740821
 51
150.00527447258921
  0
ARC
  5
6D9A
  8
0
 10
155.00000178813929
 20
229.39505266398189
 30
0.0
 40
3.0000000000000071
 50
50.541018790011229
 51
208.77523142708691
  0
LINE
  5
6D9B
  8
0
 10
182.41640965313809
 20
217.39505266398189
 30
0.0
 11
155.5835939231406
 21
217.39505266398189
 31
0.0
  0
LINE
  5
6DC7
  8
0
 10
167.7500017881392
 20
62.721687836487057
 30
0.0
 11
167.7500017881392
 21
61.278312163513
 31
0.0
  0
LINE
  5
6DC8
  8
0
 10
169.0000017881392
 20
60.556624327025972
 30
0.0
 11
167.7500017881392
 21
61.278312163513
 31
0.0
  0
LINE
  5
6DC9
  8
0
 10
169.0000017881392
 20
60.556624327025972
 30
0.0
 11
170.2500017881392
 21
61.278312163513
 31
0.0
  0
LINE
  5
6DCA
  8
0
 10
170.2500017881392
 20
61.278312163513
 30
0.0
 11
170.2500017881392
 21
62.721687836487057
 31
0.0
  0
LINE
  5
6DCB
  8
0
 10
169.0000017881392
 20
63.443375672974078
 30
0.0
 11
170.2500017881392
 21
62.721687836487057
 31
0.0
  0
LINE
  5
6DCC
  8
0
 10
169.0000017881392
 20
63.443375672974078
 30
0.0
 11
167.7500017881392
 21
62.721687836487057
 31
0.0
  0
CIRCLE
  5
6DCD
  8
0
 10
169.0000017881392
 20
62.000000000000021
 30
0.0
 40
2.75
  0
CIRCLE
  5
6DCF
  8
0
 10
169.0000017881392
 20
62.0
 30
0.0
 40
7.0
  0
CIRCLE
  5
6DD1
  8
0
 10
169.0000017881392
 20
62.0
 30
0.0
 40
3.0
  0
CIRCLE
  5
6DD3
  8
0
 10
169.0000017881392
 20
62.0
 30
0.0
 40
8.75
  0
CIRCLE
  5
6DD5
  8
0
 10
169.0000017881392
 20
62.0
 30
0.0
 40
7.5
  0
LINE
  5
6E53
  8
0
 10
247.50000101327871
 20
129.9999999802094
 30
0.0
 11
247.50000101327871
 21
126.4999999802093
 31
0.0
  0
LINE
  5
6E54
  8
0
 10
250.50000101327871
 20
126.4999999802093
 30
0.0
 11
250.50000101327871
 21
129.9999999802094
 31
0.0
  0
LINE
  5
6E55
  8
0
 10
247.50000101327871
 20
126.4999999802093
 30
0.0
 11
248.00000101327871
 21
125.9999999802094
 31
0.0
  0
LINE
  5
6E56
  8
0
 10
250.00000101327871
 20
125.9999999802094
 30
0.0
 11
250.50000101327871
 21
126.4999999802093
 31
0.0
  0
ARC
  5
6E57
  8
0
 10
259.00000101327868
 20
163.8950542202094
 30
0.0
 40
1.5
 50
0.0000000000002036
 51
89.999999999954397
  0
LINE
  5
6E58
  8
0
 10
260.50000101327868
 20
147.8950542202094
 30
0.0
 11
260.50000101327868
 21
163.8950542202094
 31
0.0
  0
ARC
  5
6E59
  8
0
 10
238.49996665910811
 20
147.89479323370421
 30
0.0
 40
0.9997390140852763
 50
239.99363764466929
 51
270.00196886276308
  0
ARC
  5
6E5A
  8
0
 10
259.50000101327868
 20
147.8950542202094
 30
0.0
 40
1.000000000000028
 50
270.00000000007162
 51
0.0000000000002036
  0
ARC
  5
6E5B
  8
0
 10
249.00000101327871
 20
158.06361507090179
 30
0.0
 40
12.00000000000008
 50
128.95682804939381
 51
131.43645063523971
  0
ARC
  5
6E5C
  8
0
 10
249.00000101327871
 20
158.06361507090179
 30
0.0
 40
12.000000000000149
 50
37.658462006209398
 51
51.043171950605988
  0
POLYLINE
  5
6E5D
  8
0
 66
     1
 10
0.0
 20
0.0
 30
0.0
 70
   128
  0
VERTEX
  5
DA84
  8
0
 10
241.0585337353732
 20
167.05989749610151
 30
0.0
  0
VERTEX
  5
DA85
  8
0
 10
241.0569274862182
 20
167.05774634856999
 30
0.0
  0
VERTEX
  5
DA86
  8
0
 10
241.05511103716549
 20
167.05589758313559
 30
0.0
  0
VERTEX
  5
DA87
  8
0
 10
241.0245016417762
 20
167.0247237944449
 30
0.0
  0
VERTEX
  5
DA88
  8
0
 10
240.9484646596197
 20
166.94680060024649
 30
0.0
  0
VERTEX
  5
DA89
  8
0
 10
240.83172826572419
 20
166.82580723491759
 30
0.0
  0
VERTEX
  5
DA8A
  8
0
 10
240.6757646165297
 20
166.66149258764091
 30
0.0
  0
VERTEX
  5
DA8B
  8
0
 10
240.52343591696689
 20
166.49400453272401
 30
0.0
  0
SEQEND
  5
DA8C
  8
0
  0
ARC
  5
6E5F
  8
0
 10
249.00000101327871
 20
158.06361507090179
 30
0.0
 40
11.938824472663359
 50
140.0572780700559
 51
142.1139703096307
  0
LINE
  5
6E60
  8
0
 10
242.0000010132789
 20
127.9999999802094
 30
0.0
 11
242.00000101327871
 21
124.1999999802094
 31
0.0
  0
LINE
  5
6E61
  8
0
 10
256.00000101327868
 20
124.1999999802093
 30
0.0
 11
256.00000101327868
 21
127.9999999802094
 31
0.0
  0
LINE
  5
6E62
  8
0
 10
242.00000101327871
 20
124.1999999802094
 30
0.0
 11
242.20000101327881
 21
123.9999999802094
 31
0.0
  0
LINE
  5
6E63
  8
0
 10
255.80000101327889
 20
123.9999999802093
 30
0.0
 11
256.00000101327868
 21
124.1999999802093
 31
0.0
  0
ARC
  5
6E64
  8
0
 10
239.60000101327881
 20
138.39999998020929
 30
0.0
 40
0.4000000000000057
 50
270.0
 51
0.0000000000002036
  0
ARC
  5
6E65
  8
0
 10
258.40000101327882
 20
138.39999998020929
 30
0.0
 40
0.4000000000000341
 50
179.9999999999996
 51
270.0
  0
ARC
  5
6E66
  8
0
 10
258.15000101327882
 20
129.5999999802093
 30
0.0
 40
0.4000000000000341
 50
90.0
 51
180.0
  0
ARC
  5
6E67
  8
0
 10
239.8500010132789
 20
129.5999999802093
 30
0.0
 40
0.4000000000000057
 50
0.0
 51
90.0
  0
LINE
  5
6E68
  8
0
 10
258.00000101327879
 20
138.39999998020929
 30
0.0
 11
258.00000101327879
 21
146.8950542202094
 31
0.0
  0
LINE
  5
6E69
  8
0
 10
240.0000010132789
 20
139.9996708179747
 30
0.0
 11
240.0000010132789
 21
138.39999998020929
 31
0.0
  0
LINE
  5
6E6A
  8
0
 10
240.25000101327899
 20
128.29999998020941
 30
0.0
 11
240.55000101327889
 21
127.9999999802094
 31
0.0
  0
LINE
  5
6E6B
  8
0
 10
257.45000101327878
 20
127.9999999802094
 30
0.0
 11
257.75000101327868
 21
128.29999998020941
 31
0.0
  0
LINE
  5
6E6C
  8
0
 10
257.75000101327868
 20
128.29999998020941
 30
0.0
 11
257.75000101327868
 21
129.5999999802093
 31
0.0
  0
LINE
  5
6E6D
  8
0
 10
240.25000101327899
 20
129.5999999802093
 30
0.0
 11
240.25000101327899
 21
128.29999998020941
 31
0.0
  0
LINE
  5
6E6E
  8
0
 10
247.50000101327871
 20
126.4999999802093
 30
0.0
 11
250.50000101327871
 21
126.4999999802093
 31
0.0
  0
LINE
  5
6E6F
  8
0
 10
250.00000101327871
 20
125.9999999802094
 30
0.0
 11
248.00000101327871
 21
125.9999999802094
 31
0.0
  0
LINE
  5
6E72
  8
0
 10
239.00000101327871
 20
165.39505422020929
 30
0.0
 11
259.00000101327868
 21
165.39505422020929
 31
0.0
  0
LINE
  5
6E73
  8
0
 10
259.50000101327919
 20
146.8950542202094
 30
0.0
 11
238.50000101490531
 21
146.8950542202094
 31
0.0
  0
LINE
  5
6E74
  8
0
 10
238.00000101327871
 20
147.02904936322369
 30
0.0
 11
238.00000101327871
 21
147.07107102385311
 31
0.0
  0
ARC
  5
6E75
  8
0
 10
238.56402622154559
 20
147.8956136225697
 30
0.0
 40
0.9989969632881701
 50
180.03208357697741
 51
235.62606985957129
  0
LINE
  5
6E76
  8
0
 10
241.455185349343
 20
167.39505422020929
 30
0.0
 11
256.54481667721478
 21
167.39505422020929
 31
0.0
  0
POLYLINE
  5
6E77
  8
0
 66
     1
 10
0.0
 20
0.0
 30
0.0
 70
   128
  0
VERTEX
  5
DA8D
  8
0
 10
240.52343591696689
 20
166.49400453272401
 30
0.0
  0
VERTEX
  5
DA8E
  8
0
 10
240.23034453013429
 20
166.1722832438295
 30
0.0
  0
VERTEX
  5
DA8F
  8
0
 10
239.84666368344659
 20
165.72859683965819
 30
0.0
  0
SEQEND
  5
DA90
  8
0
  0
LINE
  5
6E79
  8
0
 10
237.5638984861564
 20
147.90262498177049
 30
0.0
 11
237.56502941487989
 21
147.8950542202094
 31
0.0
  0
LINE
  5
6E7A
  8
0
 10
237.5638984861564
 20
147.90262498177049
 30
0.0
 11
237.51908094974419
 21
148.20752675657531
 31
0.0
  0
LINE
  5
6E7B
  8
0
 10
237.51908094974419
 20
148.20752675657531
 30
0.0
 11
237.50000101327871
 21
148.42558510664881
 31
0.0
  0
LINE
  5
6E7C
  8
0
 10
237.50000101327871
 20
148.42558510665449
 30
0.0
 11
237.50000101327871
 21
163.8950542202094
 31
0.0
  0
ARC
  5
6E7E
  8
0
 10
239.00000101327871
 20
163.8950542202094
 30
0.0
 40
1.5
 50
90.0
 51
179.9999999999998
  0
LINE
  5
6E80
  8
0
 10
255.80000101327889
 20
123.9999999802093
 30
0.0
 11
242.20000101327881
 21
123.9999999802094
 31
0.0
  0
LINE
  5
6E81
  8
0
 10
237.5000010132789
 20
137.9999999802094
 30
0.0
 11
260.50000101327868
 21
137.9999999802094
 31
0.0
  0
LINE
  5
6E82
  8
0
 10
260.50000101327868
 20
137.9999999802094
 30
0.0
 11
261.00000101327868
 21
137.4999999802094
 31
0.0
  0
LINE
  5
6E84
  8
0
 10
237.5000010132789
 20
137.9999999802094
 30
0.0
 11
237.0000010132789
 21
137.4999999802094
 31
0.0
  0
LINE
  5
6E85
  8
0
 10
261.00000101327868
 20
137.4999999802094
 30
0.0
 11
261.00000101327868
 21
130.4999999802094
 31
0.0
  0
LINE
  5
6E87
  8
0
 10
237.0000010132789
 20
130.4999999802094
 30
0.0
 11
237.0000010132789
 21
137.4999999802094
 31
0.0
  0
LINE
  5
6E88
  8
0
 10
261.00000101327868
 20
130.4999999802094
 30
0.0
 11
260.50000101327868
 21
129.9999999802094
 31
0.0
  0
LINE
  5
6E89
  8
0
 10
260.50000101327868
 20
129.9999999802094
 30
0.0
 11
237.5000010132789
 21
129.9999999802094
 31
0.0
  0
LINE
  5
6E8A
  8
0
 10
237.0000010132789
 20
130.4999999802094
 30
0.0
 11
237.5000010132789
 21
129.9999999802094
 31
0.0
  0
POLYLINE
  5
6E8B
  8
0
 66
     1
 10
0.0
 20
0.0
 30
0.0
 70
   128
  0
VERTEX
  5
DA91
  8
0
 10
240.0000010132789
 20
139.9996708179747
 30
0.0
  0
VERTEX
  5
DA92
  8
0
 10
240.01044601098781
 20
140.0988345463316
 30
0.0
  0
VERTEX
  5
DA93
  8
0
 10
240.02774722535901
 20
140.2919476976482
 30
0.0
  0
VERTEX
  5
DA94
  8
0
 10
240.04519398704431
 20
140.5657547993475
 30
0.0
  0
VERTEX
  5
DA95
  8
0
 10
240.0550398396681
 20
140.88895765762609
 30
0.0
  0
VERTEX
  5
DA96
  8
0
 10
240.05572910327959
 20
140.9999999802094
 30
0.0
  0
SEQEND
  5
DA97
  8
0
  0
LINE
  5
6E8C
  8
0
 10
240.05572910327959
 20
140.9999999802094
 30
0.0
 11
240.05572910327959
 21
146.8950542202094
 31
0.0
  0
LINE
  5
6E8D
  8
0
 10
247.50000101327871
 20
127.9999999802094
 30
0.0
 11
240.55000101327889
 21
127.9999999802094
 31
0.0
  0
LINE
  5
6E8E
  8
0
 10
257.45000101327878
 20
127.9999999802094
 30
0.0
 11
250.50000101327871
 21
127.9999999802094
 31
0.0
  0
LINE
  5
6E8F
  8
0
 10
250.50000101327871
 20
128.29999998020941
 30
0.0
 11
257.75000101327868
 21
128.29999998020941
 31
0.0
  0
LINE
  5
6E90
  8
0
 10
240.25000101327899
 20
128.29999998020941
 30
0.0
 11
247.50000101327871
 21
128.29999998020941
 31
0.0
  0
LINE
  5
6E9C
  8
0
 10
60.5
 20
130.0
 30
0.0
 11
60.5
 21
126.5
 31
0.0
  0
LINE
  5
6E9D
  8
0
 10
63.500000000000007
 20
126.5
 30
0.0
 11
63.500000000000007
 21
130.0
 31
0.0
  0
LINE
  5
6E9E
  8
0
 10
60.5
 20
126.5
 30
0.0
 11
61.000000000000007
 21
126.0
 31
0.0
  0
LINE
  5
6E9F
  8
0
 10
63.0
 20
126.0
 30
0.0
 11
63.500000000000007
 21
126.5
 31
0.0
  0
ARC
  5
6EA0
  8
0
 10
65.910087098643089
 20
163.89505424000001
 30
0.0
 40
1.5
 50
90.000000000039066
 51
180.0
  0
ARC
  5
6EA1
  8
0
 10
65.410087098643089
 20
153.89505424000001
 30
0.0
 40
1.0
 50
180.0
 51
269.99999999993491
  0
LINE
  5
6EA2
  8
0
 10
64.410087098643089
 20
163.89505424000001
 30
0.0
 11
64.410087098643089
 21
153.89505424000001
 31
0.0
  0
ARC
  5
6EA3
  8
0
 10
72.152357177000113
 20
153.89505424000001
 30
0.0
 40
1.000000000000028
 50
270.0
 51
357.23680993975012
  0
POLYLINE
  5
6EA4
  8
0
 66
     1
 10
0.0
 20
0.0
 30
0.0
 70
   128
  0
VERTEX
  5
DA98
  8
0
 10
73.151194491971395
 20
153.8468461678857
 30
0.0
  0
VERTEX
  5
DA99
  8
0
 10
73.168103706494094
 20
154.2015528579565
 30
0.0
  0
VERTEX
  5
DA9A
  8
0
 10
73.216311993286809
 20
155.26578954150389
 30
0.0
  0
SEQEND
  5
DA9B
  8
0
  0
ARC
  5
6EA5
  8
0
 10
77.978049862239914
 20
155.14130728467561
 30
0.0
 40
4.7633647104632937
 50
170.89534168042039
 51
178.50250391151479
  0
ARC
  5
6EA8
  8
0
 10
51.500000000000007
 20
147.89505424000001
 30
0.0
 40
1.000000000000028
 50
179.9999999999998
 51
269.99999999992832
  0
ARC
  5
6EA9
  8
0
 10
72.5
 20
147.89505424000001
 30
0.0
 40
1.000000000000028
 50
270.00000000007162
 51
299.97520152330219
  0
LINE
  5
6EAA
  8
0
 10
50.5
 20
163.89505424000001
 30
0.0
 11
50.5
 21
147.89505424000001
 31
0.0
  0
ARC
  5
6EAB
  8
0
 10
52.000000000000007
 20
163.89505424000001
 30
0.0
 40
1.5
 50
90.000000000045588
 51
179.9999999999998
  0
ARC
  5
6EAC
  8
0
 10
62.000000000000007
 20
158.06361509069239
 30
0.0
 40
12.00000000000014
 50
128.95682804939381
 51
142.3415379937905
  0
ARC
  5
6EAD
  8
0
 10
62.000000000000007
 20
158.06361509069239
 30
0.0
 40
12.000000000000099
 50
48.561710164733483
 51
51.043171950606201
  0
LINE
  5
6EB0
  8
0
 10
55.0
 20
128.0
 30
0.0
 11
55.0
 21
124.2
 31
0.0
  0
LINE
  5
6EB1
  8
0
 10
69.0
 20
124.2
 30
0.0
 11
69.0
 21
128.0
 31
0.0
  0
LINE
  5
6EB2
  8
0
 10
55.0
 20
124.2
 30
0.0
 11
55.199999999999939
 21
124.0
 31
0.0
  0
LINE
  5
6EB3
  8
0
 10
68.799999999999955
 20
124.0
 30
0.0
 11
69.0
 21
124.2
 31
0.0
  0
ARC
  5
6EB4
  8
0
 10
52.599999999999909
 20
138.40000000000001
 30
0.0
 40
0.4000000000000057
 50
270.0
 51
0.0000000000002036
  0
ARC
  5
6EB5
  8
0
 10
71.399999999999963
 20
138.40000000000001
 30
0.0
 40
0.4000000000000057
 50
179.9999999999996
 51
270.0
  0
ARC
  5
6EB6
  8
0
 10
71.149999999999977
 20
129.59999999999999
 30
0.0
 40
0.4000000000000057
 50
90.0
 51
180.0
  0
ARC
  5
6EB7
  8
0
 10
52.849999999999923
 20
129.59999999999999
 30
0.0
 40
0.4000000000000057
 50
0.0
 51
90.0
  0
LINE
  5
6EB8
  8
0
 10
71.0
 20
138.40000000000001
 30
0.0
 11
71.0
 21
140.00007974347039
 31
0.0
  0
LINE
  5
6EB9
  8
0
 10
53.0
 20
146.89505424000001
 30
0.0
 11
53.0
 21
138.40000000000001
 31
0.0
  0
LINE
  5
6EBA
  8
0
 10
53.250000000000007
 20
128.30000000000001
 30
0.0
 11
53.549999999999962
 21
128.0
 31
0.0
  0
LINE
  5
6EBB
  8
0
 10
70.449999999999932
 20
128.0
 30
0.0
 11
70.75
 21
128.30000000000001
 31
0.0
  0
LINE
  5
6EBC
  8
0
 10
70.75
 20
128.30000000000001
 30
0.0
 11
70.75
 21
129.59999999999999
 31
0.0
  0
LINE
  5
6EBD
  8
0
 10
53.250000000000007
 20
129.59999999999999
 30
0.0
 11
53.250000000000007
 21
128.30000000000001
 31
0.0
  0
LINE
  5
6EBE
  8
0
 10
60.5
 20
126.5
 30
0.0
 11
63.500000000000007
 21
126.5
 31
0.0
  0
LINE
  5
6EBF
  8
0
 10
63.0
 20
126.0
 30
0.0
 11
61.000000000000007
 21
126.0
 31
0.0
  0
ARC
  5
6EC5
  8
0
 10
72.000000000000227
 20
163.89505424000001
 30
0.0
 40
1.5
 50
0.0
 51
90.0
  0
LINE
  5
6EC7
  8
0
 10
72.152357177000113
 20
152.89505424000001
 30
0.0
 11
65.410087098643089
 21
152.89505424000001
 31
0.0
  0
LINE
  5
6EC8
  8
0
 10
73.500000000000213
 20
155.89505424000001
 30
0.0
 11
73.500000000000213
 21
163.89505424000001
 31
0.0
  0
LINE
  5
6ECE
  8
0
 10
73.434971598398761
 20
147.89505424000001
 30
0.0
 11
73.480920063534541
 21
148.20752677636591
 31
0.0
  0
LINE
  5
6ED0
  8
0
 10
73.480920063534541
 20
148.20752677636591
 30
0.0
 11
73.500000000000213
 21
148.42558512643939
 31
0.0
  0
LINE
  5
6ED1
  8
0
 10
73.500000000000213
 20
155.89505424000001
 30
0.0
 11
73.500000000000213
 21
148.4255851264451
 31
0.0
  0
LINE
  5
6ED5
  8
0
 10
72.499999998373369
 20
146.89505424000001
 30
0.0
 11
51.499999999999552
 21
146.89505424000001
 31
0.0
  0
ARC
  5
6ED6
  8
0
 10
72.435659219658191
 20
147.8957802293618
 30
0.0
 40
0.9993126424522018
 50
304.38347130450688
 51
359.9583752588627
  0
LINE
  5
6ED7
  8
0
 10
72.999999999999091
 20
147.07107104364289
 30
0.0
 11
73.000000000000213
 21
147.0290288362155
 31
0.0
  0
LINE
  5
6ED8
  8
0
 10
52.000000000000007
 20
165.39505424000001
 30
0.0
 11
72.000000000000227
 21
165.39505424000001
 31
0.0
  0
LINE
  5
6ED9
  8
0
 10
54.455184336063901
 20
167.39505424000001
 30
0.0
 11
69.544815663935992
 21
167.39505424000001
 31
0.0
  0
ARC
  5
6EDA
  8
0
 10
53.185425143190983
 20
150.60858179362179
 30
0.0
 40
23.482164017479089
 50
40.080648926663081
 51
44.47330411384381
  0
LINE
  5
6EDC
  8
0
 10
68.799999999999955
 20
124.0
 30
0.0
 11
55.199999999999939
 21
124.0
 31
0.0
  0
LINE
  5
6EDE
  8
0
 10
74.0
 20
137.5
 30
0.0
 11
74.0
 21
130.5
 31
0.0
  0
LINE
  5
6EE0
  8
0
 10
50.0
 20
130.5
 30
0.0
 11
50.0
 21
137.5
 31
0.0
  0
LINE
  5
6EE1
  8
0
 10
73.5
 20
130.0
 30
0.0
 11
50.5
 21
130.0
 31
0.0
  0
LINE
  5
6EE2
  8
0
 10
50.5
 20
130.0
 30
0.0
 11
50.0
 21
130.5
 31
0.0
  0
LINE
  5
6EE3
  8
0
 10
73.5
 20
130.0
 30
0.0
 11
74.0
 21
130.5
 31
0.0
  0
LINE
  5
6EE4
  8
0
 10
50.0
 20
137.5
 30
0.0
 11
50.5
 21
138.0
 31
0.0
  0
LINE
  5
6EE5
  8
0
 10
50.5
 20
138.0
 30
0.0
 11
73.5
 21
138.0
 31
0.0
  0
LINE
  5
6EE6
  8
0
 10
74.0
 20
137.5
 30
0.0
 11
73.5
 21
138.0
 31
0.0
  0
LINE
  5
6EE7
  8
0
 10
70.944271909999074
 20
146.89505424000001
 30
0.0
 11
70.944271909999074
 21
141.0
 31
0.0
  0
ARC
  5
6EE8
  8
0
 10
79.994742112778226
 20
141.00289257895821
 30
0.0
 40
9.0504706650209936
 50
180.01831203869671
 51
186.36156587289861
  0
LINE
  5
6EE9
  8
0
 10
70.449999999999932
 20
128.0
 30
0.0
 11
63.500000000000007
 21
128.0
 31
0.0
  0
LINE
  5
6EEA
  8
0
 10
60.5
 20
128.0
 30
0.0
 11
53.549999999999962
 21
128.0
 31
0.0
  0
LINE
  5
6EEB
  8
0
 10
53.250000000000007
 20
128.30000000000001
 30
0.0
 11
60.5
 21
128.30000000000001
 31
0.0
  0
LINE
  5
6EEC
  8
0
 10
63.500000000000007
 20
128.30000000000001
 30
0.0
 11
70.75
 21
128.30000000000001
 31
0.0
  0
LINE
  5
6EFA
  8
0
 10
73.274699046892806
 20
155.89505424000001
 30
0.0
 11
73.500000000000213
 21
155.89505424000001
 31
0.0
  0
POLYLINE
  5
6F04
  8
0
 66
     1
 10
0.0
 20
0.0
 30
0.0
 70
   128
  0
VERTEX
  5
DA9C
  8
0
 10
64.410087098643089
 20
154.41830321916001
 30
0.0
  0
VERTEX
  5
DA9D
  8
0
 10
63.809733005659389
 20
153.9932616093196
 30
0.0
  0
VERTEX
  5
DA9E
  8
0
 10
63.060535513796829
 20
153.37209252010331
 30
0.0
  0
VERTEX
  5
DA9F
  8
0
 10
62.115637652806988
 20
152.50248036065329
 30
0.0
  0
VERTEX
  5
DAA0
  8
0
 10
61.130973778288542
 20
151.53317640079641
 30
0.0
  0
VERTEX
  5
DAA1
  8
0
 10
60.122444793944517
 20
150.50579859600299
 30
0.0
  0
VERTEX
  5
DAA2
  8
0
 10
59.112938058514153
 20
149.47416581639621
 30
0.0
  0
VERTEX
  5
DAA3
  8
0
 10
58.003838302770077
 20
148.417664835528
 30
0.0
  0
VERTEX
  5
DAA4
  8
0
 10
57.556453143552979
 20
148.07512628711589
 30
0.0
  0
VERTEX
  5
DAA5
  8
0
 10
57.208609464971467
 20
147.89505424000001
 30
0.0
  0
SEQEND
  5
DAA6
  8
0
  0
ARC
  5
6F10
  8
0
 10
62.000000000000007
 20
158.06361509069239
 30
0.0
 40
11.93778759931887
 50
37.8892525937895
 51
39.94272192994449
  0
CIRCLE
  5
930B
  8
3
 10
183.0000017881392
 20
62.000000000000092
 30
0.0
 40
1.2294999664729851
  0
CIRCLE
  5
930C
  8
0
 10
183.0000017881392
 20
62.000000000000092
 30
0.0
 40
1.500000000000014
  0
CIRCLE
  5
930D
  8
3
 10
155.0000017881392
 20
62.0
 30
0.0
 40
1.2295000335282109
  0
CIRCLE
  5
930E
  8
0
 10
155.0000017881392
 20
62.0
 30
0.0
 40
1.500000000000028
  0
POLYLINE
  5
930F
  8
0
 66
     1
 10
0.0
 20
0.0
 30
0.0
 70
   128
  0
VERTEX
  5
DAA7
  8
0
 10
151.1156736966544
 20
64.037353360645071
 30
0.0
  0
VERTEX
  5
DAA8
  8
0
 10
150.9165571489292
 20
64.129143282675741
 30
0.0
  0
VERTEX
  5
DAA9
  8
0
 10
149.60047324395521
 20
64.596696015690867
 30
0.0
  0
SEQEND
  5
DAAA
  8
0
  0
ARC
  5
9310
  8
0
 10
132.01719270643031
 20
74.410087098643103
 30
0.0
 40
10.000000000000471
 50
224.2138912915963
 51
279.1071280512316
  0
ARC
  5
9311
  8
0
 10
143.09685627838491
 20
5.2924984895726013
 30
0.0
 40
60.000000000002579
 50
96.127356715689174
 51
99.107128051231626
  0
ARC
  5
9312
  8
0
 10
127.00000178813811
 20
69.528714823410553
 30
0.0
 40
3.0000000000001048
 50
94.635015745577121
 51
224.21389129159641
  0
ARC
  5
9313
  8
0
 10
151.0000017881392
 20
-226.50000000000969
 30
0.0
 40
300.00000000001012
 50
92.763190060247439
 51
94.635015745577121
  0
ARC
  5
9314
  8
0
 10
151.0000017881392
 20
-226.50000000000969
 30
0.0
 40
300.00000000001012
 50
92.491906368976487
 51
92.763190060247439
  0
ARC
  5
9315
  8
0
 10
143.09685627838491
 20
5.2924984895728349
 30
0.0
 40
60.000000000002338
 50
94.792936380018702
 51
96.127356715689174
  0
ARC
  5
9316
  8
0
 10
143.0968562784013
 20
5.2924984893526199
 30
0.0
 40
60.000000000223153
 50
93.461117447867295
 51
94.792936380018702
  0
ARC
  5
9317
  8
0
 10
151.00000178790731
 20
-226.499999995119
 30
0.0
 40
299.99999999511391
 50
92.220678566193939
 51
92.491906368976487
  0
ARC
  5
9318
  8
0
 10
145.25189049517149
 20
50.240866953006773
 30
0.0
 40
15.00000000000083
 50
73.147700476140756
 51
87.255075322162668
  0
ARC
  5
9319
  8
0
 10
143.09685627838491
 20
5.2924984895726013
 30
0.0
 40
60.000000000002593
 50
87.255075322175713
 51
93.461117447867295
  0
ARC
  5
931A
  8
0
 10
151.0000017881392
 20
-226.50000000000969
 30
0.0
 40
300.00000000001
 50
90.0
 51
92.220678566193939
  0
LINE
  5
931B
  8
0
 10
151.00000178813869
 20
73.500000000000284
 30
0.0
 11
155.15261936401299
 21
73.500000000000142
 31
0.0
  0
ARC
  5
931F
  8
0
 10
169.0000017881392
 20
62.0
 30
0.0
 40
18.0
 50
138.1896851042236
 51
221.8103148957764
  0
LINE
  5
9320
  8
0
 10
182.416409653138
 20
50.0
 30
0.0
 11
155.58359392314051
 21
50.0
 31
0.0
  0
ARC
  5
9321
  8
0
 10
169.0000017881392
 20
62.0
 30
0.0
 40
17.999999999999979
 50
318.18968510422548
 51
41.810314895776393
  0
CIRCLE
  5
9322
  8
0
 10
155.0000017881392
 20
62.0
 30
0.0
 40
1.75
  0
CIRCLE
  5
9323
  8
0
 10
183.0000017881392
 20
62.0
 30
0.0
 40
1.75
  0
LINE
  5
9324
  8
0
 10
155.58359392314051
 20
74.0
 30
0.0
 11
182.416409653138
 21
74.0
 31
0.0
  0
LINE
  5
9325
  8
0
 10
150.258687002069
 20
66.922207952789066
 30
0.0
 11
151.56196061583299
 21
66.462591183713499
 31
0.0
  0
ARC
  5
9326
  8
0
 10
143.09685627838491
 20
5.2924984895726013
 30
0.0
 40
62.311703864457463
 50
96.095950555566915
 51
99.107128051231626
  0
ARC
  5
9327
  8
0
 10
132.01719270643031
 20
74.410087098643103
 30
0.0
 40
7.6882961355454951
 50
224.2138912915963
 51
279.1071280512316
  0
ARC
  5
9328
  8
0
 10
127.00000178813811
 20
69.528714823410553
 30
0.0
 40
0.6882961355451127
 50
94.635015745577121
 51
224.21389129159439
  0
ARC
  5
9329
  8
0
 10
151.0000017881392
 20
-226.50000000000969
 30
0.0
 40
297.68829613555522
 50
92.766088601034383
 51
94.635015745577121
  0
LINE
  5
932A
  8
0
 10
153.46004102217699
 20
71.083480576979269
 30
0.0
 11
151.00000178813869
 21
71.083480576979312
 31
0.0
  0
LINE
  5
932B
  8
0
 10
136.4797399655655
 20
67.251857832568248
 30
0.0
 11
137.91708759352841
 21
67.462913403813388
 31
0.0
  0
LINE
  5
932C
  8
0
 10
138.04347676148939
 20
70.832017785931953
 30
0.0
 11
136.63398069134189
 21
70.841452027682365
 31
0.0
  0
ARC
  5
932D
  8
0
 10
145.25189049517149
 20
50.240866953006773
 30
0.0
 40
17.416519423021899
 50
73.293211626585062
 51
87.255075322162668
  0
ARC
  5
932E
  8
0
 10
138.173571114493
 20
100.4599501753146
 30
0.0
 40
29.628218005990849
 50
269.74841951966459
 51
272.47489274386959
  0
ARC
  5
932F
  8
0
 10
151.0000017881392
 20
-226.50000000000969
 30
0.0
 40
297.58348057698907
 50
90.0
 51
92.223788146511737
  0
ARC
  5
9330
  8
0
 10
143.09685627838491
 20
5.2924984895726013
 30
0.0
 40
62.416519423023608
 50
87.255075322175713
 51
93.43753946601511
  0
ARC
  5
9331
  8
0
 10
140.56246133632391
 20
46.833421708838991
 30
0.0
 40
20.798411714169159
 50
93.330033317188764
 51
97.307309147696685
  0
LINE
  5
A1AA
  8
3
 10
153.77050182166619
 20
130.00000005215401
 30
0.0
 11
153.77050182166619
 21
126.2295001639134
 31
0.0
  0
LINE
  5
A1AB
  8
3
 10
156.2295018216675
 20
130.00000005215401
 30
0.0
 11
156.2295018216675
 21
126.2295001639133
 31
0.0
  0
LINE
  5
A1B3
  8
3
 10
60.770499999999288
 20
130.00000018998981
 30
0.0
 11
60.770499999999288
 21
126.2295003017492
 31
0.0
  0
LINE
  5
A1B4
  8
3
 10
63.229500000000598
 20
130.00000018998981
 30
0.0
 11
63.229500000000598
 21
126.2295003017491
 31
0.0
  0
LINE
  5
A1B5
  8
3
 10
181.77050175461099
 20
130.00000005215401
 30
0.0
 11
181.77050175461099
 21
126.2295001639134
 31
0.0
  0
LINE
  5
A1B6
  8
3
 10
184.2295017546123
 20
130.00000005215401
 30
0.0
 11
184.2295017546123
 21
126.2295001639133
 31
0.0
  0
LINE
  5
A1B7
  8
3
 10
247.77050101327791
 20
130.0000000323634
 30
0.0
 11
247.77050101327791
 21
126.2295001441228
 31
0.0
  0
LINE
  5
A1B8
  8
3
 10
250.2295010132793
 20
130.0000000323634
 30
0.0
 11
250.2295010132793
 21
126.2295001441227
 31
0.0
  0
LINE
  5
A28E
  8
1
 10
169.00000178813929
 20
244.39505266398189
 30
0.0
 11
169.00000178813929
 21
214.39505266398189
 31
0.0
  0
LINE
  5
A28F
  8
1
 10
249.00000101327871
 20
170.39505422020929
 30
0.0
 11
249.00000101327871
 21
120.9999999802093
 31
0.0
  0
LINE
  5
A290
  8
1
 10
62.000000000000007
 20
170.39505424000001
 30
0.0
 11
62.000000000000007
 21
121.0
 31
0.0
  0
LINE
  5
A29B
  8
1
 10
169.00000178813929
 20
77.0
 30
0.0
 11
169.0000017881392
 21
47.000000000000007
 31
0.0
  0
LINE
  5
A29C
  8
1
 10
169.0000017881394
 20
170.3950526639818
 30
0.0
 11
169.0000017881394
 21
121.0
 31
0.0
  0
LINE
  5
A29D
  8
1
 10
148.00000178813929
 20
229.39505266398189
 30
0.0
 11
190.00000178813929
 21
229.39505266398189
 31
0.0
  0
LINE
  5
A29E
  8
1
 10
190.0000017881392
 20
62.0
 30
0.0
 11
148.0000017881392
 21
62.0
 31
0.0
  0
LINE
  5
A2A3
  8
1
 10
183.0000017881392
 20
65.25
 30
0.0
 11
183.0000017881392
 21
58.75
 31
0.0
  0
LINE
  5
A2A4
  8
1
 10
155.0000017881392
 20
65.25
 30
0.0
 11
155.0000017881392
 21
58.75
 31
0.0
  0
LINE
  5
A2B3
  8
1
 10
183.00000178813929
 20
124.4999998621642
 30
0.0
 11
183.0000017881392
 21
139.5000004321337
 31
0.0
  0
LINE
  5
A2B4
  8
1
 10
155.00000178813929
 20
124.4999998621642
 30
0.0
 11
155.00000178813929
 21
139.5000004321337
 31
0.0
  0
LINE
  5
A2B6
  8
1
 10
183.00000178813929
 20
224.89505266398189
 30
0.0
 11
183.00000178813929
 21
233.89505266398189
 31
0.0
  0
LINE
  5
A2B7
  8
1
 10
155.00000178813929
 20
224.89505266398189
 30
0.0
 11
155.00000178813929
 21
233.89505266398189
 31
0.0
  0
ENDSEC
  0
EOF
