  0
SECTION
  2
HEADER
  9
$ACADVER
  1
AC1009
  9
$INSBASE
 10
0.0
 20
0.0
 30
0.0
  9
$EXTMIN
 10
0.0
 20
-2.960436562073669
 30
0.0
  9
$EXTMAX
 10
233.99999976158139
 20
233.2135727927089
 30
0.0
  9
$LIMMIN
 10
0.0
 20
0.0
  9
$LIMMAX
 10
375.0
 20
270.0
  9
$ORTHOMODE
 70
     1
  9
$REGENMODE
 70
     1
  9
$FILLMODE
 70
     1
  9
$QTEXTMODE
 70
     0
  9
$MIRRTEXT
 70
     0
  9
$DRAGMODE
 70
     2
  9
$LTSCALE
 40
5.0
  9
$OSMODE
 70
    37
  9
$ATTMODE
 70
     1
  9
$TEXTSIZE
 40
4.000000000000048
  9
$TRACEWID
 40
0.05
  9
$TEXTSTYLE
  7
STANDARD
  9
$CLAYER
  8
0
  9
$CELTYPE
  6
BYLAYER
  9
$CECOLOR
 62
   256
  9
$DIMSCALE
 40
1.0
  9
$DIMASZ
 40
3.0
  9
$DIMEXO
 40
2.0
  9
$DIMDLI
 40
0.38
  9
$DIMRND
 40
0.0
  9
$DIMDLE
 40
0.0
  9
$DIMEXE
 40
2.0
  9
$DIMTP
 40
0.0
  9
$DIMTM
 40
0.0
  9
$DIMTXT
 40
3.2000000000000002
  9
$DIMCEN
 40
0.0
  9
$DIMTSZ
 40
0.0
  9
$DIMTOL
 70
     0
  9
$DIMLIM
 70
     0
  9
$DIMTIH
 70
     0
  9
$DIMTOH
 70
     0
  9
$DIMSE1
 70
     0
  9
$DIMSE2
 70
     0
  9
$DIMTAD
 70
     1
  9
$DIMZIN
 70
     8
  9
$DIMBLK
  1

  9
$DIMASO
 70
     0
  9
$DIMSHO
 70
     0
  9
$DIMPOST
  1

  9
$DIMAPOST
  1

  9
$DIMALT
 70
     0
  9
$DIMALTD
 70
     2
  9
$DIMALTF
 40
25.399999999999999
  9
$DIMLFAC
 40
1.0
  9
$DIMTOFL
 70
     0
  9
$DIMTVP
 40
1.6000000000000001
  9
$DIMTIX
 70
     1
  9
$DIMSOXD
 70
     0
  9
$DIMSAH
 70
     0
  9
$DIMBLK1
  1

  9
$DIMBLK2
  1

  9
$DIMSTYLE
  2
STANDARD
  9
$DIMCLRD
 70
     4
  9
$DIMCLRE
 70
     4
  9
$DIMCLRT
 70
     4
  9
$DIMTFAC
 40
1.0
  9
$DIMGAP
 40
0.09
  9
$LUNITS
 70
     2
  9
$LUPREC
 70
     1
  9
$SKETCHINC
 40
0.1
  9
$FILLETRAD
 40
22.0
  9
$AUNITS
 70
     0
  9
$AUPREC
 70
     0
  9
$MENU
  1
E:\r13\win\SUPPORT\ACAD
  9
$ELEVATION
 40
0.0
  9
$PELEVATION
 40
0.0
  9
$THICKNESS
 40
0.0
  9
$LIMCHECK
 70
     0
  9
$BLIPMODE
 70
     0
  9
$CHAMFERA
 40
1.1999999999999991
  9
$CHAMFERB
 40
1.1999999999999991
  9
$SKPOLY
 70
     0
  9
$TDCREATE
 40
2449954.6020138888
  9
$TDUPDATE
 40
2459814.676095834
  9
$TDINDWG
 40
1.2455214468
  9
$TDUSRTIMER
 40
1.2455214468
  9
$USRTIMER
 70
     1
  9
$ANGBASE
 50
0.0
  9
$ANGDIR
 70
     0
  9
$PDMODE
 70
     0
  9
$PDSIZE
 40
0.0
  9
$PLINEWID
 40
0.0
  9
$COORDS
 70
     1
  9
$SPLFRAME
 70
     0
  9
$SPLINETYPE
 70
     6
  9
$SPLINESEGS
 70
     8
  9
$ATTDIA
 70
     0
  9
$ATTREQ
 70
     1
  9
$HANDLING
 70
     1
  9
$HANDSEED
  5
DAC5
  9
$SURFTAB1
 70
     6
  9
$SURFTAB2
 70
     6
  9
$SURFTYPE
 70
     6
  9
$SURFU
 70
     6
  9
$SURFV
 70
     6
  9
$UCSNAME
  2

  9
$UCSORG
 10
0.0
 20
0.0
 30
0.0
  9
$UCSXDIR
 10
1.0
 20
0.0
 30
0.0
  9
$UCSYDIR
 10
0.0
 20
1.0
 30
0.0
  9
$PUCSNAME
  2

  9
$PUCSORG
 10
0.0
 20
0.0
 30
0.0
  9
$PUCSXDIR
 10
1.0
 20
0.0
 30
0.0
  9
$PUCSYDIR
 10
0.0
 20
1.0
 30
0.0
  9
$USERI1
 70
     0
  9
$USERI2
 70
     1
  9
$USERI3
 70
     0
  9
$USERI4
 70
     0
  9
$USERI5
 70
     0
  9
$USERR1
 40
0.0
  9
$USERR2
 40
0.0
  9
$USERR3
 40
0.0
  9
$USERR4
 40
0.0
  9
$USERR5
 40
0.0
  9
$WORLDVIEW
 70
     1
  9
$SHADEDGE
 70
     3
  9
$SHADEDIF
 70
    70
  9
$TILEMODE
 70
     1
  9
$MAXACTVP
 70
    16
  9
$PLIMCHECK
 70
     0
  9
$PEXTMIN
 10
1.0000000000000000E+020
 20
1.0000000000000000E+020
 30
1.0000000000000000E+020
  9
$PEXTMAX
 10
-1.0000000000000000E+020
 20
-1.0000000000000000E+020
 30
-1.0000000000000000E+020
  9
$PLIMMIN
 10
0.0
 20
0.0
  9
$PLIMMAX
 10
12.0
 20
9.0
  9
$UNITMODE
 70
     0
  9
$VISRETAIN
 70
     0
  9
$PLINEGEN
 70
     0
  9
$PSLTSCALE
 70
     0
  0
ENDSEC
  0
SECTION
  2
TABLES
  0
TABLE
  2
VPORT
 70
     1
  0
VPORT
  2
*ACTIVE
 70
     0
 10
0.0
 20
0.0
 11
1.0
 21
1.0
 12
362.26427007260969
 22
150.0
 13
0.0
 23
0.0
 14
10.0
 24
10.0
 15
10.0
 25
10.0
 16
0.0
 26
0.0
 36
1.0
 17
0.0
 27
0.0
 37
0.0
 40
300.14614732877322
 41
2.4148802017654472
 42
50.0
 43
0.0
 44
0.0
 50
0.0
 51
0.0
 71
     0
 72
   500
 73
     1
 74
     0
 75
     0
 76
     0
 77
     0
 78
     2
  0
ENDTAB
  0
TABLE
  2
LTYPE
 70
     5
  0
LTYPE
  2
CONTINUOUS
 70
     0
  3
Solid Line
 72
    65
 73
     0
 40
0.0
  0
LTYPE
  2
CENTER
 70
     0
  3
____ _ ____ _ ____ _ ____ _ ____ _ ____ _ ____
 72
    65
 73
     4
 40
2.0
 49
1.25
 49
-0.25
 49
0.25
 49
-0.25
  0
LTYPE
  2
HIDDEN
 70
     0
  3
_ _ _ _ _ _ _ _ _ _ _ _ _ _ _ _ _ _ _ _ _ _ _
 72
    65
 73
     2
 40
0.375
 49
0.25
 49
-0.125
  0
LTYPE
  2
PHANTOM
 70
     0
  3
_____ _ _ _____ _ _ _____ _ _ _____ _ _ ____
 72
    65
 73
     6
 40
2.5
 49
1.25
 49
-0.25
 49
0.25
 49
-0.25
 49
0.25
 49
-0.25
  0
LTYPE
  2
PHANTOM2
 70
     0
  3
___ _ _ ___ _ _ ___ _ _ ___ _ _
 72
    65
 73
     6
 40
1.25
 49
0.625
 49
-0.125
 49
0.125
 49
-0.125
 49
0.125
 49
-0.125
  0
ENDTAB
  0
TABLE
  2
LAYER
 70
     7
  0
LAYER
  2
0
 70
     0
 62
     7
  6
CONTINUOUS
  0
LAYER
  2
1
 70
     0
 62
     1
  6
CENTER
  0
LAYER
  2
3
 70
     0
 62
     3
  6
CONTINUOUS
  0
LAYER
  2
2
 70
     0
 62
     2
  6
HIDDEN
  0
LAYER
  2
5
 70
     0
 62
     3
  6
PHANTOM
  0
LAYER
  2
DEFPOINTS
 70
     0
 62
     7
  6
CONTINUOUS
  0
LAYER
  2
4
 70
     0
 62
     4
  6
CONTINUOUS
  0
ENDTAB
  0
TABLE
  2
STYLE
 70
     2
  0
STYLE
  2
STANDARD
 70
     0
 40
0.0
 41
1.0
 50
0.0
 71
     0
 42
4.000000000000048
  3
SIMPLEX
  4
BIGFONT
  0
STYLE
  2
STANDARD1
 70
     0
 40
0.0
 41
1.0
 50
0.0
 71
     0
 42
3.0
  3
txt
  4

  0
ENDTAB
  0
TABLE
  2
VIEW
 70
     1
  0
VIEW
  2
ALL
 70
     0
 40
270.0
 10
220.78595317725751
 20
135.0
 41
441.57190635451502
 11
0.0
 21
0.0
 31
1.0
 12
0.0
 22
0.0
 32
0.0
 42
50.0
 43
0.0
 44
0.0
 50
0.0
 71
     0
  0
ENDTAB
  0
TABLE
  2
UCS
 70
     0
  0
ENDTAB
  0
TABLE
  2
APPID
 70
    11
  0
APPID
  2
ACAD
 70
     0
  0
APPID
  2
ACAD_EXEMPT_FROM_CAD_STANDARDS
 70
     0
  0
APPID
  2
ACAD_MLEADERVER
 70
     0
  0
APPID
  2
ACAD_NAV_VCDISPLAY
 70
     0
  0
APPID
  2
ACAD_DSTYLE_DIMJAG
 70
     0
  0
APPID
  2
ACAD_DSTYLE_DIMTALN
 70
     0
  0
APPID
  2
ACAECLAYERSTANDARD
 70
     0
  0
APPID
  2
ACCMTRANSPARENCY
 70
     0
  0
APPID
  2
ACAD_PSEXT
 70
     0
  0
APPID
  2
ACADANNOTATIVE
 70
     0
  0
APPID
  2
ACAD_DSTYLE_DIMRADIAL_EXTENSION
 70
     0
  0
ENDTAB
  0
TABLE
  2
DIMSTYLE
 70
     1
  0
DIMSTYLE
  2
STANDARD
 70
     0
  3

  4

  5

  6

  7

 40
1.0
 41
0.18
 42
0.0625
 43
0.38
 44
0.18
 45
0.0
 46
0.0
 47
0.0
 48
0.0
140
0.18
141
0.09
142
0.0
143
25.399999999999999
144
1.0
145
0.0
146
1.0
147
0.09
 71
     0
 72
     0
 73
     1
 74
     1
 75
     0
 76
     0
 77
     0
 78
     0
170
     0
171
     2
172
     0
173
     0
174
     0
175
     0
176
     0
177
     0
178
     0
  0
ENDTAB
  0
ENDSEC
  0
SECTION
  2
BLOCKS
  0
BLOCK
  8
0
  2
$MODEL_SPACE
 70
     0
 10
0.0
 20
0.0
 30
0.0
  3
$MODEL_SPACE
  1

  0
ENDBLK
  5
1126
  8
0
  0
BLOCK
 67
     1
  8
0
  2
$PAPER_SPACE
 70
     0
 10
0.0
 20
0.0
 30
0.0
  3
$PAPER_SPACE
  1

  0
ENDBLK
  5
1124
 67
     1
  8
0
  0
ENDSEC
  0
SECTION
  2
ENTITIES
  0
TEXT
  5
5088
  8
0
 62
     3
 10
0.0
 20
0.0
 30
0.0
 40
10.0
  1
QCPS0828-6-OG-F
  7
STANDARD1
  0
LINE
  5
6170
  8
0
 10
145.74999909847969
 20
120.2000001259148
 30
0.0
 11
145.9499992243945
 21
120.0
 31
0.0
  0
LINE
  5
6171
  8
0
 10
154.0499994345009
 20
120.0
 30
0.0
 11
154.24999956041569
 21
120.2000001259148
 31
0.0
  0
LINE
  5
6172
  8
0
 10
154.24999956041569
 20
120.2000001259148
 30
0.0
 11
154.24999956041569
 21
123.9999999571591
 31
0.0
  0
LINE
  5
6173
  8
0
 10
145.74999909847969
 20
123.9999999571591
 30
0.0
 11
145.74999909847969
 21
120.2000001259148
 31
0.0
  0
LINE
  5
6206
  8
0
 10
154.0499994345009
 20
120.0
 30
0.0
 11
145.9499992243945
 21
120.0
 31
0.0
  0
LINE
  5
6353
  8
0
 10
64.25
 20
120.200000052154
 30
0.0
 11
64.25
 21
124.00000005215399
 31
0.0
  0
LINE
  5
6354
  8
0
 10
55.75
 20
124.00000005215399
 30
0.0
 11
55.75
 21
120.200000052154
 31
0.0
  0
LINE
  5
6355
  8
0
 10
55.75
 20
120.200000052154
 30
0.0
 11
55.950000000000053
 21
120.00000005215399
 31
0.0
  0
LINE
  5
6356
  8
0
 10
64.050000000000068
 20
120.00000005215399
 30
0.0
 11
64.25
 21
120.200000052154
 31
0.0
  0
LINE
  5
637C
  8
0
 10
64.050000000000068
 20
120.00000005215399
 30
0.0
 11
55.950000000000053
 21
120.00000005215399
 31
0.0
  0
LINE
  5
63C7
  8
0
 10
228.24999976158139
 20
120.200000052154
 30
0.0
 11
228.24999976158139
 21
124.00000005215399
 31
0.0
  0
LINE
  5
63C8
  8
0
 10
219.74999976158139
 20
124.00000005215399
 30
0.0
 11
219.74999976158139
 21
120.200000052154
 31
0.0
  0
LINE
  5
63C9
  8
0
 10
219.74999976158139
 20
120.200000052154
 30
0.0
 11
219.9499997615813
 21
120.00000005215399
 31
0.0
  0
LINE
  5
63CA
  8
0
 10
228.0499997615814
 20
120.00000005215399
 30
0.0
 11
228.24999976158139
 21
120.200000052154
 31
0.0
  0
LINE
  5
63E7
  8
0
 10
228.0499997615814
 20
120.00000005215399
 30
0.0
 11
219.9499997615813
 21
120.00000005215399
 31
0.0
  0
LINE
  5
7879
  8
0
 10
159.9999991059303
 20
123.400000045076
 30
0.0
 11
160.3999993577599
 21
123.000000026077
 31
0.0
  0
LINE
  5
787A
  8
0
 10
161.59999918192619
 20
123.000000026077
 30
0.0
 11
161.99999943375579
 21
123.400000045076
 31
0.0
  0
LINE
  5
787B
  8
0
 10
161.99999943375579
 20
123.400000045076
 30
0.0
 11
161.99999943375579
 21
126.00000005215399
 31
0.0
  0
LINE
  5
787C
  8
0
 10
159.9999991059303
 20
126.00000005215399
 30
0.0
 11
159.9999991059303
 21
123.400000045076
 31
0.0
  0
LINE
  5
787D
  8
0
 10
139.99999955296511
 20
123.400000045076
 30
0.0
 11
139.99999955296511
 21
126.00000005215399
 31
0.0
  0
LINE
  5
787E
  8
0
 10
137.99999922513959
 20
126.00000005215399
 30
0.0
 11
137.99999922513959
 21
123.400000045076
 31
0.0
  0
LINE
  5
787F
  8
0
 10
137.99999922513959
 20
123.400000045076
 30
0.0
 11
138.39999947696921
 21
123.000000026077
 31
0.0
  0
LINE
  5
7880
  8
0
 10
139.59999930113551
 20
123.000000026077
 30
0.0
 11
139.99999955296511
 21
123.400000045076
 31
0.0
  0
ARC
  5
7881
  8
0
 10
158.0000023950704
 20
156.71357583598191
 30
0.0
 40
1.4999966289037709
 50
359.99996856364533
 51
90.000102584236714
  0
ARC
  5
7882
  8
0
 10
141.49999898661849
 20
142.21357399214949
 30
0.0
 40
0.9999996571707571
 50
179.99999186373799
 51
270.00004653655537
  0
ARC
  5
7883
  8
0
 10
158.49999988828031
 20
142.21357347067291
 30
0.0
 40
0.9999991356938172
 50
269.99999444823379
 51
0.0000055517588547
  0
LINE
  5
7884
  8
0
 10
159.49999902397391
 20
142.2135735675692
 30
0.0
 11
159.49999902397391
 21
156.71357501298189
 31
0.0
  0
ARC
  5
7885
  8
0
 10
138.90462032823871
 20
144.38865034988831
 30
0.0
 40
3.6072530754169438
 50
1.696123456777177
 51
61.230499353570963
  0
ARC
  5
7886
  8
0
 10
121.4999988552956
 20
156.7135752788584
 30
0.0
 40
1.49999885529569
 50
89.999981888712924
 51
180.0000101557433
  0
LINE
  5
7887
  8
0
 10
120.0
 20
156.71357501298189
 30
0.0
 11
120.0
 21
148.21357455104589
 31
0.0
  0
ARC
  5
7888
  8
0
 10
120.9999984234373
 20
148.2135728105705
 30
0.0
 40
0.9999984234388334
 50
179.9999002779474
 51
270.00009972205419
  0
ARC
  5
7889
  8
0
 10
134.67343268220071
 20
138.87492826272941
 30
0.0
 40
10.3389956917385
 50
72.831205220335761
 51
89.529064575240383
  0
ARC
  5
788A
  8
0
 10
134.3093145898431
 20
136.2830512075127
 30
0.0
 40
12.92658725657963
 50
60.669324792522403
 51
74.675631364261818
  0
ARC
  5
788B
  8
0
 10
149.99996139319421
 20
153.23866644832529
 30
0.0
 40
8.9999520798809893
 50
129.1955367670088
 51
146.4427132394872
  0
ARC
  5
788C
  8
0
 10
150.00003726569901
 20
153.2386664483233
 30
0.0
 40
8.9999520798839683
 50
33.557286760513939
 51
50.804463232986997
  0
ARC
  5
788D
  8
0
 10
132.562745396254
 20
141.21357413415399
 30
0.0
 40
8.0000000000000142
 50
7.1807557814579566
 51
24.424761684918131
  0
LINE
  5
788E
  8
0
 10
135.99999889731399
 20
126.5000000759028
 30
0.0
 11
136.4999989792704
 21
126.00000005215399
 31
0.0
  0
LINE
  5
788F
  8
0
 10
135.99999889731399
 20
131.50000002235171
 30
0.0
 11
135.99999889731399
 21
126.5000000759028
 31
0.0
  0
LINE
  5
7890
  8
0
 10
136.4999989792704
 20
132.0000001043081
 30
0.0
 11
135.99999889731399
 21
131.50000002235171
 31
0.0
  0
LINE
  5
7891
  8
0
 10
163.99999976158139
 20
126.5000000759028
 30
0.0
 11
163.99999976158139
 21
131.50000002235171
 31
0.0
  0
LINE
  5
7892
  8
0
 10
163.49999967962501
 20
126.00000005215399
 30
0.0
 11
163.99999976158139
 21
126.5000000759028
 31
0.0
  0
LINE
  5
7893
  8
0
 10
163.99999976158139
 20
131.50000002235171
 30
0.0
 11
163.49999967962501
 21
132.0000001043081
 31
0.0
  0
ARC
  5
7894
  8
0
 10
142.3499993294476
 20
125.600000052154
 30
0.0
 40
0.4000000000000057
 50
0.0
 51
90.0
  0
ARC
  5
7895
  8
0
 10
157.64999932944781
 20
125.600000052154
 30
0.0
 40
0.4000000000000057
 50
90.0
 51
180.0
  0
ARC
  5
7896
  8
0
 10
157.3999991766656
 20
132.399999683305
 30
0.0
 40
0.399999631151044
 50
179.99997032483981
 51
270.00002188446018
  0
ARC
  5
7897
  8
0
 10
142.59999948223
 20
132.399999683305
 30
0.0
 40
0.3999996311509484
 50
269.99997811553328
 51
0.000029675158161
  0
LINE
  5
7898
  8
0
 10
142.749999538064
 20
125.6000000622589
 30
0.0
 11
142.749999538064
 21
124.50000003911551
 31
0.0
  0
LINE
  5
7899
  8
0
 10
157.24999912083149
 20
124.50000003911551
 30
0.0
 11
157.24999912083149
 21
125.6000000622589
 31
0.0
  0
LINE
  5
789A
  8
0
 10
142.749999538064
 20
124.50000003911551
 30
0.0
 11
143.2499991543591
 21
123.9999999571591
 31
0.0
  0
LINE
  5
789B
  8
0
 10
156.74999950453639
 20
123.9999999571591
 30
0.0
 11
157.24999912083149
 21
124.50000003911551
 31
0.0
  0
LINE
  5
789C
  8
0
 10
142.99999911338091
 20
141.213574334979
 30
0.0
 11
142.99999911338091
 21
132.39999989047641
 31
0.0
  0
LINE
  5
789D
  8
0
 10
156.99999954551461
 20
132.39999989047641
 30
0.0
 11
156.99999954551461
 21
141.213574334979
 31
0.0
  0
LINE
  5
789E
  8
0
 10
146.87004022300241
 20
129.0000000782311
 30
0.0
 11
146.87004022300241
 21
129.10579599440089
 31
0.0
  0
LINE
  5
789F
  8
0
 10
146.67608088813719
 20
129.10579599440089
 30
0.0
 11
146.87004022300241
 21
129.10579599440089
 31
0.0
  0
LINE
  5
78A0
  8
0
 10
146.67608088813719
 20
129.10579599440089
 30
0.0
 11
146.67608088813719
 21
129.0000000782311
 31
0.0
  0
ARC
  5
78A1
  8
0
 10
146.19999932944779
 20
129.00000005215401
 30
0.0
 40
0.4760816326529222
 50
282.83958840691122
 51
0.0
  0
LINE
  5
78A2
  8
0
 10
146.30579518154261
 20
128.33836430683729
 30
0.0
 11
146.30579518154261
 21
128.53582238778469
 31
0.0
  0
ARC
  5
78A3
  8
0
 10
146.19999932944779
 20
129.00000005215401
 30
0.0
 40
0.6700408163264058
 50
279.08472028739629
 51
0.0
  0
CIRCLE
  5
78A4
  8
0
 10
154.16897892128401
 20
129.00000005215401
 30
0.0
 40
0.8228571428570887
  0
ARC
  5
78A5
  8
0
 10
152.4718360641412
 20
129.15428591080871
 30
0.0
 40
0.6685714285713971
 50
0.0
 51
179.9999999999996
  0
LINE
  5
78A6
  8
0
 10
151.8032646318897
 20
129.15428600274021
 30
0.0
 11
151.8032646318897
 21
128.17714282311499
 31
0.0
  0
LINE
  5
78A7
  8
0
 10
151.8032646318897
 20
128.17714282311499
 30
0.0
 11
152.3175503872335
 21
128.17714282311499
 31
0.0
  0
LINE
  5
78A8
  8
0
 10
152.3175503872335
 20
128.17714282311499
 30
0.0
 11
152.3175503872335
 21
128.5371430031955
 31
0.0
  0
LINE
  5
78A9
  8
0
 10
152.3175503872335
 20
128.5371430031955
 30
0.0
 11
152.62612177059049
 21
128.5371430031955
 31
0.0
  0
LINE
  5
78AA
  8
0
 10
152.62612177059049
 20
128.17714282311499
 30
0.0
 11
152.62612177059049
 21
128.5371430031955
 31
0.0
  0
ARC
  5
78AB
  8
0
 10
150.106121778427
 20
129.15428576643981
 30
0.0
 40
0.6685714285714255
 50
52.020127555146097
 51
180.0
  0
LINE
  5
78AC
  8
0
 10
149.43755034357309
 20
129.15428576990959
 30
0.0
 11
149.43755034357309
 21
128.17714282311499
 31
0.0
  0
LINE
  5
78AD
  8
0
 10
149.43755034357309
 20
128.17714282311499
 30
0.0
 11
149.95183606253701
 21
128.17714282311499
 31
0.0
  0
LINE
  5
78AE
  8
0
 10
150.26040748227379
 20
128.17714282311499
 30
0.0
 11
150.77469317940989
 21
128.17714282311499
 31
0.0
  0
LINE
  5
78AF
  8
0
 10
150.77469317940989
 20
128.17714282311499
 30
0.0
 11
150.77469317940989
 21
129.15428576990959
 31
0.0
  0
ARC
  5
78B0
  8
0
 10
150.92897892128411
 20
129.15428576643981
 30
0.0
 40
0.1542857142857201
 50
359.99999999999511
 51
180.0
  0
LINE
  5
78B1
  8
0
 10
151.0832646209746
 20
129.15428576990959
 30
0.0
 11
151.0832646209746
 21
128.17714282311499
 31
0.0
  0
LINE
  5
78B2
  8
0
 10
151.0832646209746
 20
128.17714282311499
 30
0.0
 11
151.5975503763184
 21
128.17714282311499
 31
0.0
  0
LINE
  5
78B3
  8
0
 10
149.2318360880017
 20
128.17714282311499
 30
0.0
 11
149.2318360880017
 21
129.8228571005165
 31
0.0
  0
LINE
  5
78B4
  8
0
 10
149.2318360880017
 20
129.8228571005165
 30
0.0
 11
148.71755033265799
 21
129.8228571005165
 31
0.0
  0
LINE
  5
78B5
  8
0
 10
148.71755033265799
 20
129.8228571005165
 30
0.0
 11
148.71755033265799
 21
128.17714282311499
 31
0.0
  0
LINE
  5
78B6
  8
0
 10
148.71755033265799
 20
128.17714282311499
 30
0.0
 11
149.2318360880017
 21
128.17714282311499
 31
0.0
  0
LINE
  5
78B7
  8
0
 10
154.49999913573259
 20
130.74999989941711
 30
0.0
 11
145.49999952316281
 21
130.74999989941711
 31
0.0
  0
ARC
  5
78B8
  8
0
 10
154.49999932944749
 20
129.00000005215401
 30
0.0
 40
1.7499999999999709
 50
270.0
 51
90.0
  0
LINE
  5
78B9
  8
0
 10
145.49999952316281
 20
127.2500000242144
 30
0.0
 11
154.49999913573259
 21
127.2500000242144
 31
0.0
  0
ARC
  5
78BA
  8
0
 10
145.49999932944769
 20
129.00000005215401
 30
0.0
 40
1.7499999999999849
 50
90.0
 51
270.0
  0
LINE
  5
78BB
  8
0
 10
147.24032592959699
 20
129.10579599440089
 30
0.0
 11
147.24032592959699
 21
129.35795623809099
 31
0.0
  0
LINE
  5
78BC
  8
0
 10
147.063999325037
 20
129.10579599440089
 30
0.0
 11
147.24032592959699
 21
129.10579599440089
 31
0.0
  0
LINE
  5
78BD
  8
0
 10
147.063999325037
 20
129.10579599440089
 30
0.0
 11
147.063999325037
 21
129.0000000782311
 31
0.0
  0
ARC
  5
78BE
  8
0
 10
146.19999932944779
 20
129.00000005215401
 30
0.0
 40
0.863999999999725
 50
277.03346131538382
 51
0.0
  0
LINE
  5
78BF
  8
0
 10
146.30579518154261
 20
127.9473439836874
 30
0.0
 11
146.30579518154261
 21
128.1425018142908
 31
0.0
  0
ARC
  5
78C0
  8
0
 10
146.19999932944779
 20
129.00000005215401
 30
0.0
 40
1.0579591836732221
 50
275.73917047726809
 51
302.79716829581719
  0
ARC
  5
78C1
  8
0
 10
147.346121778427
 20
129.00000005215409
 30
0.0
 40
1.0579591836733531
 50
237.202831704175
 51
122.7971682958249
  0
ARC
  5
78C2
  8
0
 10
146.19999932944779
 20
129.00000005215401
 30
0.0
 40
1.0579591836732429
 50
57.20283170418282
 51
264.26082952272537
  0
LINE
  5
78C3
  8
0
 10
146.09420334920279
 20
127.9473439836874
 30
0.0
 11
146.09420334920279
 21
128.1425018142908
 31
0.0
  0
LINE
  5
78C4
  8
0
 10
145.3359992057085
 20
129.0000000782311
 30
0.0
 11
145.3359992057085
 21
129.10579599440089
 31
0.0
  0
LINE
  5
78C5
  8
0
 10
145.3359992057085
 20
129.10579599440089
 30
0.0
 11
145.52995830774299
 21
129.10579599440089
 31
0.0
  0
LINE
  5
78C6
  8
0
 10
145.52995830774299
 20
129.10579599440089
 30
0.0
 11
145.52995830774299
 21
129.0000000782311
 31
0.0
  0
ARC
  5
78C7
  8
0
 10
146.19999932944779
 20
129.00000005215401
 30
0.0
 40
0.6700408163264556
 50
180.00000000000199
 51
260.91527971260041
  0
LINE
  5
78C8
  8
0
 10
146.09420334920279
 20
128.33836430683729
 30
0.0
 11
146.09420334920279
 21
128.53582238778469
 31
0.0
  0
ARC
  5
78C9
  8
0
 10
146.19999932944779
 20
129.00000005215401
 30
0.0
 40
0.4760816326529827
 50
179.9999999999996
 51
257.16041159308207
  0
LINE
  5
78CA
  8
0
 10
145.7239178754389
 20
129.0000000782311
 30
0.0
 11
145.7239178754389
 21
129.10579599440089
 31
0.0
  0
LINE
  5
78CB
  8
0
 10
145.7239178754389
 20
129.10579599440089
 30
0.0
 11
145.9178769774735
 21
129.10579599440089
 31
0.0
  0
LINE
  5
78CC
  8
0
 10
145.9178769774735
 20
129.10579599440089
 30
0.0
 11
145.9178769774735
 21
129.0000000782311
 31
0.0
  0
ARC
  5
78CD
  8
0
 10
146.19999932944779
 20
129.00000005215401
 30
0.0
 40
0.2821224489793792
 50
179.9999999999992
 51
359.99999999999761
  0
ARC
  5
78CE
  8
0
 10
147.346121778427
 20
129.00000005215409
 30
0.0
 40
0.8639999999999863
 50
138.44085240813979
 51
180.00000000000239
  0
ARC
  5
78CF
  8
0
 10
147.34612177842709
 20
130.4106122970517
 30
0.0
 40
1.057959183673427
 50
232.33177022328829
 51
264.26082952273509
  0
LINE
  5
78D0
  8
0
 10
149.95183606253701
 20
128.17714282311499
 30
0.0
 11
149.95183606253701
 21
129.15428576990959
 31
0.0
  0
ARC
  5
78D1
  8
0
 10
146.19999932944779
 20
129.00000005215401
 30
0.0
 40
0.8639999999999787
 50
180.00000000000449
 51
262.96653868461289
  0
LINE
  5
78D2
  8
0
 10
153.1404074095189
 20
128.17714282311499
 30
0.0
 11
153.1404074095189
 21
129.15428600274021
 31
0.0
  0
LINE
  5
78D3
  8
0
 10
151.5975503763184
 20
128.17714282311499
 30
0.0
 11
151.5975503763184
 21
129.15428576990959
 31
0.0
  0
ARC
  5
78D4
  8
0
 10
150.92897892128411
 20
129.15428576643981
 30
0.0
 40
0.6685714285714023
 50
0.0000000000008142
 51
127.9798724448538
  0
ARC
  5
78D5
  8
0
 10
150.106121778427
 20
129.15428576643981
 30
0.0
 40
0.1542857142857201
 50
0.0000000000024427
 51
179.9999999999971
  0
LINE
  5
78D6
  8
0
 10
152.62612177059049
 20
128.17714282311499
 30
0.0
 11
153.1404074095189
 21
128.17714282311499
 31
0.0
  0
LINE
  5
78D7
  8
0
 10
150.26040748227379
 20
129.15428576990959
 30
0.0
 11
150.26040748227379
 21
128.17714282311499
 31
0.0
  0
ARC
  5
78D8
  8
0
 10
147.34612177842709
 20
130.4106122970517
 30
0.0
 40
0.8639999999999432
 50
234.71873817272021
 51
262.96653868460299
  0
LINE
  5
78D9
  8
0
 10
147.24032592959699
 20
129.55311395227909
 30
0.0
 11
147.24032592959699
 21
129.85749834217131
 31
0.0
  0
ARC
  5
78DA
  8
0
 10
147.346121778427
 20
129.00000005215409
 30
0.0
 40
0.8640000000000101
 50
97.033461315396977
 51
125.2812618272758
  0
LINE
  5
78DB
  8
0
 10
147.24032592959699
 20
128.6420439183712
 30
0.0
 11
147.24032592959699
 21
128.80765053443611
 31
0.0
  0
LINE
  5
78DC
  8
0
 10
147.19346922822291
 20
128.63627600483591
 30
0.0
 11
147.24032592959699
 21
128.6420439183712
 31
0.0
  0
ARC
  5
78DD
  8
0
 10
146.19999932944779
 20
129.00000005215401
 30
0.0
 40
1.057959183673419
 50
339.8915714515191
 51
349.52468615668118
  0
ARC
  5
78DE
  8
0
 10
147.346121778427
 20
129.00000005215409
 30
0.0
 40
0.8639999999999867
 50
54.718738172732188
 51
82.966538684609588
  0
ARC
  5
78DF
  8
0
 10
147.34612177842709
 20
130.4106122970517
 30
0.0
 40
0.8639999999997499
 50
277.03346131539371
 51
305.28126182727578
  0
LINE
  5
78E0
  8
0
 10
147.45191776193681
 20
129.55311395227909
 30
0.0
 11
147.45191776193681
 21
129.85749834217131
 31
0.0
  0
ARC
  5
78E1
  8
0
 10
147.346121778427
 20
127.5893878072563
 30
0.0
 40
0.8639999999999789
 50
97.033461315380563
 51
108.0201607483787
  0
LINE
  5
78E2
  8
0
 10
147.24032592959699
 20
128.1425018142908
 30
0.0
 11
147.24032592959699
 21
128.4468859713524
 31
0.0
  0
ARC
  5
78E3
  8
0
 10
147.346121778427
 20
129.00000005215409
 30
0.0
 40
0.8639999999999988
 50
241.63809460783901
 51
262.96653868461618
  0
ARC
  5
78E4
  8
0
 10
146.19999932944779
 20
129.00000005215401
 30
0.0
 40
1.0579591836734299
 50
314.0578740122267
 51
326.17031835294563
  0
LINE
  5
78E5
  8
0
 10
152.3175503872335
 20
128.9485715143382
 30
0.0
 11
152.62612177059049
 21
128.9485715143382
 31
0.0
  0
LINE
  5
78E6
  8
0
 10
152.3175503872335
 20
129.15428600274021
 30
0.0
 11
152.3175503872335
 21
128.9485715143382
 31
0.0
  0
ARC
  5
78E7
  8
0
 10
152.4718360641412
 20
129.15428591080871
 30
0.0
 40
0.1542857142857201
 50
0.0000000000012213
 51
180.0
  0
LINE
  5
78E8
  8
0
 10
152.62612177059049
 20
128.9485715143382
 30
0.0
 11
152.62612177059049
 21
129.15428600274021
 31
0.0
  0
ARC
  5
78E9
  8
0
 10
147.346121778427
 20
127.5893878072563
 30
0.0
 40
1.0579591836734521
 50
52.331770223288402
 51
84.260829522728642
  0
LINE
  5
78EA
  8
0
 10
147.45191776193681
 20
128.6420439183712
 30
0.0
 11
147.45191776193681
 21
128.89420416206119
 31
0.0
  0
ARC
  5
78EB
  8
0
 10
147.346121778427
 20
129.00000005215409
 30
0.0
 40
0.8639999999999893
 50
318.4408524081349
 51
352.96653868461499
  0
LINE
  5
78EC
  8
0
 10
147.45191776193681
 20
128.89420416206119
 30
0.0
 11
148.2036199932918
 21
128.89420416206119
 31
0.0
  0
ARC
  5
78ED
  8
0
 10
147.34612177842709
 20
130.4106122970517
 30
0.0
 40
1.0579591836733571
 50
275.73917047727463
 51
307.66822977671148
  0
LINE
  5
78EE
  8
0
 10
147.45191776193681
 20
129.10579599440089
 30
0.0
 11
148.2036199932918
 21
129.10579599440089
 31
0.0
  0
LINE
  5
78EF
  8
0
 10
147.45191776193681
 20
129.10579599440089
 30
0.0
 11
147.45191776193681
 21
129.35795623809099
 31
0.0
  0
ARC
  5
78F0
  8
0
 10
147.346121778427
 20
129.00000005215409
 30
0.0
 40
0.8639999999999876
 50
7.033461315384816
 51
41.559147591860487
  0
ARC
  5
78F1
  8
0
 10
147.346121778427
 20
129.00000005215409
 30
0.0
 40
0.8639999999999897
 50
277.03346131537398
 51
305.28126182727573
  0
LINE
  5
78F2
  8
0
 10
147.45191776193681
 20
128.1425018142908
 30
0.0
 11
147.45191776193681
 21
128.4468859713524
 31
0.0
  0
ARC
  5
78F3
  8
0
 10
147.346121778427
 20
127.5893878072563
 30
0.0
 40
0.8639999999999896
 50
54.718738172720222
 51
82.966538684622705
  0
CIRCLE
  5
78F4
  8
0
 10
154.16897892128401
 20
129.00000005215401
 30
0.0
 40
0.3085714285714118
  0
LINE
  5
78F5
  8
0
 10
161.59999918192619
 20
123.000000026077
 30
0.0
 11
160.3999993577599
 21
123.000000026077
 31
0.0
  0
LINE
  5
78F6
  8
0
 10
159.9999991059303
 20
123.400000045076
 30
0.0
 11
161.99999943375579
 21
123.400000045076
 31
0.0
  0
LINE
  5
78F7
  8
0
 10
137.99999922513959
 20
123.400000045076
 30
0.0
 11
139.99999955296511
 21
123.400000045076
 31
0.0
  0
LINE
  5
78F8
  8
0
 10
139.59999930113551
 20
123.000000026077
 30
0.0
 11
138.39999947696921
 21
123.000000026077
 31
0.0
  0
LINE
  5
78F9
  8
0
 10
142.53712713718409
 20
142.2489507868886
 30
0.0
 11
142.53712713718409
 21
141.21357433497911
 31
0.0
  0
LINE
  5
78FA
  8
0
 10
151.19999938644469
 20
158.2135724648833
 30
0.0
 11
157.9999997094273
 21
158.2135724648833
 31
0.0
  0
LINE
  5
78FB
  8
0
 10
150.9999993769452
 20
141.6622045263648
 30
0.0
 11
150.9999993769452
 21
158.0135728046298
 31
0.0
  0
ARC
  5
78FC
  8
0
 10
151.19999644627919
 20
158.01357539555411
 30
0.0
 40
0.1999970693508259
 50
89.999157692293025
 51
180.00074225601659
  0
ARC
  5
78FD
  8
0
 10
132.4142102702283
 20
148.21358291471239
 30
0.0
 40
0.9999918002507643
 50
89.999828127252755
 51
135.00021731793601
  0
ARC
  5
78FE
  8
0
 10
148.79999936303
 20
158.01357421522869
 30
0.0
 40
0.1999999189252726
 50
359.9995958930067
 51
90.000009620606136
  0
LINE
  5
78FF
  8
0
 10
148.99999928195029
 20
158.0135728046298
 30
0.0
 11
148.99999928195029
 21
141.6622045263648
 31
0.0
  0
LINE
  5
7900
  8
0
 10
121.4999993294477
 20
158.21357413415399
 30
0.0
 11
148.7999992724508
 21
158.2135724648833
 31
0.0
  0
LINE
  5
7901
  8
0
 10
158.49999979138369
 20
141.213574334979
 30
0.0
 11
141.4999997988343
 21
141.213574334979
 31
0.0
  0
ARC
  5
7902
  8
0
 10
149.99999932944769
 20
155.1697921618437
 30
0.0
 40
13.823158653236201
 50
264.95504239414799
 51
275.04495760585201
  0
POLYLINE
  5
7903
  8
0
 66
     1
 10
0.0
 20
0.0
 30
0.0
 70
   128
  0
VERTEX
  5
DA65
  8
0
 10
148.99999928195029
 20
141.6622045263648
 30
0.0
  0
VERTEX
  5
DA66
  8
0
 10
148.98650558199731
 20
141.56220469623801
 30
0.0
  0
VERTEX
  5
DA67
  8
0
 10
148.9507987909019
 20
141.48513030260801
 30
0.0
  0
VERTEX
  5
DA68
  8
0
 10
148.90300948638469
 20
141.43470570445061
 30
0.0
  0
VERTEX
  5
DA69
  8
0
 10
148.84001971688119
 20
141.40440139919519
 30
0.0
  0
VERTEX
  5
DA6A
  8
0
 10
148.7844268605113
 20
141.40018437057731
 30
0.0
  0
SEQEND
  5
DA6B
  8
0
  0
ARC
  5
7904
  8
0
 10
151.2285974464553
 20
141.63059025586529
 30
0.0
 40
0.2307737842195211
 50
172.1261494546691
 51
266.7643139951029
  0
LINE
  5
7905
  8
0
 10
134.75841179490089
 20
149.21357471495861
 30
0.0
 11
132.4142132699489
 21
149.21357471495861
 31
0.0
  0
LINE
  5
7906
  8
0
 10
131.7071066051721
 20
148.9206812158227
 30
0.0
 11
130.2928932756185
 21
147.50646788626909
 31
0.0
  0
ARC
  5
7907
  8
0
 10
129.585786529069
 20
148.2135736267546
 30
0.0
 40
0.9999992396214912
 50
270.00000468523848
 51
315.00004075994769
  0
LINE
  5
7908
  8
0
 10
129.58578661084169
 20
147.21357438713309
 30
0.0
 11
121.0000001639127
 21
147.21357438713321
 31
0.0
  0
LINE
  5
7909
  8
0
 10
148.99999928195029
 20
157.71357517689469
 30
0.0
 11
150.9999993769452
 21
157.71357517689469
 31
0.0
  0
LINE
  5
790A
  8
0
 10
144.31227127090091
 20
160.2135727927089
 30
0.0
 11
155.6877273879945
 21
160.2135727927089
 31
0.0
  0
POLYLINE
  5
790B
  8
0
 66
     1
 10
0.0
 20
0.0
 30
0.0
 70
   128
  0
VERTEX
  5
DA6C
  8
0
 10
148.99999928195029
 20
157.9556259140372
 30
0.0
  0
VERTEX
  5
DA6D
  8
0
 10
149.03587662149221
 20
158.33436127752071
 30
0.0
  0
VERTEX
  5
DA6E
  8
0
 10
149.16113258106631
 20
158.70404791086909
 30
0.0
  0
VERTEX
  5
DA6F
  8
0
 10
149.34967522742221
 20
158.97320013493299
 30
0.0
  0
VERTEX
  5
DA70
  8
0
 10
149.63982813525939
 20
159.1808925196529
 30
0.0
  0
VERTEX
  5
DA71
  8
0
 10
149.86142080044371
 20
159.24820479005581
 30
0.0
  0
VERTEX
  5
DA72
  8
0
 10
150.10094456840301
 20
159.2534909769893
 30
0.0
  0
VERTEX
  5
DA73
  8
0
 10
150.31085027032529
 20
159.20155670493841
 30
0.0
  0
VERTEX
  5
DA74
  8
0
 10
150.5459430674091
 20
159.0678299590945
 30
0.0
  0
VERTEX
  5
DA75
  8
0
 10
150.78351030126211
 20
158.8018442317844
 30
0.0
  0
VERTEX
  5
DA76
  8
0
 10
150.8994145598262
 20
158.56492321938279
 30
0.0
  0
VERTEX
  5
DA77
  8
0
 10
150.9696126496419
 20
158.3056877180934
 30
0.0
  0
VERTEX
  5
DA78
  8
0
 10
150.9999993769452
 20
157.9556259140372
 30
0.0
  0
SEQEND
  5
DA79
  8
0
  0
ARC
  5
790C
  8
0
 10
133.09504312443681
 20
142.01176771032581
 30
0.0
 40
7.2031295213730724
 50
20.391348476788352
 51
88.902045729158516
  0
LINE
  5
790D
  8
0
 10
163.49999967962501
 20
126.00000005215399
 30
0.0
 11
136.4999989792704
 21
126.00000005215399
 31
0.0
  0
LINE
  5
790E
  8
0
 10
136.4999989792704
 20
132.0000001043081
 30
0.0
 11
163.49999967962501
 21
132.0000001043081
 31
0.0
  0
LINE
  5
790F
  8
0
 10
148.74584379605949
 20
129.8228571005165
 30
0.0
 11
148.71755033265799
 21
129.77802625857291
 31
0.0
  0
LINE
  5
7910
  8
0
 10
148.71755033265799
 20
128.2219738978892
 30
0.0
 11
148.74584379605949
 21
128.17714282311499
 31
0.0
  0
LINE
  5
7911
  8
0
 10
142.749999538064
 20
124.50000003911551
 30
0.0
 11
157.24999912083149
 21
124.50000003911551
 31
0.0
  0
LINE
  5
7912
  8
0
 10
156.74999950453639
 20
123.9999999571591
 30
0.0
 11
143.2499991543591
 21
123.9999999571591
 31
0.0
  0
ARC
  5
7913
  8
0
 10
149.99999932944769
 20
135.00000035943361
 30
0.0
 40
1.0000000474977211
 50
180.00003980393319
 51
359.99996019606789
  0
LINE
  5
7914
  8
0
 10
150.9999993769452
 20
141.213574334979
 30
0.0
 11
150.9999993769452
 21
134.99999966472379
 31
0.0
  0
LINE
  5
7915
  8
0
 10
148.99999928195029
 20
134.99999966472379
 30
0.0
 11
148.99999928195029
 21
141.213574334979
 31
0.0
  0
ARC
  5
7916
  8
0
 10
134.70817851569859
 20
136.75235076566619
 30
0.0
 40
12.461325198258789
 50
75.860349624698159
 51
89.769032375073465
  0
POLYLINE
  5
7917
  8
0
 66
     1
 10
0.0
 20
0.0
 30
0.0
 70
   128
  0
VERTEX
  5
DA7A
  8
0
 10
148.77473563421509
 20
142.5863335654139
 30
0.0
  0
VERTEX
  5
DA7B
  8
0
 10
147.92307990603149
 20
143.14311731606719
 30
0.0
  0
VERTEX
  5
DA7C
  8
0
 10
147.093326440081
 20
143.73656909912819
 30
0.0
  0
VERTEX
  5
DA7D
  8
0
 10
144.8203831724822
 20
145.36357659846539
 30
0.0
  0
VERTEX
  5
DA7E
  8
0
 10
143.65454006940121
 20
146.13852079957721
 30
0.0
  0
VERTEX
  5
DA7F
  8
0
 10
142.45879080146551
 20
146.86524856835601
 30
0.0
  0
VERTEX
  5
DA80
  8
0
 10
141.34361863136289
 20
147.46867667883629
 30
0.0
  0
VERTEX
  5
DA81
  8
0
 10
140.1953137293458
 20
148.00603117793801
 30
0.0
  0
VERTEX
  5
DA82
  8
0
 10
138.99061445146799
 20
148.47056556493041
 30
0.0
  0
VERTEX
  5
DA83
  8
0
 10
137.75230746716261
 20
148.8361376151442
 30
0.0
  0
SEQEND
  5
DA84
  8
0
  0
ARC
  5
7918
  8
0
 10
148.83475885839809
 20
142.94880403998999
 30
0.0
 40
0.3674066308338767
 50
260.59744201191728
 51
296.72752160815168
  0
ARC
  5
7919
  8
0
 10
138.23084754134351
 20
143.31341416086411
 30
0.0
 40
4.435890692080676
 50
346.11546063869298
 51
15.44698255780779
  0
LINE
  5
791A
  8
0
 10
133.74086551368231
 20
149.19438201934099
 30
0.0
 11
133.75472173094749
 21
149.21357471495861
 31
0.0
  0
LINE
  5
7E76
  8
0
 10
222.99999976158139
 20
123.400000052154
 30
0.0
 11
223.3999997615814
 21
123.00000005215399
 31
0.0
  0
LINE
  5
7E77
  8
0
 10
224.5999997615815
 20
123.00000005215399
 30
0.0
 11
224.99999976158139
 21
123.400000052154
 31
0.0
  0
LINE
  5
7E78
  8
0
 10
224.99999976158139
 20
123.400000052154
 30
0.0
 11
224.99999976158139
 21
126.00000005215399
 31
0.0
  0
LINE
  5
7E79
  8
0
 10
222.99999976158139
 20
126.00000005215399
 30
0.0
 11
222.99999976158139
 21
123.400000052154
 31
0.0
  0
ARC
  5
7E84
  8
0
 10
216.3499997615815
 20
125.600000052154
 30
0.0
 40
0.4000000000000057
 50
0.0
 51
90.0
  0
ARC
  5
7E85
  8
0
 10
231.6499997615814
 20
125.600000052154
 30
0.0
 40
0.3999999999999915
 50
90.0
 51
180.0
  0
ARC
  5
7E86
  8
0
 10
231.3999997615814
 20
132.40000005215401
 30
0.0
 40
0.4000000000000057
 50
179.9999999999996
 51
270.0
  0
ARC
  5
7E87
  8
0
 10
216.5999997615815
 20
132.40000005215401
 30
0.0
 40
0.4000000000000057
 50
270.0
 51
0.0
  0
LINE
  5
7E88
  8
0
 10
216.74999976158139
 20
124.50000005215399
 30
0.0
 11
217.24999976158139
 21
124.00000005215399
 31
0.0
  0
LINE
  5
7E89
  8
0
 10
230.74999976158139
 20
124.00000005215399
 30
0.0
 11
231.24999976158139
 21
124.50000005215399
 31
0.0
  0
LINE
  5
7E8A
  8
0
 10
216.74999976158139
 20
125.600000052154
 30
0.0
 11
216.74999976158139
 21
124.50000005215399
 31
0.0
  0
LINE
  5
7E8B
  8
0
 10
231.24999976158139
 20
124.50000005215399
 30
0.0
 11
231.24999976158139
 21
125.600000052154
 31
0.0
  0
LINE
  5
7E8C
  8
0
 10
216.99999976158139
 20
133.99997769748609
 30
0.0
 11
216.99999976158139
 21
132.40000005215401
 31
0.0
  0
LINE
  5
7E8D
  8
0
 10
230.99999976158139
 20
132.40000005215401
 30
0.0
 11
230.99999976158139
 21
141.2135741341541
 31
0.0
  0
LINE
  5
7E8E
  8
0
 10
224.5999997615815
 20
123.00000005215399
 30
0.0
 11
223.3999997615814
 21
123.00000005215399
 31
0.0
  0
LINE
  5
7E8F
  8
0
 10
222.99999976158139
 20
123.400000052154
 30
0.0
 11
224.99999976158139
 21
123.400000052154
 31
0.0
  0
LINE
  5
7E95
  8
0
 10
233.99999976158139
 20
126.50000005215399
 30
0.0
 11
233.49999976158139
 21
126.00000005215399
 31
0.0
  0
LINE
  5
7E96
  8
0
 10
233.49999976158139
 20
126.00000005215399
 30
0.0
 11
214.49999976158139
 21
126.00000005215399
 31
0.0
  0
LINE
  5
7E97
  8
0
 10
213.99999976158139
 20
126.50000005215399
 30
0.0
 11
214.49999976158139
 21
126.00000005215399
 31
0.0
  0
LINE
  5
7E98
  8
0
 10
233.99999976158139
 20
126.50000005215399
 30
0.0
 11
233.99999976158139
 21
131.50000005215401
 31
0.0
  0
LINE
  5
7E99
  8
0
 10
213.99999976158139
 20
131.50000005215401
 30
0.0
 11
213.99999976158139
 21
126.50000005215399
 31
0.0
  0
LINE
  5
7E9A
  8
0
 10
214.49999976158139
 20
132.00000005215401
 30
0.0
 11
213.99999976158139
 21
131.50000005215401
 31
0.0
  0
LINE
  5
7E9B
  8
0
 10
214.49999976158139
 20
132.00000005215401
 30
0.0
 11
233.49999976158139
 21
132.00000005215401
 31
0.0
  0
LINE
  5
7E9C
  8
0
 10
233.99999976158139
 20
131.50000005215401
 30
0.0
 11
233.49999976158139
 21
132.00000005215401
 31
0.0
  0
LINE
  5
7E9D
  8
0
 10
216.74999976158139
 20
124.50000005215399
 30
0.0
 11
222.99999976158139
 21
124.50000005215399
 31
0.0
  0
LINE
  5
7E9E
  8
0
 10
224.99999976158139
 20
124.50000005215399
 30
0.0
 11
231.24999976158139
 21
124.50000005215399
 31
0.0
  0
LINE
  5
7E9F
  8
0
 10
230.74999976158139
 20
124.00000005215399
 30
0.0
 11
224.99999976158139
 21
124.00000005215399
 31
0.0
  0
LINE
  5
7EA0
  8
0
 10
222.99999976158139
 20
124.00000005215399
 30
0.0
 11
217.24999976158139
 21
124.00000005215399
 31
0.0
  0
POLYLINE
  5
7EA1
  8
0
 66
     1
 10
0.0
 20
0.0
 30
0.0
 70
   128
  0
VERTEX
  5
DA85
  8
0
 10
217.07179653130589
 20
135.00000005215401
 30
0.0
  0
VERTEX
  5
DA86
  8
0
 10
217.069842869806
 20
134.8354566091935
 30
0.0
  0
VERTEX
  5
DA87
  8
0
 10
217.06398518702321
 20
134.67091316623299
 30
0.0
  0
VERTEX
  5
DA88
  8
0
 10
217.05520418703449
 20
134.52022346639279
 30
0.0
  0
VERTEX
  5
DA89
  8
0
 10
217.0440169604843
 20
134.37895518327801
 30
0.0
  0
VERTEX
  5
DA8A
  8
0
 10
217.03217893275371
 20
134.25802491601701
 30
0.0
  0
VERTEX
  5
DA8B
  8
0
 10
217.02044386394439
 20
134.15489619567299
 30
0.0
  0
VERTEX
  5
DA8C
  8
0
 10
217.01070135166549
 20
134.07788711826171
 30
0.0
  0
VERTEX
  5
DA8D
  8
0
 10
217.00357127984159
 20
134.0253147182645
 30
0.0
  0
VERTEX
  5
DA8E
  8
0
 10
216.99999976158139
 20
133.99997769748609
 30
0.0
  0
SEQEND
  5
DA8F
  8
0
  0
LINE
  5
7EA2
  8
0
 10
217.07179653130589
 20
141.2135741341541
 30
0.0
 11
217.07179653130589
 21
135.00000005215401
 31
0.0
  0
ARC
  5
7F63
  8
0
 10
232.49999976158139
 20
142.21357413415399
 30
0.0
 40
1.0
 50
270.0
 51
0.0
  0
LINE
  5
7F64
  8
0
 10
233.49999976158139
 20
142.21357413415399
 30
0.0
 11
233.49999976158139
 21
156.71357413415399
 31
0.0
  0
ARC
  5
7F65
  8
0
 10
231.99999976158139
 20
156.71357413415399
 30
0.0
 40
1.5
 50
0.0
 51
90.0
  0
ARC
  5
7F66
  8
0
 10
223.3686890367469
 20
153.99841242842001
 30
0.0
 40
8.0122151733026765
 50
129.1304808755261
 51
131.5019792319527
  0
ARC
  5
7F67
  8
0
 10
223.99999976158139
 20
153.23863694862101
 30
0.0
 40
8.9999999999999964
 50
33.557309761921928
 51
50.804399803227078
  0
ARC
  5
7F68
  8
0
 10
229.58987091991881
 20
149.03449988421019
 30
0.0
 40
15.911497927836299
 50
136.46899579729521
 51
143.36710929122589
  0
ARC
  5
7F69
  8
0
 10
218.17377764519389
 20
159.88145375783679
 30
0.0
 40
0.1640079773720542
 50
134.2047091424003
 51
136.90950365334041
  0
ARC
  5
7F6A
  8
0
 10
223.15536553107509
 20
153.82084134108021
 30
0.0
 40
7.8920266646002171
 50
143.37831000122409
 51
146.178070342458
  0
LINE
  5
7F6B
  8
0
 10
232.49999976158139
 20
141.2135741341541
 30
0.0
 11
215.49999976158139
 21
141.2135741341541
 31
0.0
  0
LINE
  5
7F6C
  8
0
 10
215.99999976158139
 20
158.21357413415399
 30
0.0
 11
231.99999976158139
 21
158.21357413415399
 31
0.0
  0
LINE
  5
7F6D
  8
0
 10
218.31227163359679
 20
160.21357413415399
 30
0.0
 11
229.6877278895661
 21
160.21357413415399
 31
0.0
  0
ARC
  5
7F6E
  8
0
 10
215.49999976158131
 20
142.21357413415399
 30
0.0
 40
1.0000000000000151
 50
240.00428281752821
 51
270.0
  0
LINE
  5
7F6F
  8
0
 10
214.57774407221771
 20
142.2244416143424
 30
0.0
 11
214.57774407221771
 21
142.21357413415399
 31
0.0
  0
LINE
  5
7F70
  8
0
 10
214.99999976158131
 20
141.3475807528759
 30
0.0
 11
214.99999976158131
 21
141.40018416465591
 31
0.0
  0
ARC
  5
7F71
  8
0
 10
215.5778011412132
 20
142.21438261943399
 30
0.0
 40
0.9983854756893208
 50
180.04639770963121
 51
234.6383280427641
  0
LINE
  5
7F72
  8
0
 10
214.57774407221771
 20
142.21357413415399
 30
0.0
 11
214.57941599287651
 21
142.21357413415399
 31
0.0
  0
LINE
  5
7F73
  8
0
 10
214.57774407221771
 20
142.224441614342
 30
0.0
 11
214.52296405052951
 21
142.58633348754961
 31
0.0
  0
ARC
  5
7F74
  8
0
 10
215.99999976158131
 20
156.71357413415399
 30
0.0
 40
1.5000000000000111
 50
90.0
 51
180.0
  0
LINE
  5
7F75
  8
0
 10
214.52296405052951
 20
142.58633348754961
 30
0.0
 11
214.49999976158131
 21
142.83375736581391
 31
0.0
  0
LINE
  5
7F76
  8
0
 10
214.49999976158131
 20
142.83375736581391
 30
0.0
 11
214.49999976158131
 21
156.71357413415399
 31
0.0
  0
LINE
  5
8F9F
  8
0
 10
59.0
 20
123.400000052154
 30
0.0
 11
59.39999999999997
 21
123.00000005215399
 31
0.0
  0
LINE
  5
8FA0
  8
0
 10
60.600000000000023
 20
123.00000005215399
 30
0.0
 11
61.0
 21
123.400000052154
 31
0.0
  0
LINE
  5
8FA1
  8
0
 10
61.0
 20
123.400000052154
 30
0.0
 11
61.0
 21
126.00000005215399
 31
0.0
  0
LINE
  5
8FA2
  8
0
 10
59.0
 20
126.00000005215399
 30
0.0
 11
59.0
 21
123.400000052154
 31
0.0
  0
ARC
  5
8FA3
  8
0
 10
63.697017846362428
 20
148.2135741341541
 30
0.0
 40
1.0
 50
179.9999999999996
 51
270.0
  0
LINE
  5
8FA4
  8
0
 10
62.697017846362428
 20
156.71357413415399
 30
0.0
 11
62.697017846362428
 21
148.2135741341541
 31
0.0
  0
ARC
  5
8FA5
  8
0
 10
64.197017846362414
 20
156.71357413415399
 30
0.0
 40
1.5
 50
90.0
 51
180.0
  0
ARC
  5
8FA6
  8
0
 10
68.302128091717009
 20
148.2135741341541
 30
0.0
 40
1.0000000000000291
 50
270.0
 51
357.30571706267727
  0
POLYLINE
  5
8FA7
  8
0
 66
     1
 10
0.0
 20
0.0
 30
0.0
 70
   128
  0
VERTEX
  5
DA90
  8
0
 10
69.301022662061882
 20
148.16656735447589
 30
0.0
  0
VERTEX
  5
DA91
  8
0
 10
69.317399082192992
 20
148.5220497711222
 30
0.0
  0
VERTEX
  5
DA92
  8
0
 10
69.362311184627856
 20
149.58868155127581
 30
0.0
  0
SEQEND
  5
DA93
  8
0
  0
POLYLINE
  5
8FA8
  8
0
 66
     1
 10
0.0
 20
0.0
 30
0.0
 70
   128
  0
VERTEX
  5
DA94
  8
0
 10
69.366927944329845
 20
149.69796111390059
 30
0.0
  0
VERTEX
  5
DA95
  8
0
 10
69.376104222105255
 20
149.8710879372415
 30
0.0
  0
VERTEX
  5
DA96
  8
0
 10
69.38330668981348
 20
149.97197131232741
 30
0.0
  0
VERTEX
  5
DA97
  8
0
 10
69.387430056768835
 20
150.0151055740703
 30
0.0
  0
SEQEND
  5
DA98
  8
0
  0
LINE
  5
8FA9
  8
0
 10
69.362311184627856
 20
149.58868155127581
 30
0.0
 11
69.366927944329845
 21
149.69796111390059
 31
0.0
  0
ARC
  5
8FAA
  8
0
 10
51.5
 20
142.21357413415399
 30
0.0
 40
1.0
 50
179.9999999999996
 51
270.0
  0
ARC
  5
8FAB
  8
0
 10
68.5
 20
142.21357413415419
 30
0.0
 40
1.0000000000001421
 50
270.0
 51
299.99999999999619
  0
LINE
  5
8FAC
  8
0
 10
50.5
 20
156.71357413415399
 30
0.0
 11
50.5
 21
142.21357413415399
 31
0.0
  0
ARC
  5
8FAD
  8
0
 10
52.0
 20
156.71357413415399
 30
0.0
 40
1.5
 50
90.0
 51
179.9999999999996
  0
ARC
  5
8FAE
  8
0
 10
60.0
 20
153.23863694862101
 30
0.0
 40
8.9999999999999893
 50
129.19560019677289
 51
146.44269023807789
  0
ARC
  5
8FAF
  8
0
 10
60.0
 20
153.23863694862101
 30
0.0
 40
9.0000000000000053
 50
48.692510550460632
 51
50.804399803227078
  0
ARC
  5
8FB0
  8
0
 10
55.246484200452301
 20
149.73653028026141
 30
0.0
 40
14.822066843401309
 50
36.504635314643657
 51
43.81989980127053
  0
ARC
  5
8FB1
  8
0
 10
60.0
 20
153.23863694862101
 30
0.0
 40
8.9177978870813401
 50
33.909220562618991
 51
36.586775553629657
  0
ARC
  5
8FB4
  8
0
 10
52.350000000000023
 20
125.600000052154
 30
0.0
 40
0.4000000000000057
 50
0.0
 51
90.0
  0
ARC
  5
8FB5
  8
0
 10
67.650000000000091
 20
125.600000052154
 30
0.0
 40
0.4000000000000341
 50
90.0
 51
180.0
  0
ARC
  5
8FB6
  8
0
 10
67.400000000000091
 20
132.40000005215401
 30
0.0
 40
0.4000000000000341
 50
179.9999999999996
 51
270.0
  0
ARC
  5
8FB7
  8
0
 10
52.600000000000023
 20
132.40000005215401
 30
0.0
 40
0.4000000000000057
 50
270.0
 51
0.0
  0
LINE
  5
8FB8
  8
0
 10
52.75
 20
125.600000052154
 30
0.0
 11
52.75
 21
124.50000005215399
 31
0.0
  0
LINE
  5
8FB9
  8
0
 10
67.25
 20
124.50000005215399
 30
0.0
 11
67.25
 21
125.600000052154
 31
0.0
  0
LINE
  5
8FBA
  8
0
 10
52.75
 20
124.50000005215399
 30
0.0
 11
53.25
 21
124.00000005215399
 31
0.0
  0
LINE
  5
8FBB
  8
0
 10
66.75
 20
124.00000005215399
 30
0.0
 11
67.25
 21
124.50000005215399
 31
0.0
  0
LINE
  5
8FBC
  8
0
 10
53.0
 20
141.2135741341541
 30
0.0
 11
53.0
 21
132.40000005215401
 31
0.0
  0
LINE
  5
8FBD
  8
0
 10
67.0
 20
132.40000005215401
 30
0.0
 11
67.0
 21
134.00001650254481
 31
0.0
  0
LINE
  5
8FBE
  8
0
 10
60.600000000000023
 20
123.00000005215399
 30
0.0
 11
59.39999999999997
 21
123.00000005215399
 31
0.0
  0
LINE
  5
8FBF
  8
0
 10
59.0
 20
123.400000052154
 30
0.0
 11
61.0
 21
123.400000052154
 31
0.0
  0
ARC
  5
8FC0
  8
0
 10
68.0
 20
156.71357413415399
 30
0.0
 40
1.5
 50
0.0
 51
90.0
  0
LINE
  5
8FC1
  8
0
 10
52.0
 20
158.21357413415399
 30
0.0
 11
68.0
 21
158.21357413415399
 31
0.0
  0
LINE
  5
8FC2
  8
0
 10
68.302128091717009
 20
147.21357413415399
 30
0.0
 11
63.697017846362428
 21
147.21357413415399
 31
0.0
  0
LINE
  5
8FC3
  8
0
 10
69.5
 20
142.83375736581391
 30
0.0
 11
69.5
 21
156.71357413415399
 31
0.0
  0
LINE
  5
8FC4
  8
0
 10
69.420583768704773
 20
142.21357413415399
 30
0.0
 11
69.477035711051926
 21
142.58633348754961
 31
0.0
  0
LINE
  5
8FC5
  8
0
 10
69.477035711051926
 20
142.58633348754961
 30
0.0
 11
69.5
 21
142.83375736581391
 31
0.0
  0
LINE
  5
8FC6
  8
0
 10
68.5
 20
141.2135741341541
 30
0.0
 11
51.5
 21
141.2135741341541
 31
0.0
  0
ARC
  5
8FC7
  8
0
 10
68.421761805558731
 20
142.2146084855323
 30
0.0
 40
0.998822498718238
 50
305.37460809238252
 51
359.94066615522189
  0
LINE
  5
8FC8
  8
0
 10
69.0
 20
141.40018416465591
 30
0.0
 11
69.0
 21
141.3475487303696
 31
0.0
  0
LINE
  5
8FC9
  8
0
 10
54.312271872015337
 20
160.21357413415399
 30
0.0
 11
65.687728127984656
 21
160.21357413415399
 31
0.0
  0
LINE
  5
8FCA
  8
0
 10
70.0
 20
126.50000005215399
 30
0.0
 11
70.0
 21
131.50000005215401
 31
0.0
  0
LINE
  5
8FCB
  8
0
 10
50.0
 20
131.50000005215401
 30
0.0
 11
50.0
 21
126.50000005215399
 31
0.0
  0
LINE
  5
8FCC
  8
0
 10
69.5
 20
126.00000005215399
 30
0.0
 11
50.5
 21
126.00000005215399
 31
0.0
  0
LINE
  5
8FCD
  8
0
 10
50.5
 20
126.00000005215399
 30
0.0
 11
50.0
 21
126.50000005215399
 31
0.0
  0
LINE
  5
8FCE
  8
0
 10
69.5
 20
126.00000005215399
 30
0.0
 11
70.0
 21
126.50000005215399
 31
0.0
  0
LINE
  5
8FCF
  8
0
 10
50.0
 20
131.50000005215401
 30
0.0
 11
50.5
 21
132.00000005215401
 31
0.0
  0
LINE
  5
8FD0
  8
0
 10
50.5
 20
132.00000005215401
 30
0.0
 11
69.5
 21
132.00000005215401
 31
0.0
  0
LINE
  5
8FD1
  8
0
 10
69.5
 20
132.00000005215401
 30
0.0
 11
70.0
 21
131.50000005215401
 31
0.0
  0
LINE
  5
8FD2
  8
0
 10
61.0
 20
124.50000005215399
 30
0.0
 11
67.25
 21
124.50000005215399
 31
0.0
  0
LINE
  5
8FD3
  8
0
 10
52.75
 20
124.50000005215399
 30
0.0
 11
59.0
 21
124.50000005215399
 31
0.0
  0
LINE
  5
8FD4
  8
0
 10
59.0
 20
124.00000005215399
 30
0.0
 11
53.25
 21
124.00000005215399
 31
0.0
  0
LINE
  5
8FD5
  8
0
 10
66.75
 20
124.00000005215399
 30
0.0
 11
61.0
 21
124.00000005215399
 31
0.0
  0
ARC
  5
8FD6
  8
0
 10
74.010702010341674
 20
135.00593974603419
 30
0.0
 40
7.0825012707095389
 50
180.0480507405251
 51
188.16529461169651
  0
LINE
  5
8FD7
  8
0
 10
66.928203230275585
 20
135.00000005215401
 30
0.0
 11
66.928203230275585
 21
141.2135741341541
 31
0.0
  0
POLYLINE
  5
8FD8
  8
0
 66
     1
 10
0.0
 20
0.0
 30
0.0
 70
   128
  0
VERTEX
  5
DA99
  8
0
 10
69.470481961847327
 20
150.2135741341541
 30
0.0
  0
VERTEX
  5
DA9A
  8
0
 10
69.492619734056575
 20
150.10627085496029
 30
0.0
  0
VERTEX
  5
DA9B
  8
0
 10
69.5
 20
149.7889574507206
 30
0.0
  0
SEQEND
  5
DA9C
  8
0
  0
LINE
  5
8FD9
  8
0
 10
69.412338102340982
 20
150.2135741341541
 30
0.0
 11
69.470481961847327
 21
150.2135741341541
 31
0.0
  0
POLYLINE
  5
8FDA
  8
0
 66
     1
 10
0.0
 20
0.0
 30
0.0
 70
   128
  0
VERTEX
  5
DA9D
  8
0
 10
69.412338102340982
 20
150.2135741341541
 30
0.0
  0
VERTEX
  5
DA9E
  8
0
 10
69.387430056768835
 20
150.0151055740703
 30
0.0
  0
VERTEX
  5
DA9F
  8
0
 10
69.387430056768835
 20
150.0151055740703
 30
0.0
  0
SEQEND
  5
DAA0
  8
0
  0
POLYLINE
  5
8FDB
  8
0
 66
     1
 10
0.0
 20
0.0
 30
0.0
 70
   128
  0
VERTEX
  5
DAA1
  8
0
 10
62.827087680022032
 20
147.74262437418881
 30
0.0
  0
VERTEX
  5
DAA2
  8
0
 10
62.549386815119192
 20
147.43445382558841
 30
0.0
  0
VERTEX
  5
DAA3
  8
0
 10
62.13966698016872
 20
146.97380945752479
 30
0.0
  0
VERTEX
  5
DAA4
  8
0
 10
61.700663388778374
 20
146.4744024072991
 30
0.0
  0
VERTEX
  5
DAA5
  8
0
 10
61.244053913929058
 20
145.95013249267419
 30
0.0
  0
VERTEX
  5
DAA6
  8
0
 10
60.359799711828821
 20
144.9285619419276
 30
0.0
  0
VERTEX
  5
DAA7
  8
0
 10
59.437164958070412
 20
143.87358130847619
 30
0.0
  0
VERTEX
  5
DAA8
  8
0
 10
58.40394037904229
 20
142.77578427271351
 30
0.0
  0
VERTEX
  5
DAA9
  8
0
 10
58.043333763996543
 20
142.45900022415441
 30
0.0
  0
VERTEX
  5
DAAA
  8
0
 10
57.64039006719895
 20
142.21357413415399
 30
0.0
  0
SEQEND
  5
DAAB
  8
0
  0
CIRCLE
  5
9220
  8
3
 10
138.99999932944769
 20
59.999999999999957
 30
0.0
 40
0.8000000596047129
  0
CIRCLE
  5
9221
  8
0
 10
138.99999932944769
 20
59.999999999999957
 30
0.0
 40
1.0
  0
CIRCLE
  5
9222
  8
3
 10
160.99999932944769
 20
59.999999999999957
 30
0.0
 40
0.7999999403954236
  0
CIRCLE
  5
9223
  8
0
 10
160.99999932944769
 20
59.999999999999957
 30
0.0
 40
1.0
  0
ARC
  5
9224
  8
0
 10
133.3130262824474
 20
55.829947967725502
 30
0.0
 40
7.2974962679196578
 50
66.451051963459037
 51
86.84501104380972
  0
LINE
  5
9225
  8
0
 10
137.99999932944769
 20
69.499999999999986
 30
0.0
 11
139.71651742884609
 21
69.499999999999986
 31
0.0
  0
ARC
  5
9226
  8
0
 10
125.07080189615409
 20
68.697017846362399
 30
0.0
 40
6.0
 50
222.7337482771436
 51
278.90903863190209
  0
ARC
  5
9227
  8
0
 10
131.42031769032769
 20
28.19166450659333
 30
0.0
 40
35.000000000000021
 50
92.921013404991797
 51
98.909038631898724
  0
ARC
  5
9228
  8
0
 10
122.4999993294477
 20
66.321944339496497
 30
0.0
 40
2.5000000000000031
 50
95.009674086545402
 51
222.7337482771436
  0
ARC
  5
9229
  8
0
 10
137.99999932944769
 20
-110.5
 30
0.0
 40
180.0
 50
92.694282937321816
 51
95.009674086545402
  0
ARC
  5
922A
  8
0
 10
137.99999932944769
 20
-110.5
 30
0.0
 40
180.0
 50
92.241188561739236
 51
92.694282937321816
  0
ARC
  5
922B
  8
0
 10
131.42031769032769
 20
28.19166450659333
 30
0.0
 40
35.0
 50
90.668972647435794
 51
92.921013404991797
  0
POLYLINE
  5
922C
  8
0
 66
     1
 10
0.0
 20
0.0
 30
0.0
 70
   128
  0
VERTEX
  5
DAAC
  8
0
 10
134.7403026533093
 20
69.470481961847213
 30
0.0
  0
VERTEX
  5
DAAD
  8
0
 10
136.3700173444783
 20
69.492619734056532
 30
0.0
  0
VERTEX
  5
DAAE
  8
0
 10
137.99999932944769
 20
69.5
 30
0.0
  0
SEQEND
  5
DAAF
  8
0
  0
ARC
  5
922D
  8
0
 10
131.42031769032789
 20
28.191664506595
 30
0.0
 40
34.999999999998352
 50
88.417965639801963
 51
90.668972647435794
  0
ARC
  5
922E
  8
0
 10
137.9999993295196
 20
-110.50000000220069
 30
0.0
 40
180.00000000220189
 50
91.788234373564947
 51
92.241188561735981
  0
LINE
  5
922F
  8
0
 10
133.71465947378761
 20
63.11638348585884
 30
0.0
 11
133.01910780521641
 21
63.155129297264942
 31
0.0
  0
ARC
  5
9230
  8
0
 10
131.42031769032769
 20
28.19166450659333
 30
0.0
 40
35.000000000000007
 50
87.381833908231627
 51
88.417965639801963
  0
ARC
  5
9231
  8
0
 10
137.99999932944769
 20
-110.5
 30
0.0
 40
180.0
 50
91.037650399713556
 51
91.788234373564947
  0
ARC
  5
923D
  8
0
 10
149.99999932944769
 20
60.0
 30
0.0
 40
14.0
 50
134.4153085971943
 51
225.5846914028057
  0
LINE
  5
923E
  8
0
 10
159.7979583005804
 20
50.0
 30
0.0
 11
140.20204035831509
 21
50.0
 31
0.0
  0
ARC
  5
923F
  8
0
 10
149.99999932944769
 20
60.0
 30
0.0
 40
14.000000000000011
 50
314.41530859719433
 51
45.58469140280571
  0
CIRCLE
  5
9240
  8
0
 10
138.99999932944769
 20
59.999999999999957
 30
0.0
 40
1.2000000000000171
  0
CIRCLE
  5
9241
  8
0
 10
160.99999932944769
 20
60.000000000000028
 30
0.0
 40
1.199999999999988
  0
LINE
  5
9242
  8
0
 10
140.20204035831509
 20
70.0
 30
0.0
 11
159.7979583005804
 21
69.999999999999986
 31
0.0
  0
ARC
  5
9243
  8
0
 10
133.37736185304081
 20
56.677391355537203
 30
0.0
 40
8.8630538066710312
 50
66.870664079177402
 51
86.794278800312412
  0
ARC
  5
9244
  8
0
 10
125.07080189615409
 20
68.697017846362399
 30
0.0
 40
3.6882961355450932
 50
222.7337482771394
 51
278.90903863190209
  0
ARC
  5
9245
  8
0
 10
131.42031769032769
 20
28.19166450659333
 30
0.0
 40
37.31170386445492
 50
92.895808235847184
 51
98.909038631898724
  0
ARC
  5
9246
  8
0
 10
122.4999993294477
 20
66.321944339496497
 30
0.0
 40
0.1882961355450998
 50
95.009674086548685
 51
222.73374827713911
  0
ARC
  5
9247
  8
0
 10
137.99999932944769
 20
-110.5
 30
0.0
 40
177.6882961355451
 50
92.699007036487856
 51
95.009674086545402
  0
LINE
  5
9248
  8
0
 10
129.5353351292581
 20
65.455723410760541
 30
0.0
 11
130.98846388722831
 21
65.574989849523433
 31
0.0
  0
LINE
  5
9249
  8
0
 10
131.03913653773679
 20
66.977726625682592
 30
0.0
 11
129.63281037250451
 21
66.991184943117602
 31
0.0
  0
LINE
  5
924A
  8
0
 10
133.2195786374873
 20
65.564898053843876
 30
0.0
 11
133.87299448230979
 21
65.526576124585119
 31
0.0
  0
ARC
  5
924B
  8
0
 10
131.42031769032769
 20
28.19166450659333
 30
0.0
 40
37.416519423021001
 50
87.243735326446327
 51
88.436123785300865
  0
ARC
  5
924C
  8
0
 10
131.94143187886601
 20
48.497156030469839
 30
0.0
 40
17.104401654085908
 50
88.324759976891329
 51
93.193875632347201
  0
ARC
  5
924D
  8
0
 10
131.31837685367171
 20
98.590772298149005
 30
0.0
 40
31.614278923351868
 50
269.4939154027407
 51
272.04306854687451
  0
ARC
  5
924E
  8
0
 10
137.99999932944769
 20
-110.5
 30
0.0
 40
177.58348057697901
 50
91.112958791283958
 51
91.792420283637284
  0
POLYLINE
  5
924F
  8
0
 66
     1
 10
0.0
 20
0.0
 30
0.0
 70
   128
  0
VERTEX
  5
DAB0
  8
0
 10
137.9390186816652
 20
67.108638815822275
 30
0.0
  0
VERTEX
  5
DAB1
  8
0
 10
136.30919345112099
 20
67.082308806699686
 30
0.0
  0
VERTEX
  5
DAB2
  8
0
 10
135.43469263017869
 20
67.066704973261679
 30
0.0
  0
VERTEX
  5
DAB3
  8
0
 10
134.55069348868241
 20
67.049978493524904
 30
0.0
  0
SEQEND
  5
DAB4
  8
0
  0
CIRCLE
  5
9269
  8
0
 10
149.99999932944769
 20
60.0
 30
0.0
 40
4.25
  0
CIRCLE
  5
926A
  8
0
 10
149.99999932944769
 20
60.0
 30
0.0
 40
7.25
  0
CIRCLE
  5
926D
  8
0
 10
149.99999932944769
 20
60.0
 30
0.0
 40
5.5
  0
CIRCLE
  5
93EF
  8
0
 10
149.99999932944769
 20
220.2135727927089
 30
0.0
 40
3.0
  0
LINE
  5
93F0
  8
0
 10
149.99999932944769
 20
221.3682733310882
 30
0.0
 11
148.99999932944769
 21
220.7909230618985
 31
0.0
  0
LINE
  5
93F1
  8
0
 10
148.99999932944769
 20
220.7909230618985
 30
0.0
 11
148.99999932944769
 21
219.63622252351931
 31
0.0
  0
LINE
  5
93F2
  8
0
 10
148.99999932944769
 20
219.63622252351931
 30
0.0
 11
149.99999932944769
 21
219.05887225432971
 31
0.0
  0
LINE
  5
93F3
  8
0
 10
149.99999932944769
 20
219.05887225432971
 30
0.0
 11
150.99999932944769
 21
219.63622252351931
 31
0.0
  0
LINE
  5
93F4
  8
0
 10
150.99999932944769
 20
219.63622252351931
 30
0.0
 11
150.99999932944769
 21
220.7909230618985
 31
0.0
  0
LINE
  5
93F5
  8
0
 10
150.99999932944769
 20
220.7909230618985
 30
0.0
 11
149.99999932944769
 21
221.3682733310882
 31
0.0
  0
ARC
  5
93F6
  8
0
 10
138.99999932944769
 20
220.2135727927089
 30
0.0
 40
1.9000000000000199
 50
44.160674471799467
 51
235.93846068234251
  0
LINE
  5
93F7
  8
0
 10
138.99999932944769
 20
221.07959819649341
 30
0.0
 11
138.24999932944769
 21
220.6465854946012
 31
0.0
  0
LINE
  5
93F8
  8
0
 10
138.24999932944769
 20
220.6465854946012
 30
0.0
 11
138.24999932944769
 21
219.78056009081669
 31
0.0
  0
LINE
  5
93F9
  8
0
 10
138.24999932944769
 20
219.78056009081669
 30
0.0
 11
138.85513700986911
 21
219.43118368812861
 31
0.0
  0
LINE
  5
93FA
  8
0
 10
139.74999932944769
 20
220.50073142712361
 30
0.0
 11
139.74999932944769
 21
220.6465854946012
 31
0.0
  0
LINE
  5
93FB
  8
0
 10
139.74999932944769
 20
220.6465854946012
 30
0.0
 11
138.99999932944769
 21
221.07959819649341
 31
0.0
  0
ARC
  5
93FC
  8
0
 10
160.99999932944769
 20
220.2135727927089
 30
0.0
 40
1.9000000000000341
 50
214.71353174354789
 51
145.286468256451
  0
LINE
  5
93FD
  8
0
 10
160.99999932944769
 20
219.34754738892451
 30
0.0
 11
161.74999932944769
 21
219.78056009081669
 31
0.0
  0
LINE
  5
93FE
  8
0
 10
161.74999932944769
 20
219.78056009081669
 30
0.0
 11
161.74999932944769
 21
220.6465854946012
 31
0.0
  0
LINE
  5
93FF
  8
0
 10
161.74999932944769
 20
220.6465854946012
 30
0.0
 11
160.99999932944769
 21
221.07959819649341
 31
0.0
  0
LINE
  5
9400
  8
0
 10
160.99999932944769
 20
221.07959819649341
 30
0.0
 11
160.24999932944769
 21
220.6465854946012
 31
0.0
  0
LINE
  5
9401
  8
0
 10
160.24999932944769
 20
220.6465854946012
 30
0.0
 11
160.24999932944769
 21
219.78056009081669
 31
0.0
  0
LINE
  5
9402
  8
0
 10
160.24999932944769
 20
219.78056009081669
 30
0.0
 11
160.99999932944769
 21
219.34754738892451
 31
0.0
  0
CIRCLE
  5
9403
  8
0
 10
149.99999932944769
 20
220.2135727927089
 30
0.0
 40
5.6877281279846272
  0
ARC
  5
9404
  8
0
 10
149.99999932944769
 20
220.2135727927089
 30
0.0
 40
7.5000000000000053
 50
279.4180272199556
 51
260.5819727800444
  0
ARC
  5
9405
  8
0
 10
149.99999932944769
 20
213.2135727927089
 30
0.0
 40
1.000000000000028
 50
0.0000000000016284
 51
180.0
  0
ARC
  5
9406
  8
0
 10
149.99999932944769
 20
220.2135727927089
 30
0.0
 40
7.2266823083302194
 50
262.04611187334081
 51
277.9538881266626
  0
LINE
  5
9407
  8
0
 10
148.7999993294477
 20
212.8124161834462
 30
0.0
 11
148.772726602175
 21
212.81466735657219
 31
0.0
  0
POLYLINE
  5
9408
  8
0
 66
     1
 10
0.0
 20
0.0
 30
0.0
 70
   128
  0
VERTEX
  5
DAB5
  8
0
 10
148.7999993294477
 20
212.8124161834462
 30
0.0
  0
VERTEX
  5
DAB6
  8
0
 10
148.86044569952389
 20
212.81740059836
 30
0.0
  0
VERTEX
  5
DAB7
  8
0
 10
148.91396660368829
 20
212.83143176917361
 30
0.0
  0
VERTEX
  5
DAB8
  8
0
 10
148.95769779068161
 20
212.85354636768341
 30
0.0
  0
VERTEX
  5
DAB9
  8
0
 10
148.98864775044549
 20
212.883923837879
 30
0.0
  0
VERTEX
  5
DABA
  8
0
 10
148.99998082891801
 20
212.91827114256139
 30
0.0
  0
VERTEX
  5
DABB
  8
0
 10
148.99999932944769
 20
212.91974150358431
 30
0.0
  0
SEQEND
  5
DABC
  8
0
  0
POLYLINE
  5
9409
  8
0
 66
     1
 10
0.0
 20
0.0
 30
0.0
 70
   128
  0
VERTEX
  5
DABD
  8
0
 10
150.99999932944769
 20
212.91974150358431
 30
0.0
  0
VERTEX
  5
DABE
  8
0
 10
151.00001782997739
 20
212.91827114256131
 30
0.0
  0
VERTEX
  5
DABF
  8
0
 10
151.01135090844991
 20
212.883923837879
 30
0.0
  0
VERTEX
  5
DAC0
  8
0
 10
151.04230086821369
 20
212.85354636768329
 30
0.0
  0
VERTEX
  5
DAC1
  8
0
 10
151.08603205520711
 20
212.83143176917361
 30
0.0
  0
VERTEX
  5
DAC2
  8
0
 10
151.13955295937151
 20
212.81740059836
 30
0.0
  0
VERTEX
  5
DAC3
  8
0
 10
151.19999932944779
 20
212.8124161834462
 30
0.0
  0
SEQEND
  5
DAC4
  8
0
  0
LINE
  5
940A
  8
0
 10
151.22727205672049
 20
212.81466735657219
 30
0.0
 11
151.19999932944779
 21
212.8124161834462
 31
0.0
  0
ARC
  5
940B
  8
0
 10
149.99999932944769
 20
220.2135727927089
 30
0.0
 40
9.5000000000000089
 50
277.41367380152559
 51
163.85432140347879
  0
ARC
  5
940C
  8
0
 10
151.19999932944779
 20
210.9913171033453
 30
0.0
 40
0.200000000000017
 50
180.00000000000489
 51
277.41367380152877
  0
LINE
  5
940D
  8
0
 10
150.99999932944769
 20
210.9913171033453
 30
0.0
 11
150.99999932944769
 21
213.2135727927089
 31
0.0
  0
ARC
  5
940E
  8
0
 10
133.19023849471111
 20
225.0799822163965
 30
0.0
 40
7.9999999999999831
 50
273.7585837473631
 51
343.85432140347979
  0
ARC
  5
940F
  8
0
 10
131.42031769032769
 20
252.0219082861156
 30
0.0
 40
35.0
 50
261.0909613681012
 51
273.7585837473631
  0
ARC
  5
9410
  8
0
 10
125.07080189615409
 20
211.5165549463465
 30
0.0
 40
6.0000000000000071
 50
81.090961368101276
 51
137.26625172286069
  0
ARC
  5
9411
  8
0
 10
122.4999993294477
 20
213.89162845321241
 30
0.0
 40
2.5000000000000031
 50
137.26625172286049
 51
264.99032591345792
  0
LINE
  5
9412
  8
0
 10
148.7999993294477
 20
210.7135727927089
 30
0.0
 11
137.99999932944769
 21
210.7135727927089
 31
0.0
  0
ARC
  5
9413
  8
0
 10
148.7999993294477
 20
210.91357279270889
 30
0.0
 40
0.2000000000000028
 50
270.0
 51
0.0
  0
LINE
  5
9414
  8
0
 10
148.99999932944769
 20
213.2135727927089
 30
0.0
 11
148.99999932944769
 21
210.91357279270889
 31
0.0
  0
ARC
  5
9415
  8
0
 10
137.99999932944769
 20
390.71357279270887
 30
0.0
 40
180.0
 50
264.99032591345463
 51
270.0
  0
LINE
  5
9416
  8
0
 10
150.99999932944769
 20
211.2135727927089
 30
0.0
 11
148.99999932944769
 21
211.2135727927089
 31
0.0
  0
LINE
  5
9417
  8
0
 10
140.20204035831509
 20
210.2135727927089
 30
0.0
 11
139.7165174288462
 21
210.71357279270879
 31
0.0
  0
ARC
  5
9418
  8
0
 10
149.99999932944769
 20
220.2135727927089
 30
0.0
 40
14.0
 50
134.4153085971943
 51
190.42442455420951
  0
LINE
  5
9419
  8
0
 10
140.20204035831509
 20
230.2135727927089
 30
0.0
 11
159.7979583005804
 21
230.2135727927089
 31
0.0
  0
ARC
  5
941A
  8
0
 10
149.99999932944769
 20
220.2135727927089
 30
0.0
 40
14.00000000000002
 50
314.41530859719433
 51
45.584691402805582
  0
ARC
  5
941B
  8
0
 10
160.99999932944769
 20
220.2135727927089
 30
0.0
 40
2.1000000000000041
 50
220.44412379729491
 51
139.5558762027058
  0
ARC
  5
941C
  8
0
 10
138.99999932944769
 20
220.2135727927089
 30
0.0
 40
2.1000000000000139
 50
46.167967009702323
 51
233.93116814443769
  0
LINE
  5
941D
  8
0
 10
159.7979583005804
 20
210.2135727927089
 30
0.0
 11
140.20204035831509
 21
210.2135727927089
 31
0.0
  0
LINE
  5
A192
  8
3
 10
59.200000000000053
 20
126.00000005215399
 30
0.0
 11
59.200000000000053
 21
123.1999999975784
 31
0.0
  0
LINE
  5
A193
  8
3
 10
60.799999999999947
 20
126.00000005215399
 30
0.0
 11
60.799999999999947
 21
123.1999999975786
 31
0.0
  0
LINE
  5
A194
  8
3
 10
138.19999938905249
 20
126.00000005215399
 30
0.0
 11
138.19999938905249
 21
123.1999999975784
 31
0.0
  0
LINE
  5
A195
  8
3
 10
139.7999993890524
 20
126.00000005215399
 30
0.0
 11
139.7999993890524
 21
123.1999999975786
 31
0.0
  0
LINE
  5
A196
  8
3
 10
160.1999992698432
 20
126.00000005215399
 30
0.0
 11
160.1999992698432
 21
123.1999999975784
 31
0.0
  0
LINE
  5
A197
  8
3
 10
161.79999926984311
 20
126.00000005215399
 30
0.0
 11
161.79999926984311
 21
123.1999999975786
 31
0.0
  0
LINE
  5
A198
  8
3
 10
223.19999976158161
 20
126.0000000782311
 30
0.0
 11
223.19999976158161
 21
123.20000002365541
 31
0.0
  0
LINE
  5
A199
  8
3
 10
224.79999976158149
 20
126.0000000782311
 30
0.0
 11
224.79999976158149
 21
123.2000000236557
 31
0.0
  0
LINE
  5
A22C
  8
1
 10
60.0
 20
163.21357413415399
 30
0.0
 11
60.0
 21
117.00000005215399
 31
0.0
  0
LINE
  5
A22D
  8
1
 10
149.99999932944769
 20
47.0
 30
0.0
 11
149.99999932944769
 21
73.0
 31
0.0
  0
LINE
  5
A22E
  8
1
 10
223.99999976158131
 20
163.21357413415399
 30
0.0
 11
223.99999976158131
 21
117.00000005215399
 31
0.0
  0
LINE
  5
A240
  8
1
 10
149.99999932944769
 20
117.0
 30
0.0
 11
149.99999932944769
 21
163.2135727927089
 31
0.0
  0
LINE
  5
A241
  8
1
 10
149.99999932944769
 20
207.2135727927089
 30
0.0
 11
149.99999932944769
 21
233.2135727927089
 31
0.0
  0
LINE
  5
A249
  8
1
 10
132.99999932944769
 20
220.2135727927089
 30
0.0
 11
166.99999932944769
 21
220.2135727927089
 31
0.0
  0
LINE
  5
A24A
  8
1
 10
166.99999932944769
 20
60.0
 30
0.0
 11
132.99999932944769
 21
60.0
 31
0.0
  0
LINE
  5
A25D
  8
1
 10
160.99999932944769
 20
57.300000000000033
 30
0.0
 11
160.99999932944769
 21
62.700000000000017
 31
0.0
  0
LINE
  5
A25E
  8
1
 10
138.99999932944769
 20
57.29999999999994
 30
0.0
 11
138.99999932944769
 21
62.699999999999967
 31
0.0
  0
LINE
  5
A266
  8
1
 10
160.99999932944769
 20
121.500000026077
 30
0.0
 11
160.99999932944769
 21
133.5000001043081
 31
0.0
  0
LINE
  5
A267
  8
1
 10
138.99999932944769
 20
121.500000026077
 30
0.0
 11
138.9999993294478
 21
133.5000001043081
 31
0.0
  0
LINE
  5
A270
  8
1
 10
160.99999932944769
 20
216.61357279270891
 30
0.0
 11
160.99999932944769
 21
223.8135727927089
 31
0.0
  0
LINE
  5
A271
  8
1
 10
138.99999932944769
 20
216.61357279270891
 30
0.0
 11
138.99999932944769
 21
223.8135727927089
 31
0.0
  0
ENDSEC
  0
EOF
