  0
SECTION
  2
HEADER
  9
$ACADVER
  1
AC1009
  9
$INSBASE
 10
0.0
 20
0.0
 30
0.0
  9
$EXTMIN
 10
0.0
 20
-83.794764855300528
 30
0.0
  9
$EXTMAX
 10
392.72344068184481
 20
121.5
 30
0.0
  9
$LIMMIN
 10
0.0
 20
0.0
  9
$LIMMAX
 10
375.0
 20
270.0
  9
$ORTHOMODE
 70
     0
  9
$REGENMODE
 70
     1
  9
$FILLMODE
 70
     1
  9
$QTEXTMODE
 70
     0
  9
$MIRRTEXT
 70
     0
  9
$DRAGMODE
 70
     2
  9
$LTSCALE
 40
5.0
  9
$OSMODE
 70
    37
  9
$ATTMODE
 70
     1
  9
$TEXTSIZE
 40
6.0
  9
$TRACEWID
 40
0.05
  9
$TEXTSTYLE
  7
STANDARD
  9
$CLAYER
  8
0
  9
$CELTYPE
  6
BYLAYER
  9
$CECOLOR
 62
   256
  9
$DIMSCALE
 40
0.5
  9
$DIMASZ
 40
3.0
  9
$DIMEXO
 40
2.0
  9
$DIMDLI
 40
0.3799999999999999
  9
$DIMRND
 40
0.0
  9
$DIMDLE
 40
0.0
  9
$DIMEXE
 40
2.0
  9
$DIMTP
 40
0.0
  9
$DIMTM
 40
0.0
  9
$DIMTXT
 40
3.2000000000000002
  9
$DIMCEN
 40
0.0
  9
$DIMTSZ
 40
0.0
  9
$DIMTOL
 70
     0
  9
$DIMLIM
 70
     0
  9
$DIMTIH
 70
     0
  9
$DIMTOH
 70
     0
  9
$DIMSE1
 70
     0
  9
$DIMSE2
 70
     0
  9
$DIMTAD
 70
     1
  9
$DIMZIN
 70
     8
  9
$DIMBLK
  1

  9
$DIMASO
 70
     0
  9
$DIMSHO
 70
     0
  9
$DIMPOST
  1

  9
$DIMAPOST
  1

  9
$DIMALT
 70
     0
  9
$DIMALTD
 70
     2
  9
$DIMALTF
 40
25.399999999999999
  9
$DIMLFAC
 40
1.0
  9
$DIMTOFL
 70
     0
  9
$DIMTVP
 40
0.0
  9
$DIMTIX
 70
     0
  9
$DIMSOXD
 70
     0
  9
$DIMSAH
 70
     0
  9
$DIMBLK1
  1

  9
$DIMBLK2
  1

  9
$DIMSTYLE
  2
STANDARD
  9
$DIMCLRD
 70
     0
  9
$DIMCLRE
 70
     0
  9
$DIMCLRT
 70
     0
  9
$DIMTFAC
 40
1.0
  9
$DIMGAP
 40
0.5
  9
$LUNITS
 70
     2
  9
$LUPREC
 70
     1
  9
$SKETCHINC
 40
0.1
  9
$FILLETRAD
 40
20.0
  9
$AUNITS
 70
     0
  9
$AUPREC
 70
     1
  9
$MENU
  1
E:\r13\win\SUPPORT\ACAD
  9
$ELEVATION
 40
0.0
  9
$PELEVATION
 40
0.0
  9
$THICKNESS
 40
0.0
  9
$LIMCHECK
 70
     0
  9
$BLIPMODE
 70
     0
  9
$CHAMFERA
 40
0.8
  9
$CHAMFERB
 40
0.8
  9
$SKPOLY
 70
     0
  9
$TDCREATE
 40
2449840.6320370371
  9
$TDUPDATE
 40
2457534.4491892708
  9
$TDINDWG
 40
0.4941000347
  9
$TDUSRTIMER
 40
0.4941000347
  9
$USRTIMER
 70
     1
  9
$ANGBASE
 50
0.0
  9
$ANGDIR
 70
     0
  9
$PDMODE
 70
     0
  9
$PDSIZE
 40
0.0
  9
$PLINEWID
 40
0.0
  9
$COORDS
 70
     1
  9
$SPLFRAME
 70
     0
  9
$SPLINETYPE
 70
     6
  9
$SPLINESEGS
 70
     8
  9
$ATTDIA
 70
     0
  9
$ATTREQ
 70
     1
  9
$HANDLING
 70
     1
  9
$HANDSEED
  5
C283
  9
$SURFTAB1
 70
     6
  9
$SURFTAB2
 70
     6
  9
$SURFTYPE
 70
     6
  9
$SURFU
 70
     6
  9
$SURFV
 70
     6
  9
$UCSNAME
  2

  9
$UCSORG
 10
0.0
 20
0.0
 30
0.0
  9
$UCSXDIR
 10
1.0
 20
0.0
 30
0.0
  9
$UCSYDIR
 10
0.0
 20
1.0
 30
0.0
  9
$PUCSNAME
  2

  9
$PUCSORG
 10
0.0
 20
0.0
 30
0.0
  9
$PUCSXDIR
 10
1.0
 20
0.0
 30
0.0
  9
$PUCSYDIR
 10
0.0
 20
1.0
 30
0.0
  9
$USERI1
 70
     0
  9
$USERI2
 70
     1
  9
$USERI3
 70
     0
  9
$USERI4
 70
     0
  9
$USERI5
 70
     0
  9
$USERR1
 40
0.0
  9
$USERR2
 40
0.0
  9
$USERR3
 40
0.0
  9
$USERR4
 40
0.0
  9
$USERR5
 40
0.0
  9
$WORLDVIEW
 70
     1
  9
$SHADEDGE
 70
     3
  9
$SHADEDIF
 70
    70
  9
$TILEMODE
 70
     1
  9
$MAXACTVP
 70
    16
  9
$PLIMCHECK
 70
     0
  9
$PEXTMIN
 10
1.0000000000000000E+020
 20
1.0000000000000000E+020
 30
1.0000000000000000E+020
  9
$PEXTMAX
 10
-1.0000000000000000E+020
 20
-1.0000000000000000E+020
 30
-1.0000000000000000E+020
  9
$PLIMMIN
 10
0.0
 20
0.0
  9
$PLIMMAX
 10
12.0
 20
9.0
  9
$UNITMODE
 70
     0
  9
$VISRETAIN
 70
     0
  9
$PLINEGEN
 70
     0
  9
$PSLTSCALE
 70
     0
  0
ENDSEC
  0
SECTION
  2
TABLES
  0
TABLE
  2
VPORT
 70
     1
  0
VPORT
  2
*ACTIVE
 70
     0
 10
0.0
 20
0.0
 11
1.0
 21
1.0
 12
272.4358974358974
 22
150.0
 13
0.0
 23
0.0
 14
10.0
 24
10.0
 15
10.0
 25
10.0
 16
0.0
 26
0.0
 36
1.0
 17
0.0
 27
0.0
 37
0.0
 40
300.0
 41
1.816239316239316
 42
50.0
 43
0.0
 44
0.0
 50
0.0
 51
0.0
 71
     0
 72
   500
 73
     1
 74
     0
 75
     0
 76
     0
 77
     0
 78
     0
  0
ENDTAB
  0
TABLE
  2
LTYPE
 70
     4
  0
LTYPE
  2
CONTINUOUS
 70
     0
  3
Solid Line
 72
    65
 73
     0
 40
0.0
  0
LTYPE
  2
CENTER
 70
     0
  3
____ _ ____ _ ____ _ ____ _ ____ _ ____ _ ____
 72
    65
 73
     4
 40
2.0
 49
1.25
 49
-0.25
 49
0.25
 49
-0.25
  0
LTYPE
  2
PHANTOM2
 70
     0
  3
___ _ _ ___ _ _ ___ _ _ ___ _ _
 72
    65
 73
     6
 40
1.25
 49
0.625
 49
-0.125
 49
0.125
 49
-0.125
 49
0.125
 49
-0.125
  0
LTYPE
  2
PHANTOM
 70
     0
  3
_____ _ _ _____ _ _ _____ _ _ _____ _ _ ____
 72
    65
 73
     6
 40
2.5
 49
1.25
 49
-0.25
 49
0.25
 49
-0.25
 49
0.25
 49
-0.25
  0
ENDTAB
  0
TABLE
  2
LAYER
 70
     5
  0
LAYER
  2
0
 70
     0
 62
     7
  6
CONTINUOUS
  0
LAYER
  2
1
 70
     0
 62
     1
  6
CENTER
  0
LAYER
  2
3
 70
     0
 62
     3
  6
CONTINUOUS
  0
LAYER
  2
DEFPOINTS
 70
     0
 62
     7
  6
CONTINUOUS
  0
LAYER
  2
5
 70
     0
 62
     3
  6
PHANTOM
  0
ENDTAB
  0
TABLE
  2
STYLE
 70
     2
  0
STYLE
  2
STANDARD
 70
     0
 40
0.0
 41
1.0
 50
0.0
 71
     0
 42
6.0
  3
TXT
  4
BIGFONT
  0
STYLE
  2
STANDARD1
 70
     0
 40
0.0
 41
1.0
 50
0.0
 71
     0
 42
3.0
  3
txt
  4

  0
ENDTAB
  0
TABLE
  2
VIEW
 70
     1
  0
VIEW
  2
ALL
 70
     0
 40
270.0
 10
213.25689075630251
 20
135.0
 41
0.0
 11
0.0
 21
0.0
 31
1.0
 12
0.0
 22
0.0
 32
0.0
 42
0.0
 43
0.0
 44
0.0
 50
0.0
 71
     0
  0
ENDTAB
  0
TABLE
  2
UCS
 70
     0
  0
ENDTAB
  0
TABLE
  2
APPID
 70
     7
  0
APPID
  2
ACAD
 70
     0
  0
APPID
  2
ACAD_EXEMPT_FROM_CAD_STANDARDS
 70
     0
  0
APPID
  2
ACAD_MLEADERVER
 70
     0
  0
APPID
  2
ACAD_NAV_VCDISPLAY
 70
     0
  0
APPID
  2
ACAD_PSEXT
 70
     0
  0
APPID
  2
ACAD_DSTYLE_DIMJAG
 70
     0
  0
APPID
  2
ACAD_DSTYLE_DIMTALN
 70
     0
  0
ENDTAB
  0
TABLE
  2
DIMSTYLE
 70
     1
  0
DIMSTYLE
  2
STANDARD
 70
     0
  3

  4

  5

  6

  7

 40
1.0
 41
0.18
 42
0.0625
 43
0.38
 44
0.18
 45
0.0
 46
0.0
 47
0.0
 48
0.0
140
0.18
141
0.09
142
0.0
143
25.399999999999999
144
1.0
145
0.0
146
1.0
147
0.09
 71
     0
 72
     0
 73
     1
 74
     1
 75
     0
 76
     0
 77
     0
 78
     0
170
     0
171
     2
172
     0
173
     0
174
     0
175
     0
176
     0
177
     0
178
     0
  0
ENDTAB
  0
ENDSEC
  0
SECTION
  2
BLOCKS
  0
BLOCK
  8
0
  2
$MODEL_SPACE
 70
     0
 10
0.0
 20
0.0
 30
0.0
  3
$MODEL_SPACE
  1

  0
ENDBLK
  5
126
  8
0
  0
BLOCK
 67
     1
  8
0
  2
$PAPER_SPACE
 70
     0
 10
0.0
 20
0.0
 30
0.0
  3
$PAPER_SPACE
  1

  0
ENDBLK
  5
124
 67
     1
  8
0
  0
ENDSEC
  0
SECTION
  2
ENTITIES
  0
TEXT
  5
9943
  8
0
 62
     3
 10
151.72344068184461
 20
0.0
 30
0.0
 40
3.2000000000000002
  1
■クランプピンの取付け方法 (下図)
  0
TEXT
  5
9AC4
  8
0
 62
     3
 10
199.31677401517791
 20
-19.59476485530055
 30
0.0
 40
3.2000000000000002
  1
一般的な取付け
 72
     1
 11
212.22344068184461
 21
-19.59476485530055
 31
0.0
  0
TEXT
  5
9ADC
  8
0
 62
     3
 10
317.3967740151781
 20
-19.59476485530055
 30
0.0
 40
3.2000000000000002
  1
省スペース取付け
 72
     1
 11
332.22344068184481
 21
-19.59476485530055
 31
0.0
  0
TEXT
  5
9C44
  8
0
 62
     3
 10
178.15677401517809
 20
-68.794764855300542
 30
0.0
 40
3.2000000000000002
  1
組付け状態
 72
     1
 11
187.22344068184469
 21
-68.794764855300542
 31
0.0
  0
POLYLINE
  5
9C45
  8
5
 66
     1
 10
0.0
 20
0.0
 30
0.0
 70
     1
  0
VERTEX
  5
C265
  8
5
 10
151.72344068184461
 20
-10.0
 30
0.0
  0
VERTEX
  5
C266
  8
5
 10
392.72344068184481
 20
-10.0
 30
0.0
  0
VERTEX
  5
C267
  8
5
 10
392.72344068184481
 20
-83.794764855300528
 30
0.0
  0
VERTEX
  5
C268
  8
5
 10
151.72344068184461
 20
-83.794764855300528
 30
0.0
  0
SEQEND
  5
C269
  8
5
  0
TEXT
  5
9C46
  8
0
 62
     3
 10
229.97010734851139
 20
-68.794764855300542
 30
0.0
 40
3.2000000000000002
  1
取付け穴
 72
     1
 11
237.22344068184469
 21
-68.794764855300542
 31
0.0
  0
TEXT
  5
9C47
  8
0
 62
     3
 10
298.15677401517809
 20
-68.794764855300542
 30
0.0
 40
3.2000000000000002
  1
組付け状態
 72
     1
 11
307.22344068184481
 21
-68.794764855300542
 31
0.0
  0
TEXT
  5
9C48
  8
0
 62
     3
 10
349.97010734851142
 20
-68.794764855300542
 30
0.0
 40
3.2000000000000002
  1
取付け穴
 72
     1
 11
357.22344068184481
 21
-68.794764855300542
 31
0.0
  0
TEXT
  5
9F59
  8
0
 62
     3
 10
0.0
 20
0.0
 30
0.0
 40
10.0
  1
QCPC0834-M5-SUS
  7
STANDARD1
  0
TEXT
  5
9FED
  8
0
 62
     3
 10
151.72344068184461
 20
-7.0
 30
0.0
 40
3.2000000000000002
  1
■Installation Instructions for Clamping Pins (see diagram below)
  0
TEXT
  5
9FEE
  8
0
 62
     3
 10
194.18077401517789
 20
-26.59476485530055
 30
0.0
 40
3.2000000000000002
  1
Standard mount
 41
0.85
 72
     1
 11
212.22344068184461
 21
-26.59476485530055
 31
0.0
  0
TEXT
  5
9FEF
  8
0
 62
     3
 10
310.19144068184482
 20
-26.59476485530055
 30
0.0
 40
3.2000000000000002
  1
Space saving mount
 41
0.85
 72
     1
 11
332.22344068184481
 21
-26.59476485530055
 31
0.0
  0
TEXT
  5
9FF1
  8
0
 62
     3
 10
166.00744068184471
 20
-75.794764855300542
 30
0.0
 40
3.2000000000000002
  1
Installed condition
 41
0.85
 72
     1
 11
187.22344068184469
 21
-75.794764855300542
 31
0.0
  0
TEXT
  5
9FF2
  8
0
 62
     3
 10
218.50077401517811
 20
-75.794764855300542
 30
0.0
 40
3.2000000000000002
  1
Installation hole
 41
0.85
 72
     1
 11
237.22344068184469
 21
-75.794764855300542
 31
0.0
  0
TEXT
  5
9FF3
  8
0
 62
     3
 10
286.00744068184468
 20
-75.794764855300542
 30
0.0
 40
3.2000000000000002
  1
Installed condition
 41
0.85
 72
     1
 11
307.22344068184481
 21
-75.794764855300542
 31
0.0
  0
TEXT
  5
9FF4
  8
0
 62
     3
 10
338.50077401517808
 20
-75.794764855300542
 30
0.0
 40
3.2000000000000002
  1
Installation hole
 41
0.85
 72
     1
 11
357.22344068184481
 21
-75.794764855300542
 31
0.0
  0
LINE
  5
BC03
  8
0
 10
77.000000000000256
 20
84.299999999999969
 30
0.0
 11
77.000000000000256
 21
83.0
 31
0.0
  0
LINE
  5
BC04
  8
0
 10
84.800000000000267
 20
82.799999999999983
 30
0.0
 11
85.000000000000256
 21
83.0
 31
0.0
  0
LINE
  5
BC05
  8
0
 10
85.000000000000256
 20
83.0
 30
0.0
 11
85.000000000000256
 21
84.299999999999969
 31
0.0
  0
LINE
  5
BC06
  8
0
 10
77.000000000000256
 20
83.0
 30
0.0
 11
77.200000000000244
 21
82.799999999999983
 31
0.0
  0
LINE
  5
BC07
  8
0
 10
85.000000000000256
 20
84.299999999999969
 30
0.0
 11
83.750000000000256
 21
85.550000000000011
 31
0.0
  0
LINE
  5
BC08
  8
0
 10
78.250000000000256
 20
85.550000000000011
 30
0.0
 11
77.000000000000256
 21
84.299999999999969
 31
0.0
  0
ARC
  5
BC09
  8
0
 10
78.750000000000256
 20
90.5
 30
0.0
 40
1.0
 50
90.0
 51
180.0
  0
ARC
  5
BC0A
  8
0
 10
83.250000000000256
 20
90.5
 30
0.0
 40
1.0
 50
0.0
 51
90.0
  0
LINE
  5
BC0B
  8
0
 10
77.750000000000256
 20
89.999999999999986
 30
0.0
 11
78.250000000000256
 21
87.164359090190999
 31
0.0
  0
LINE
  5
BC0C
  8
0
 10
83.750000000000256
 20
87.164359090190999
 30
0.0
 11
84.250000000000256
 21
89.999999999999986
 31
0.0
  0
LINE
  5
BC0D
  8
0
 10
84.250000000000256
 20
89.999999999999986
 30
0.0
 11
84.250000000000256
 21
90.5
 31
0.0
  0
LINE
  5
BC0E
  8
0
 10
77.750000000000256
 20
90.5
 30
0.0
 11
77.750000000000256
 21
89.999999999999986
 31
0.0
  0
LINE
  5
BC0F
  8
0
 10
83.750000000000256
 20
85.550000000000011
 30
0.0
 11
83.750000000000256
 21
87.164359090190999
 31
0.0
  0
LINE
  5
BC10
  8
0
 10
78.250000000000256
 20
87.164359090190999
 30
0.0
 11
78.250000000000256
 21
85.550000000000011
 31
0.0
  0
LINE
  5
BC11
  8
0
 10
78.500000000000256
 20
77.799999999999983
 30
0.0
 11
79.300000000000267
 21
77.0
 31
0.0
  0
LINE
  5
BC12
  8
0
 10
82.700000000000244
 20
77.0
 30
0.0
 11
83.500000000000256
 21
77.799999999999983
 31
0.0
  0
LINE
  5
BC13
  8
0
 10
83.500000000000256
 20
77.799999999999983
 30
0.0
 11
83.500000000000256
 21
80.374166975080215
 31
0.0
  0
LINE
  5
BC14
  8
0
 10
78.500000000000256
 20
80.374166975080215
 30
0.0
 11
78.500000000000256
 21
77.799999999999983
 31
0.0
  0
LINE
  5
BC15
  8
0
 10
83.500000000000256
 20
80.374166975080215
 30
0.0
 11
82.903589838486454
 21
81.407179676972405
 31
0.0
  0
LINE
  5
BC16
  8
0
 10
79.096410161514058
 20
81.407179676972405
 30
0.0
 11
78.500000000000256
 21
80.374166975080215
 31
0.0
  0
ARC
  5
BC17
  8
0
 10
83.250000000000256
 20
82.399999999999977
 30
0.0
 40
0.4000000000000057
 50
90.0
 51
180.0
  0
ARC
  5
BC18
  8
0
 10
78.750000000000256
 20
82.399999999999977
 30
0.0
 40
0.4000000000000057
 50
0.0
 51
90.0
  0
ARC
  5
BC19
  8
0
 10
83.250000000000256
 20
81.607179676972436
 30
0.0
 40
0.4000000000000086
 50
180.0
 51
210.00000000000111
  0
ARC
  5
BC1A
  8
0
 10
78.750000000000256
 20
81.607179676972436
 30
0.0
 40
0.4000000000000086
 50
330.0000000000025
 51
0.0
  0
LINE
  5
BC1B
  8
0
 10
82.850000000000279
 20
81.607179676972436
 30
0.0
 11
82.850000000000279
 21
82.399999999999977
 31
0.0
  0
LINE
  5
BC1C
  8
0
 10
79.15000000000029
 20
82.399999999999977
 30
0.0
 11
79.15000000000029
 21
81.607179676972436
 31
0.0
  0
LINE
  5
BC1D
  8
0
 10
79.063508326896525
 20
84.299999999999969
 30
0.0
 11
77.000000000000256
 21
84.299999999999969
 31
0.0
  0
LINE
  5
BC1E
  8
0
 10
79.063508326896525
 20
84.299999999999969
 30
0.0
 11
79.063508326896525
 21
83.0
 31
0.0
  0
LINE
  5
BC1F
  8
0
 10
77.000000000000256
 20
83.0
 30
0.0
 11
79.063508326896525
 21
83.0
 31
0.0
  0
POLYLINE
  5
BC21
  8
0
 66
     1
 10
0.0
 20
0.0
 30
0.0
 70
   128
  0
VERTEX
  5
C26B
  8
0
 10
82.936491673103959
 20
83.0
 30
0.0
  0
VERTEX
  5
C26C
  8
0
 10
82.499965264248971
 20
82.807872869982987
 30
0.0
  0
VERTEX
  5
C26D
  8
0
 10
82.479864858695095
 20
82.799999999999983
 30
0.0
  0
SEQEND
  5
C26E
  8
0
  0
LINE
  5
BC22
  8
0
 10
82.936491673103959
 20
83.0
 30
0.0
 11
85.000000000000256
 21
83.0
 31
0.0
  0
LINE
  5
BC23
  8
0
 10
82.936491673103959
 20
84.299999999999969
 30
0.0
 11
82.936491673103959
 21
83.0
 31
0.0
  0
LINE
  5
BC24
  8
0
 10
85.000000000000256
 20
84.299999999999969
 30
0.0
 11
82.936491673103959
 21
84.299999999999969
 31
0.0
  0
POLYLINE
  5
BC25
  8
0
 66
     1
 10
0.0
 20
0.0
 30
0.0
 70
   128
  0
VERTEX
  5
C26F
  8
0
 10
79.520135141305417
 20
82.799999999999983
 30
0.0
  0
VERTEX
  5
C270
  8
0
 10
79.377650659178272
 20
82.857721786711096
 30
0.0
  0
VERTEX
  5
C271
  8
0
 10
79.063508326896525
 20
83.0
 30
0.0
  0
SEQEND
  5
C272
  8
0
  0
LINE
  5
BC26
  8
0
 10
84.800000000000267
 20
82.799999999999983
 30
0.0
 11
77.200000000000244
 21
82.799999999999983
 31
0.0
  0
LINE
  5
BC27
  8
0
 10
83.750000000000256
 20
85.550000000000011
 30
0.0
 11
78.250000000000256
 21
85.550000000000011
 31
0.0
  0
ARC
  5
BC28
  8
0
 10
81.000000000000256
 20
80.637263585892214
 30
0.0
 40
4.1431434973014287
 50
62.134555867419678
 51
117.86544413258029
  0
LINE
  5
BC2A
  8
0
 10
78.750000000272365
 20
91.5
 30
0.0
 11
83.250000000000256
 21
91.5
 31
0.0
  0
LINE
  5
BC2B
  8
0
 10
83.750000000000256
 20
87.164359090190999
 30
0.0
 11
78.250000000000256
 21
87.164359090190999
 31
0.0
  0
LINE
  5
BC2C
  8
0
 10
84.250000000000256
 20
89.999999999999986
 30
0.0
 11
77.750000000000256
 21
89.999999999999986
 31
0.0
  0
LINE
  5
BC2D
  8
0
 10
82.700000000000244
 20
77.0
 30
0.0
 11
79.300000000000267
 21
77.0
 31
0.0
  0
LINE
  5
BC2E
  8
0
 10
78.500000000000256
 20
77.799999999999983
 30
0.0
 11
83.500000000000256
 21
77.799999999999983
 31
0.0
  0
LINE
  5
BC2F
  8
0
 10
83.500000000000256
 20
80.374166975080215
 30
0.0
 11
78.500000000000256
 21
80.374166975080215
 31
0.0
  0
LINE
  5
BC31
  8
0
 10
82.903589838486454
 20
81.407179676972405
 30
0.0
 11
79.096410161514058
 21
81.407179676972405
 31
0.0
  0
LINE
  5
BC34
  8
3
 10
78.900000074878591
 20
81.066987269744274
 30
0.0
 11
78.900000074878591
 21
77.399999859929054
 31
0.0
  0
LINE
  5
BC35
  8
3
 10
83.099999925121921
 20
77.399999859929054
 30
0.0
 11
83.099999925121921
 21
81.066987269744274
 31
0.0
  0
CIRCLE
  5
BC36
  8
0
 10
81.000000000000256
 20
114.9999999999999
 30
0.0
 40
3.2500000000000142
  0
CIRCLE
  5
BC37
  8
0
 10
81.000000000000256
 20
114.9999999999999
 30
0.0
 40
2.2500000000000142
  0
ARC
  5
BC38
  8
0
 10
81.000000000000256
 20
115.0
 30
0.0
 40
4.0000000000000151
 50
298.95502437186087
 51
61.044975628139142
  0
LINE
  5
BC39
  8
0
 10
79.063508326896525
 20
111.5
 30
0.0
 11
82.936491673103959
 21
111.5
 31
0.0
  0
ARC
  5
BC3A
  8
0
 10
81.000000000000256
 20
115.0
 30
0.0
 40
4.0000000000000089
 50
118.9550243718608
 51
241.04497562814271
  0
LINE
  5
BC3B
  8
0
 10
82.936491673103959
 20
118.5
 30
0.0
 11
79.063508326896525
 21
118.5
 31
0.0
  0
CIRCLE
  5
BC3E
  8
0
 10
81.000000000000256
 20
53.500000000000028
 30
0.0
 40
2.5
  0
LINE
  5
BC40
  8
0
 10
82.936491673103959
 20
57.0
 30
0.0
 11
79.063508326896525
 21
57.0
 31
0.0
  0
ARC
  5
BC41
  8
0
 10
81.000000000000256
 20
53.5
 30
0.0
 40
4.0000000000000089
 50
298.95502437186087
 51
61.044975628139142
  0
LINE
  5
BC42
  8
0
 10
79.063508326896525
 20
50.0
 30
0.0
 11
82.936491673103959
 21
50.0
 31
0.0
  0
ARC
  5
BC46
  8
0
 10
81.000000000000256
 20
53.5
 30
0.0
 40
4.0000000000000027
 50
118.9550243718608
 51
241.04497562814271
  0
CIRCLE
  5
BC4A
  8
3
 10
81.000000000000256
 20
53.500000000000028
 30
0.0
 40
2.099999925121665
  0
LINE
  5
BC79
  8
0
 10
57.0
 20
84.799999999999983
 30
0.0
 11
56.25
 21
85.550000000000011
 31
0.0
  0
LINE
  5
BC7A
  8
0
 10
50.75
 20
85.550000000000011
 30
0.0
 11
50.0
 21
84.799999999999983
 31
0.0
  0
ARC
  5
BC7B
  8
0
 10
51.25
 20
90.5
 30
0.0
 40
1.0
 50
90.0
 51
180.0
  0
ARC
  5
BC7C
  8
0
 10
55.75
 20
90.5
 30
0.0
 40
1.0
 50
0.0
 51
90.0
  0
LINE
  5
BC7D
  8
0
 10
56.75
 20
89.999999999999986
 30
0.0
 11
56.75
 21
90.5
 31
0.0
  0
LINE
  5
BC7E
  8
0
 10
50.25
 20
90.5
 30
0.0
 11
50.25
 21
89.999999999999986
 31
0.0
  0
LINE
  5
BC7F
  8
0
 10
50.25
 20
89.999999999999986
 30
0.0
 11
50.75
 21
87.164359090190999
 31
0.0
  0
LINE
  5
BC80
  8
0
 10
56.25
 20
87.164359090190999
 30
0.0
 11
56.75
 21
89.999999999999986
 31
0.0
  0
LINE
  5
BC81
  8
0
 10
56.25
 20
85.550000000000011
 30
0.0
 11
56.25
 21
87.164359090190999
 31
0.0
  0
LINE
  5
BC82
  8
0
 10
50.75
 20
87.164359090190999
 30
0.0
 11
50.75
 21
85.550000000000011
 31
0.0
  0
LINE
  5
BC83
  8
0
 10
56.0
 20
77.799999999999983
 30
0.0
 11
56.0
 21
80.374166975080215
 31
0.0
  0
LINE
  5
BC84
  8
0
 10
51.0
 20
80.374166975080215
 30
0.0
 11
51.0
 21
77.799999999999983
 31
0.0
  0
LINE
  5
BC85
  8
0
 10
51.0
 20
77.799999999999983
 30
0.0
 11
51.800000000000011
 21
77.0
 31
0.0
  0
LINE
  5
BC86
  8
0
 10
55.200000000000038
 20
77.0
 30
0.0
 11
56.0
 21
77.799999999999983
 31
0.0
  0
LINE
  5
BC87
  8
0
 10
56.0
 20
80.374166975080215
 30
0.0
 11
55.403589838486262
 21
81.407179676972405
 31
0.0
  0
LINE
  5
BC88
  8
0
 10
51.596410161513802
 20
81.407179676972405
 30
0.0
 11
51.0
 21
80.374166975080215
 31
0.0
  0
ARC
  5
BC89
  8
0
 10
55.75
 20
82.399999999999977
 30
0.0
 40
0.4000000000000057
 50
90.0
 51
180.0
  0
ARC
  5
BC8A
  8
0
 10
51.25
 20
82.399999999999977
 30
0.0
 40
0.4000000000000057
 50
0.0
 51
90.0
  0
ARC
  5
BC8B
  8
0
 10
55.75
 20
81.607179676972436
 30
0.0
 40
0.4000000000000057
 50
180.0
 51
210.00000000000111
  0
ARC
  5
BC8C
  8
0
 10
51.25
 20
81.607179676972436
 30
0.0
 40
0.4000000000000057
 50
330.0000000000025
 51
0.0
  0
LINE
  5
BC8D
  8
0
 10
55.350000000000023
 20
81.607179676972436
 30
0.0
 11
55.350000000000023
 21
82.399999999999977
 31
0.0
  0
LINE
  5
BC8E
  8
0
 10
51.650000000000027
 20
82.399999999999977
 30
0.0
 11
51.650000000000027
 21
81.607179676972436
 31
0.0
  0
LINE
  5
BC8F
  8
0
 10
57.000000000000057
 20
84.299999999999969
 30
0.0
 11
50.0
 21
84.299999999999969
 31
0.0
  0
LINE
  5
BC91
  8
0
 10
50.0
 20
83.0
 30
0.0
 11
57.000000000000057
 21
83.0
 31
0.0
  0
LINE
  5
BC93
  8
0
 10
56.25
 20
85.550000000000011
 30
0.0
 11
50.75
 21
85.550000000000011
 31
0.0
  0
LINE
  5
BC95
  8
0
 10
57.000000000000249
 20
82.799999999999969
 30
0.0
 11
57.0
 21
84.798368027657858
 31
0.0
  0
LINE
  5
BC96
  8
0
 10
50.0
 20
84.798438708380615
 30
0.0
 11
50.0
 21
82.799999999999983
 31
0.0
  0
LINE
  5
BC98
  8
0
 10
57.0
 20
82.799999999999983
 30
0.0
 11
50.0
 21
82.799999999999983
 31
0.0
  0
LINE
  5
BC9A
  8
0
 10
51.25
 20
91.5
 30
0.0
 11
55.75
 21
91.5
 31
0.0
  0
LINE
  5
BC9B
  8
0
 10
56.75
 20
89.999999999999986
 30
0.0
 11
50.25
 21
89.999999999999986
 31
0.0
  0
LINE
  5
BC9D
  8
0
 10
56.25
 20
87.164359090191013
 30
0.0
 11
50.75
 21
87.164359090190999
 31
0.0
  0
LINE
  5
BC9F
  8
0
 10
56.0
 20
80.374166975080215
 30
0.0
 11
51.0
 21
80.374166975080215
 31
0.0
  0
LINE
  5
BCA2
  8
0
 10
51.0
 20
77.799999999999983
 30
0.0
 11
56.0
 21
77.799999999999969
 31
0.0
  0
LINE
  5
BCA3
  8
0
 10
55.200000000000038
 20
77.0
 30
0.0
 11
51.800000000000011
 21
77.0
 31
0.0
  0
LINE
  5
BCA6
  8
0
 10
55.403589838486262
 20
81.407179676972405
 30
0.0
 11
51.596410161513802
 21
81.407179676972405
 31
0.0
  0
LINE
  5
BCAC
  8
3
 10
51.400000074878342
 20
81.066987269744274
 30
0.0
 11
51.400000074878342
 21
77.399999859929054
 31
0.0
  0
LINE
  5
BCAD
  8
3
 10
55.599999925121672
 20
77.399999859929054
 30
0.0
 11
55.599999925121672
 21
81.066987269744274
 31
0.0
  0
LINE
  5
BD38
  8
3
 10
79.06350832689651
 20
84.299999999999969
 30
0.0
 11
82.936491673103959
 21
83.0
 31
0.0
  0
LINE
  5
BD39
  8
3
 10
82.936491673104001
 20
84.299999999999969
 30
0.0
 11
79.063508326896525
 21
83.0
 31
0.0
  0
LINE
  5
BD3A
  8
1
 10
81.000000000136311
 20
121.5
 30
0.0
 11
81.000000000136311
 21
108.5
 31
0.0
  0
LINE
  5
BD3B
  8
1
 10
53.5
 20
94.500000000000014
 30
0.0
 11
53.5
 21
74.0
 31
0.0
  0
LINE
  5
BD3C
  8
1
 10
88.000000000000284
 20
114.9999999999999
 30
0.0
 11
74.000000000000256
 21
114.9999999999999
 31
0.0
  0
LINE
  5
BD3D
  8
1
 10
88.000000000000256
 20
53.500000000000028
 30
0.0
 11
74.000000000000256
 21
53.500000000000028
 31
0.0
  0
LINE
  5
BD44
  8
1
 10
81.000000000136311
 20
60.0
 30
0.0
 11
81.000000000136311
 21
47.0
 31
0.0
  0
LINE
  5
BD45
  8
1
 10
81.000000000136311
 20
94.500000000000014
 30
0.0
 11
81.000000000136311
 21
74.0
 31
0.0
  0
LINE
  5
BE66
  8
0
 10
191.02344068184459
 20
-44.394764855300529
 30
0.0
 11
195.72344068184489
 21
-44.394764855300529
 31
0.0
  0
LINE
  5
BE68
  8
0
 10
183.4234406818446
 20
-44.394764855300529
 30
0.0
 11
178.72344068184441
 21
-44.394764855300529
 31
0.0
  0
LINE
  5
BE69
  8
0
 10
178.72344068184441
 20
-50.394764855300537
 30
0.0
 11
195.72344068184489
 21
-50.394764855300537
 31
0.0
  0
LINE
  5
BE70
  8
3
 10
189.72344060696631
 20
-46.820597880220298
 30
0.0
 11
189.72344060696631
 21
-44.794764930178872
 31
0.0
  0
LINE
  5
BE71
  8
3
 10
184.72344060696631
 20
-44.794764780422199
 30
0.0
 11
184.72344060696631
 21
-46.820597880220298
 31
0.0
  0
LINE
  5
BE72
  8
0
 10
185.12344068184461
 20
-45.194764855300498
 30
0.0
 11
185.12344068184461
 21
-46.127777725627183
 31
0.0
  0
LINE
  5
BE73
  8
0
 10
189.32344053208789
 20
-46.127777725627183
 30
0.0
 11
189.32344053208789
 21
-45.19476485530005
 31
0.0
  0
LINE
  5
BE75
  8
3
 10
189.72344068184469
 20
-49.994764855300637
 30
0.0
 11
189.72344068184461
 21
-49.394764855300473
 31
0.0
  0
LINE
  5
BE76
  8
3
 10
184.72344068184469
 20
-49.394764855300593
 30
0.0
 11
184.72344068184469
 21
-49.994764855300453
 31
0.0
  0
LINE
  5
BEDD
  8
1
 10
237.22344068184461
 20
-41.594764855300539
 30
0.0
 11
237.22344068184461
 21
-53.194764855300519
 31
0.0
  0
LINE
  5
BEDF
  8
0
 10
245.72344068184489
 20
-44.394764855300529
 30
0.0
 11
228.72344068184441
 21
-44.394764855300529
 31
0.0
  0
LINE
  5
BEE0
  8
0
 10
228.72344068184441
 20
-50.394764855300537
 30
0.0
 11
245.72344068184489
 21
-50.394764855300537
 31
0.0
  0
LINE
  5
BEE1
  8
3
 10
239.72344060696619
 20
-49.99476478042213
 30
0.0
 11
239.72344060696631
 21
-44.794764930178928
 31
0.0
  0
LINE
  5
BEE2
  8
3
 10
234.72344060696631
 20
-44.794764780422227
 30
0.0
 11
234.72344060696619
 21
-49.994764930178981
 31
0.0
  0
LINE
  5
BEE3
  8
0
 10
235.12344068184461
 20
-45.194764855300527
 30
0.0
 11
235.1234406818447
 21
-49.594764855300603
 31
0.0
  0
LINE
  5
BEE4
  8
0
 10
239.323440532088
 20
-49.594764855301086
 30
0.0
 11
239.323440532088
 21
-45.19476485530005
 31
0.0
  0
LINE
  5
BEEA
  8
0
 10
235.12344068184461
 20
-45.194764855300527
 30
0.0
 11
239.3234405320876
 21
-45.19476485530005
 31
0.0
  0
LINE
  5
BF5D
  8
1
 10
307.22344068184492
 20
-32.6947648553001
 30
0.0
 11
307.22344068184492
 21
-61.89476485530011
 31
0.0
  0
LINE
  5
BF5F
  8
0
 10
313.7234406818468
 20
-61.39476485530011
 30
0.0
 11
313.72344068184492
 21
-44.394835536022519
 31
0.0
  0
LINE
  5
BF60
  8
0
 10
300.72344068184492
 20
-44.394764855300103
 30
0.0
 11
300.72344068184492
 21
-61.394764855300103
 31
0.0
  0
LINE
  5
BF61
  8
0
 10
303.22344068170889
 20
-44.394764855300103
 30
0.0
 11
300.72344068184492
 21
-44.394764855300103
 31
0.0
  0
LINE
  5
BF62
  8
0
 10
311.22344068170889
 20
-44.394764855300103
 30
0.0
 11
313.7234406818452
 21
-44.394764855300103
 31
0.0
  0
LINE
  5
BF65
  8
0
 10
311.72344068184492
 20
-44.89476485530011
 30
0.0
 11
311.02344068170891
 21
-44.89476485530011
 31
0.0
  0
LINE
  5
BF66
  8
0
 10
311.72344068184492
 20
-44.394764855300089
 30
0.0
 11
311.72344068184492
 21
-44.894764855300117
 31
0.0
  0
LINE
  5
BF67
  8
0
 10
302.72344068184492
 20
-44.394764855300089
 30
0.0
 11
302.72344068184492
 21
-44.894764855300117
 31
0.0
  0
LINE
  5
BF68
  8
0
 10
303.42344068170883
 20
-44.89476485530011
 30
0.0
 11
302.72344068184498
 21
-44.89476485530011
 31
0.0
  0
LINE
  5
BF6B
  8
0
 10
309.32344053208823
 20
-57.632957645325163
 30
0.0
 11
305.12344083160161
 21
-57.632957645325163
 31
0.0
  0
LINE
  5
BF6C
  8
3
 10
309.72344060696662
 20
-51.894764855300089
 30
0.0
 11
304.72344068184492
 21
-51.89476485530011
 31
0.0
  0
LINE
  5
BF6D
  8
3
 10
309.72344060696651
 20
-47.320597750762253
 30
0.0
 11
309.72344060696662
 21
-45.294764930178907
 31
0.0
  0
LINE
  5
BF6F
  8
0
 10
305.12344068184473
 20
-45.694764855300441
 30
0.0
 11
305.12344068184518
 21
-46.627777556956367
 31
0.0
  0
LINE
  5
BF70
  8
0
 10
309.32344053208823
 20
-46.627777298041707
 30
0.0
 11
309.32344053208823
 21
-45.694764855300058
 31
0.0
  0
LINE
  5
BF71
  8
3
 10
304.72344068184492
 20
-45.294764855300578
 30
0.0
 11
304.72344068184492
 21
-47.32059787998417
 31
0.0
  0
LINE
  5
BF72
  8
3
 10
309.72344060696662
 20
-51.89476485530011
 30
0.0
 11
309.72344060696651
 21
-49.394764930178489
 31
0.0
  0
LINE
  5
BF73
  8
0
 10
305.12344068170893
 20
-50.294764855300102
 30
0.0
 11
305.1234406818449
 21
-57.632957645325163
 31
0.0
  0
LINE
  5
BF74
  8
0
 10
309.32344053208823
 20
-57.632957645325163
 30
0.0
 11
309.32344068170892
 21
-50.294764855300102
 31
0.0
  0
LINE
  5
BF75
  8
3
 10
304.72344068184492
 20
-49.89476485530011
 30
0.0
 11
304.72344068184492
 21
-51.89476485530011
 31
0.0
  0
LINE
  5
BF76
  8
0
 10
309.32344053208823
 20
-57.632957645325163
 30
0.0
 11
307.22344068184492
 21
-58.894764855300103
 31
0.0
  0
LINE
  5
BF77
  8
0
 10
305.12344068184501
 20
-57.632957555342237
 30
0.0
 11
307.22344068184492
 21
-58.894764855300117
 31
0.0
  0
LINE
  5
BF9A
  8
0
 10
363.7234406818468
 20
-61.394764855300529
 30
0.0
 11
363.72344068184492
 21
-44.394835536022953
 31
0.0
  0
LINE
  5
BF9C
  8
0
 10
350.72344068184492
 20
-44.394764855300529
 30
0.0
 11
350.72344068184492
 21
-61.394764855300522
 31
0.0
  0
LINE
  5
BF9E
  8
0
 10
359.32344053208823
 20
-57.63295764532559
 30
0.0
 11
355.12344083160161
 21
-57.63295764532559
 31
0.0
  0
LINE
  5
BF9F
  8
3
 10
359.72344060696651
 20
-51.894764855300522
 30
0.0
 11
354.72344068184492
 21
-51.894764855300537
 31
0.0
  0
LINE
  5
BFA0
  8
0
 10
361.72344068184481
 20
-44.894764855300537
 30
0.0
 11
352.72344068184492
 21
-44.894764855300551
 31
0.0
  0
LINE
  5
BFAB
  8
1
 10
357.22344068184492
 20
-41.394764855300551
 30
0.0
 11
357.22344068184492
 21
-61.894764855300537
 31
0.0
  0
LINE
  5
BFAC
  8
0
 10
352.72344068184492
 20
-44.394764855300522
 30
0.0
 11
352.72344068184492
 21
-44.894764855300551
 31
0.0
  0
LINE
  5
BFAD
  8
0
 10
361.72344068184481
 20
-44.394764855300522
 30
0.0
 11
361.72344068184481
 21
-44.894764855300551
 31
0.0
  0
LINE
  5
BFAF
  8
0
 10
350.72344068184492
 20
-44.394764855300551
 30
0.0
 11
363.72344068184509
 21
-44.394764855300529
 31
0.0
  0
LINE
  5
BFB4
  8
3
 10
359.72344060696651
 20
-51.894764855300537
 30
0.0
 11
359.72344060696639
 21
-45.29476493017907
 31
0.0
  0
LINE
  5
BFB5
  8
0
 10
355.12344068184478
 20
-45.694764855300527
 30
0.0
 11
355.12344068184478
 21
-57.63295764532559
 31
0.0
  0
LINE
  5
BFB6
  8
0
 10
359.32344053208823
 20
-57.63295764532559
 30
0.0
 11
359.32344053208823
 21
-45.69476485530005
 31
0.0
  0
LINE
  5
BFB7
  8
3
 10
354.72344068184492
 20
-45.294764855300549
 30
0.0
 11
354.72344068184492
 21
-51.894764855300537
 31
0.0
  0
LINE
  5
BFB8
  8
0
 10
359.32344053208823
 20
-57.63295764532559
 30
0.0
 11
357.22344068184481
 21
-58.894764855300522
 31
0.0
  0
LINE
  5
BFB9
  8
0
 10
355.1234406818449
 20
-57.632957555342671
 30
0.0
 11
357.22344068184492
 21
-58.894764855300551
 31
0.0
  0
LINE
  5
C0C8
  8
0
 10
234.3234406818446
 20
-44.394764855300529
 30
0.0
 11
235.12344068184461
 21
-45.194764855300527
 31
0.0
  0
LINE
  5
C0C9
  8
0
 10
240.1234406818447
 20
-44.394764855300529
 30
0.0
 11
239.32344068184469
 21
-45.194764855300527
 31
0.0
  0
LINE
  5
C0CB
  8
0
 10
234.3234406818446
 20
-50.394764855300608
 30
0.0
 11
235.12344068184461
 21
-49.59476485530061
 31
0.0
  0
LINE
  5
C0CC
  8
0
 10
235.12344068184461
 20
-49.59476485530061
 30
0.0
 11
239.3234405320876
 21
-49.594764855301086
 31
0.0
  0
LINE
  5
C0CD
  8
0
 10
240.1234406818447
 20
-50.394764855300608
 30
0.0
 11
239.32344068184469
 21
-49.59476485530061
 31
0.0
  0
LINE
  5
C0D4
  8
0
 10
354.32344068184489
 20
-44.894764855300537
 30
0.0
 11
355.1234406818449
 21
-45.694764855300541
 31
0.0
  0
LINE
  5
C0D5
  8
0
 10
355.1234406818449
 20
-45.694764855300541
 30
0.0
 11
359.32344053208777
 21
-45.694764855300058
 31
0.0
  0
LINE
  5
C0D6
  8
0
 10
360.1234406818449
 20
-44.894764855300537
 30
0.0
 11
359.32344068184489
 21
-45.694764855300541
 31
0.0
  0
LINE
  5
C0D7
  8
0
 10
304.32344068184477
 20
-44.894764855300537
 30
0.0
 11
305.12344068184478
 21
-45.694764855300541
 31
0.0
  0
LINE
  5
C0D8
  8
0
 10
305.12344068184478
 20
-45.694764855300541
 30
0.0
 11
305.35881389944581
 21
-45.694764855300498
 31
0.0
  0
LINE
  5
C0D9
  8
0
 10
310.1234406818449
 20
-44.894764855300537
 30
0.0
 11
309.32344068184489
 21
-45.694764855300541
 31
0.0
  0
LINE
  5
C0DA
  8
0
 10
309.08806746424398
 20
-45.694764855300079
 30
0.0
 11
309.32344053208777
 21
-45.694764855300058
 31
0.0
  0
LINE
  5
C0DB
  8
0
 10
184.3234406818446
 20
-44.394764855300529
 30
0.0
 11
185.12344068184461
 21
-45.194764855300527
 31
0.0
  0
LINE
  5
C0DC
  8
0
 10
185.12344068184461
 20
-45.194764855300527
 30
0.0
 11
185.37344068184461
 21
-45.194764855300498
 31
0.0
  0
LINE
  5
C0DD
  8
0
 10
190.1234406818447
 20
-44.394764855300529
 30
0.0
 11
189.3234406818446
 21
-45.194764855300527
 31
0.0
  0
LINE
  5
C0DE
  8
0
 10
184.3234406818446
 20
-50.394764855300608
 30
0.0
 11
185.0234406818447
 21
-49.694764855300548
 31
0.0
  0
LINE
  5
C0DF
  8
0
 10
190.1234406818447
 20
-50.394764855300608
 30
0.0
 11
189.4234406818446
 21
-49.694764855300548
 31
0.0
  0
LINE
  5
C0E0
  8
0
 10
189.0734406818446
 20
-45.194764855300079
 30
0.0
 11
189.32344053208749
 21
-45.19476485530005
 31
0.0
  0
LINE
  5
C0E1
  8
0
 10
183.22344068184461
 20
-42.894764855300537
 30
0.0
 11
183.22344068184461
 21
-44.194764855300519
 31
0.0
  0
LINE
  5
C0E2
  8
0
 10
191.02344068184459
 20
-44.394764855300529
 30
0.0
 11
191.22344068184461
 21
-44.194764855300519
 31
0.0
  0
LINE
  5
C0E3
  8
0
 10
191.22344068184461
 20
-44.194764855300519
 30
0.0
 11
191.22344068184461
 21
-42.894764855300537
 31
0.0
  0
LINE
  5
C0E4
  8
0
 10
183.22344068184461
 20
-44.194764855300519
 30
0.0
 11
183.4234406818446
 21
-44.394764855300529
 31
0.0
  0
LINE
  5
C0E5
  8
0
 10
191.22344068184461
 20
-42.894764855300537
 30
0.0
 11
189.97344068184461
 21
-41.644764855300508
 31
0.0
  0
LINE
  5
C0E6
  8
0
 10
184.47344068184461
 20
-41.644764855300508
 30
0.0
 11
183.22344068184461
 21
-42.894764855300537
 31
0.0
  0
ARC
  5
C0E7
  8
0
 10
184.97344068184461
 20
-36.694764855300519
 30
0.0
 40
1.0
 50
90.0
 51
180.0
  0
ARC
  5
C0E8
  8
0
 10
189.47344068184461
 20
-36.694764855300519
 30
0.0
 40
1.0
 50
0.0
 51
90.0
  0
LINE
  5
C0E9
  8
0
 10
183.97344068184461
 20
-37.194764855300548
 30
0.0
 11
184.47344068184461
 21
-40.030405765109521
 31
0.0
  0
LINE
  5
C0EA
  8
0
 10
189.97344068184461
 20
-40.030405765109521
 30
0.0
 11
190.47344068184461
 21
-37.194764855300548
 31
0.0
  0
LINE
  5
C0EB
  8
0
 10
190.47344068184461
 20
-37.194764855300548
 30
0.0
 11
190.47344068184461
 21
-36.694764855300519
 31
0.0
  0
LINE
  5
C0EC
  8
0
 10
183.97344068184461
 20
-36.694764855300519
 30
0.0
 11
183.97344068184461
 21
-37.194764855300548
 31
0.0
  0
LINE
  5
C0ED
  8
0
 10
189.97344068184461
 20
-41.644764855300508
 30
0.0
 11
189.97344068184461
 21
-40.030405765109521
 31
0.0
  0
LINE
  5
C0EE
  8
0
 10
184.47344068184461
 20
-40.030405765109521
 30
0.0
 11
184.47344068184461
 21
-41.644764855300508
 31
0.0
  0
LINE
  5
C0EF
  8
0
 10
184.72344068184461
 20
-49.394764855300537
 30
0.0
 11
185.52344068184459
 21
-50.194764855300519
 31
0.0
  0
LINE
  5
C0F0
  8
0
 10
188.9234406818446
 20
-50.194764855300519
 30
0.0
 11
189.72344068184461
 21
-49.394764855300537
 31
0.0
  0
LINE
  5
C0F1
  8
0
 10
189.72344068184461
 20
-49.394764855300537
 30
0.0
 11
189.72344068184461
 21
-46.820597880220298
 31
0.0
  0
LINE
  5
C0F2
  8
0
 10
184.72344068184461
 20
-46.820597880220298
 30
0.0
 11
184.72344068184461
 21
-49.394764855300537
 31
0.0
  0
LINE
  5
C0F3
  8
0
 10
189.72344068184461
 20
-46.820597880220298
 30
0.0
 11
189.12703052033081
 21
-45.787585178328101
 31
0.0
  0
LINE
  5
C0F4
  8
0
 10
185.31985084335841
 20
-45.787585178328101
 30
0.0
 11
184.72344068184461
 21
-46.820597880220298
 31
0.0
  0
ARC
  5
C0F5
  8
0
 10
189.47344068184461
 20
-44.794764855300542
 30
0.0
 40
0.4000000000000057
 50
90.0
 51
180.0
  0
ARC
  5
C0F6
  8
0
 10
184.97344068184461
 20
-44.794764855300542
 30
0.0
 40
0.4000000000000057
 50
0.0
 51
90.0
  0
ARC
  5
C0F7
  8
0
 10
189.47344068184461
 20
-45.587585178328077
 30
0.0
 40
0.4000000000000086
 50
180.0
 51
210.00000000000151
  0
ARC
  5
C0F8
  8
0
 10
184.97344068184461
 20
-45.587585178328077
 30
0.0
 40
0.4000000000000086
 50
330.00000000000199
 51
0.0
  0
LINE
  5
C0F9
  8
0
 10
189.0734406818446
 20
-45.587585178328077
 30
0.0
 11
189.0734406818446
 21
-44.794764855300542
 31
0.0
  0
LINE
  5
C0FA
  8
0
 10
185.37344068184461
 20
-44.794764855300542
 30
0.0
 11
185.37344068184461
 21
-45.587585178328077
 31
0.0
  0
LINE
  5
C0FB
  8
0
 10
185.28694900874089
 20
-42.894764855300537
 30
0.0
 11
183.22344068184461
 21
-42.894764855300537
 31
0.0
  0
LINE
  5
C0FC
  8
0
 10
185.28694900874089
 20
-42.894764855300537
 30
0.0
 11
185.28694900874089
 21
-44.194764855300519
 31
0.0
  0
LINE
  5
C0FD
  8
0
 10
183.22344068184461
 20
-44.194764855300519
 30
0.0
 11
185.28694900874089
 21
-44.194764855300519
 31
0.0
  0
POLYLINE
  5
C0FE
  8
0
 66
     1
 10
0.0
 20
0.0
 30
0.0
 70
   128
  0
VERTEX
  5
C273
  8
0
 10
189.1599323549483
 20
-44.194764855300519
 30
0.0
  0
VERTEX
  5
C274
  8
0
 10
188.72340594609329
 20
-44.386891985317533
 30
0.0
  0
VERTEX
  5
C275
  8
0
 10
188.70330554053939
 20
-44.394764855300529
 30
0.0
  0
SEQEND
  5
C276
  8
0
  0
LINE
  5
C0FF
  8
0
 10
189.1599323549483
 20
-44.194764855300519
 30
0.0
 11
191.22344068184461
 21
-44.194764855300519
 31
0.0
  0
LINE
  5
C100
  8
0
 10
189.1599323549483
 20
-42.894764855300537
 30
0.0
 11
189.1599323549483
 21
-44.194764855300519
 31
0.0
  0
LINE
  5
C101
  8
0
 10
191.22344068184461
 20
-42.894764855300537
 30
0.0
 11
189.1599323549483
 21
-42.894764855300537
 31
0.0
  0
POLYLINE
  5
C102
  8
0
 66
     1
 10
0.0
 20
0.0
 30
0.0
 70
   128
  0
VERTEX
  5
C277
  8
0
 10
185.7435758231498
 20
-44.394764855300529
 30
0.0
  0
VERTEX
  5
C278
  8
0
 10
185.6010913410226
 20
-44.337043068589423
 30
0.0
  0
VERTEX
  5
C279
  8
0
 10
185.28694900874089
 20
-44.194764855300519
 30
0.0
  0
SEQEND
  5
C27A
  8
0
  0
LINE
  5
C103
  8
0
 10
191.02344068184459
 20
-44.394764855300529
 30
0.0
 11
183.4234406818446
 21
-44.394764855300529
 31
0.0
  0
LINE
  5
C104
  8
0
 10
189.97344068184461
 20
-41.644764855300508
 30
0.0
 11
184.47344068184461
 21
-41.644764855300508
 31
0.0
  0
ARC
  5
C105
  8
0
 10
187.22344068184461
 20
-46.557501269408299
 30
0.0
 40
4.1431434973014287
 50
62.134555867419479
 51
117.86544413258051
  0
LINE
  5
C106
  8
0
 10
184.97344068211669
 20
-35.694764855300519
 30
0.0
 11
189.47344068184461
 21
-35.694764855300519
 31
0.0
  0
LINE
  5
C107
  8
0
 10
189.97344068184461
 20
-40.030405765109521
 30
0.0
 11
184.47344068184461
 21
-40.030405765109521
 31
0.0
  0
LINE
  5
C108
  8
0
 10
190.47344068184461
 20
-37.194764855300548
 30
0.0
 11
183.97344068184461
 21
-37.194764855300548
 31
0.0
  0
LINE
  5
C109
  8
0
 10
188.9234406818446
 20
-50.194764855300519
 30
0.0
 11
185.52344068184459
 21
-50.194764855300519
 31
0.0
  0
LINE
  5
C10A
  8
0
 10
184.72344068184461
 20
-49.394764855300537
 30
0.0
 11
189.72344068184461
 21
-49.394764855300537
 31
0.0
  0
LINE
  5
C10B
  8
0
 10
189.72344068184461
 20
-46.820597880220298
 30
0.0
 11
184.72344068184461
 21
-46.820597880220298
 31
0.0
  0
LINE
  5
C10C
  8
0
 10
189.12703052033081
 20
-45.787585178328101
 30
0.0
 11
185.31985084335841
 21
-45.787585178328101
 31
0.0
  0
LINE
  5
C10D
  8
3
 10
185.12344075672291
 20
-46.127777585556252
 30
0.0
 11
185.12344075672291
 21
-49.794764995371452
 31
0.0
  0
LINE
  5
C10E
  8
3
 10
189.3234406069663
 20
-49.794764995371452
 30
0.0
 11
189.3234406069663
 21
-46.127777585556252
 31
0.0
  0
LINE
  5
C10F
  8
3
 10
185.28694900874089
 20
-42.894764855300537
 30
0.0
 11
189.1599323549483
 21
-44.194764855300519
 31
0.0
  0
LINE
  5
C110
  8
3
 10
189.15993235494841
 20
-42.894764855300537
 30
0.0
 11
185.28694900874089
 21
-44.194764855300519
 31
0.0
  0
LINE
  5
C111
  8
1
 10
187.22344068198069
 20
-32.694764855300519
 30
0.0
 11
187.22344068198069
 21
-53.194764855300519
 31
0.0
  0
LINE
  5
C116
  8
0
 10
303.22344068170889
 20
-43.39476485530011
 30
0.0
 11
303.22344068170889
 21
-44.694764855300093
 31
0.0
  0
LINE
  5
C117
  8
0
 10
311.02344068170891
 20
-44.89476485530011
 30
0.0
 11
311.22344068170889
 21
-44.694764855300093
 31
0.0
  0
LINE
  5
C118
  8
0
 10
311.22344068170889
 20
-44.694764855300093
 30
0.0
 11
311.22344068170889
 21
-43.39476485530011
 31
0.0
  0
LINE
  5
C119
  8
0
 10
303.22344068170889
 20
-44.694764855300093
 30
0.0
 11
303.42344068170883
 21
-44.89476485530011
 31
0.0
  0
LINE
  5
C11A
  8
0
 10
311.22344068170889
 20
-43.39476485530011
 30
0.0
 11
309.97344068170889
 21
-42.144764855300082
 31
0.0
  0
LINE
  5
C11B
  8
0
 10
304.47344068170889
 20
-42.144764855300082
 30
0.0
 11
303.22344068170889
 21
-43.39476485530011
 31
0.0
  0
ARC
  5
C11C
  8
0
 10
304.97344068170889
 20
-37.194764855300093
 30
0.0
 40
1.0
 50
90.0
 51
180.0
  0
ARC
  5
C11D
  8
0
 10
309.47344068170889
 20
-37.194764855300093
 30
0.0
 40
1.0
 50
0.0
 51
90.0
  0
LINE
  5
C11E
  8
0
 10
303.97344068170889
 20
-37.694764855300122
 30
0.0
 11
304.47344068170889
 21
-40.530405765109087
 31
0.0
  0
LINE
  5
C11F
  8
0
 10
309.97344068170889
 20
-40.530405765109087
 30
0.0
 11
310.47344068170889
 21
-37.694764855300122
 31
0.0
  0
LINE
  5
C120
  8
0
 10
310.47344068170889
 20
-37.694764855300122
 30
0.0
 11
310.47344068170889
 21
-37.194764855300093
 31
0.0
  0
LINE
  5
C121
  8
0
 10
303.97344068170889
 20
-37.194764855300093
 30
0.0
 11
303.97344068170889
 21
-37.694764855300122
 31
0.0
  0
LINE
  5
C122
  8
0
 10
309.97344068170889
 20
-42.144764855300082
 30
0.0
 11
309.97344068170889
 21
-40.530405765109087
 31
0.0
  0
LINE
  5
C123
  8
0
 10
304.47344068170889
 20
-40.530405765109087
 30
0.0
 11
304.47344068170889
 21
-42.144764855300082
 31
0.0
  0
LINE
  5
C124
  8
0
 10
304.72344068170889
 20
-49.89476485530011
 30
0.0
 11
305.52344068170879
 21
-50.694764855300093
 31
0.0
  0
LINE
  5
C125
  8
0
 10
308.92344068170883
 20
-50.694764855300093
 30
0.0
 11
309.72344068170889
 21
-49.89476485530011
 31
0.0
  0
LINE
  5
C126
  8
0
 10
309.72344068170889
 20
-49.89476485530011
 30
0.0
 11
309.72344068170889
 21
-47.320597880219871
 31
0.0
  0
LINE
  5
C127
  8
0
 10
304.72344068170889
 20
-47.320597880219871
 30
0.0
 11
304.72344068170889
 21
-49.89476485530011
 31
0.0
  0
LINE
  5
C128
  8
0
 10
309.72344068170889
 20
-47.320597880219871
 30
0.0
 11
309.12703052019509
 21
-46.287585178327667
 31
0.0
  0
LINE
  5
C129
  8
0
 10
305.3198508432227
 20
-46.287585178327667
 30
0.0
 11
304.72344068170889
 21
-47.320597880219871
 31
0.0
  0
ARC
  5
C12A
  8
0
 10
309.47344068170889
 20
-45.294764855300109
 30
0.0
 40
0.4000000000000057
 50
90.0
 51
180.0
  0
ARC
  5
C12B
  8
0
 10
304.97344068170889
 20
-45.294764855300109
 30
0.0
 40
0.4000000000000057
 50
0.0
 51
90.0
  0
ARC
  5
C12C
  8
0
 10
309.47344068170889
 20
-46.08758517832765
 30
0.0
 40
0.4000000000000086
 50
180.0
 51
210.00000000000199
  0
ARC
  5
C12D
  8
0
 10
304.97344068170889
 20
-46.08758517832765
 30
0.0
 40
0.4000000000000086
 50
330.00000000000171
 51
0.0
  0
LINE
  5
C12E
  8
0
 10
309.07344068170892
 20
-46.08758517832765
 30
0.0
 11
309.07344068170892
 21
-45.294764855300109
 31
0.0
  0
LINE
  5
C12F
  8
0
 10
305.37344068170893
 20
-45.294764855300109
 30
0.0
 11
305.37344068170893
 21
-46.08758517832765
 31
0.0
  0
LINE
  5
C130
  8
0
 10
305.28694900860512
 20
-43.39476485530011
 30
0.0
 11
303.22344068170889
 21
-43.39476485530011
 31
0.0
  0
LINE
  5
C131
  8
0
 10
305.28694900860512
 20
-43.39476485530011
 30
0.0
 11
305.28694900860512
 21
-44.694764855300093
 31
0.0
  0
LINE
  5
C132
  8
0
 10
303.22344068170889
 20
-44.694764855300093
 30
0.0
 11
305.28694900860512
 21
-44.694764855300093
 31
0.0
  0
POLYLINE
  5
C133
  8
0
 66
     1
 10
0.0
 20
0.0
 30
0.0
 70
   128
  0
VERTEX
  5
C27B
  8
0
 10
309.15993235481261
 20
-44.694764855300093
 30
0.0
  0
VERTEX
  5
C27C
  8
0
 10
308.7234059459575
 20
-44.886891985317099
 30
0.0
  0
VERTEX
  5
C27D
  8
0
 10
308.70330554040368
 20
-44.89476485530011
 30
0.0
  0
SEQEND
  5
C27E
  8
0
  0
LINE
  5
C134
  8
0
 10
309.15993235481261
 20
-44.694764855300093
 30
0.0
 11
311.22344068170889
 21
-44.694764855300093
 31
0.0
  0
LINE
  5
C135
  8
0
 10
309.15993235481261
 20
-43.39476485530011
 30
0.0
 11
309.15993235481261
 21
-44.694764855300093
 31
0.0
  0
LINE
  5
C136
  8
0
 10
311.22344068170889
 20
-43.39476485530011
 30
0.0
 11
309.15993235481261
 21
-43.39476485530011
 31
0.0
  0
POLYLINE
  5
C137
  8
0
 66
     1
 10
0.0
 20
0.0
 30
0.0
 70
   128
  0
VERTEX
  5
C27F
  8
0
 10
305.743575823014
 20
-44.89476485530011
 30
0.0
  0
VERTEX
  5
C280
  8
0
 10
305.60109134088691
 20
-44.83704306858899
 30
0.0
  0
VERTEX
  5
C281
  8
0
 10
305.28694900860512
 20
-44.694764855300093
 30
0.0
  0
SEQEND
  5
C282
  8
0
  0
LINE
  5
C138
  8
0
 10
311.02344068170891
 20
-44.89476485530011
 30
0.0
 11
303.42344068170883
 21
-44.89476485530011
 31
0.0
  0
LINE
  5
C139
  8
0
 10
309.97344068170889
 20
-42.144764855300082
 30
0.0
 11
304.47344068170889
 21
-42.144764855300082
 31
0.0
  0
ARC
  5
C13A
  8
0
 10
307.22344068170889
 20
-47.057501269407872
 30
0.0
 40
4.1431434973014287
 50
62.1345558674196
 51
117.86544413258039
  0
LINE
  5
C13B
  8
0
 10
304.97344068198089
 20
-36.1947648553001
 30
0.0
 11
309.47344068170889
 21
-36.1947648553001
 31
0.0
  0
LINE
  5
C13C
  8
0
 10
309.97344068170889
 20
-40.530405765109087
 30
0.0
 11
304.47344068170889
 21
-40.530405765109087
 31
0.0
  0
LINE
  5
C13D
  8
0
 10
310.47344068170889
 20
-37.694764855300122
 30
0.0
 11
303.97344068170889
 21
-37.694764855300122
 31
0.0
  0
LINE
  5
C13E
  8
0
 10
308.92344068170883
 20
-50.694764855300093
 30
0.0
 11
305.52344068170879
 21
-50.694764855300093
 31
0.0
  0
LINE
  5
C13F
  8
0
 10
304.72344068170889
 20
-49.89476485530011
 30
0.0
 11
309.72344068170889
 21
-49.89476485530011
 31
0.0
  0
LINE
  5
C140
  8
0
 10
309.72344068170889
 20
-47.320597880219871
 30
0.0
 11
304.72344068170889
 21
-47.320597880219871
 31
0.0
  0
LINE
  5
C141
  8
0
 10
309.12703052019509
 20
-46.287585178327667
 30
0.0
 11
305.3198508432227
 21
-46.287585178327667
 31
0.0
  0
LINE
  5
C142
  8
3
 10
305.12344075658717
 20
-46.627777585555833
 30
0.0
 11
305.12344075658717
 21
-50.294764995371033
 31
0.0
  0
LINE
  5
C143
  8
3
 10
309.3234406068305
 20
-50.294764995371033
 30
0.0
 11
309.3234406068305
 21
-46.627777585555833
 31
0.0
  0
LINE
  5
C144
  8
3
 10
305.28694900860512
 20
-43.394764855300117
 30
0.0
 11
309.15993235481261
 21
-44.694764855300093
 31
0.0
  0
LINE
  5
C145
  8
3
 10
309.15993235481261
 20
-43.394764855300117
 30
0.0
 11
305.28694900860512
 21
-44.694764855300093
 31
0.0
  0
ENDSEC
  0
EOF
