  0
SECTION
  2
HEADER
  9
$ACADVER
  1
AC1009
  9
$INSBASE
 10
0.0
 20
0.0
 30
0.0
  9
$EXTMIN
 10
0.0
 20
-281.545106205698
 30
0.0
  9
$EXTMAX
 10
449.00001108646393
 20
216.49999897181999
 30
0.0
  9
$LIMMIN
 10
0.0
 20
0.0
  9
$LIMMAX
 10
187.5
 20
135.0
  9
$ORTHOMODE
 70
     1
  9
$REGENMODE
 70
     1
  9
$FILLMODE
 70
     1
  9
$QTEXTMODE
 70
     0
  9
$MIRRTEXT
 70
     0
  9
$DRAGMODE
 70
     2
  9
$LTSCALE
 40
5.0
  9
$OSMODE
 70
    37
  9
$ATTMODE
 70
     1
  9
$TEXTSIZE
 40
0.2
  9
$TRACEWID
 40
0.05
  9
$TEXTSTYLE
  7
STANDARD
  9
$CLAYER
  8
0
  9
$CELTYPE
  6
BYLAYER
  9
$CECOLOR
 62
   256
  9
$DIMSCALE
 40
0.5
  9
$DIMASZ
 40
3.0
  9
$DIMEXO
 40
2.0
  9
$DIMDLI
 40
0.3799999999999999
  9
$DIMRND
 40
0.0
  9
$DIMDLE
 40
0.0
  9
$DIMEXE
 40
2.0
  9
$DIMTP
 40
0.0
  9
$DIMTM
 40
0.0
  9
$DIMTXT
 40
3.2000000000000002
  9
$DIMCEN
 40
0.0
  9
$DIMTSZ
 40
0.0
  9
$DIMTOL
 70
     0
  9
$DIMLIM
 70
     0
  9
$DIMTIH
 70
     0
  9
$DIMTOH
 70
     0
  9
$DIMSE1
 70
     0
  9
$DIMSE2
 70
     0
  9
$DIMTAD
 70
     1
  9
$DIMZIN
 70
     8
  9
$DIMBLK
  1

  9
$DIMASO
 70
     0
  9
$DIMSHO
 70
     0
  9
$DIMPOST
  1

  9
$DIMAPOST
  1

  9
$DIMALT
 70
     0
  9
$DIMALTD
 70
     2
  9
$DIMALTF
 40
25.399999999999999
  9
$DIMLFAC
 40
1.0
  9
$DIMTOFL
 70
     0
  9
$DIMTVP
 40
1.6000000000000001
  9
$DIMTIX
 70
     0
  9
$DIMSOXD
 70
     0
  9
$DIMSAH
 70
     0
  9
$DIMBLK1
  1

  9
$DIMBLK2
  1

  9
$DIMSTYLE
  2
STANDARD
  9
$DIMCLRD
 70
     0
  9
$DIMCLRE
 70
     0
  9
$DIMCLRT
 70
     0
  9
$DIMTFAC
 40
1.0
  9
$DIMGAP
 40
1.0
  9
$LUNITS
 70
     2
  9
$LUPREC
 70
     1
  9
$SKETCHINC
 40
0.1
  9
$FILLETRAD
 40
0.4
  9
$AUNITS
 70
     0
  9
$AUPREC
 70
     1
  9
$MENU
  1
E:\r13\win\SUPPORT\ACAD
  9
$ELEVATION
 40
0.0
  9
$PELEVATION
 40
0.0
  9
$THICKNESS
 40
0.0
  9
$LIMCHECK
 70
     0
  9
$BLIPMODE
 70
     0
  9
$CHAMFERA
 40
0.5
  9
$CHAMFERB
 40
0.5
  9
$SKPOLY
 70
     0
  9
$TDCREATE
 40
2451824.7531229062
  9
$TDUPDATE
 40
2459191.6558693871
  9
$TDINDWG
 40
1.1610159605999999
  9
$TDUSRTIMER
 40
1.1610157754999999
  9
$USRTIMER
 70
     1
  9
$ANGBASE
 50
0.0
  9
$ANGDIR
 70
     0
  9
$PDMODE
 70
     0
  9
$PDSIZE
 40
0.0
  9
$PLINEWID
 40
0.0
  9
$COORDS
 70
     1
  9
$SPLFRAME
 70
     0
  9
$SPLINETYPE
 70
     6
  9
$SPLINESEGS
 70
     8
  9
$ATTDIA
 70
     0
  9
$ATTREQ
 70
     1
  9
$HANDLING
 70
     1
  9
$HANDSEED
  5
12FAB
  9
$SURFTAB1
 70
     6
  9
$SURFTAB2
 70
     6
  9
$SURFTYPE
 70
     6
  9
$SURFU
 70
     6
  9
$SURFV
 70
     6
  9
$UCSNAME
  2

  9
$UCSORG
 10
0.0
 20
0.0
 30
0.0
  9
$UCSXDIR
 10
1.0
 20
0.0
 30
0.0
  9
$UCSYDIR
 10
0.0
 20
1.0
 30
0.0
  9
$PUCSNAME
  2

  9
$PUCSORG
 10
0.0
 20
0.0
 30
0.0
  9
$PUCSXDIR
 10
1.0
 20
0.0
 30
0.0
  9
$PUCSYDIR
 10
0.0
 20
1.0
 30
0.0
  9
$USERI1
 70
     0
  9
$USERI2
 70
     1
  9
$USERI3
 70
     0
  9
$USERI4
 70
     0
  9
$USERI5
 70
     0
  9
$USERR1
 40
0.0
  9
$USERR2
 40
0.0
  9
$USERR3
 40
0.0
  9
$USERR4
 40
0.0
  9
$USERR5
 40
0.0
  9
$WORLDVIEW
 70
     1
  9
$SHADEDGE
 70
     3
  9
$SHADEDIF
 70
    70
  9
$TILEMODE
 70
     1
  9
$MAXACTVP
 70
    16
  9
$PLIMCHECK
 70
     0
  9
$PEXTMIN
 10
1.0000000000000000E+020
 20
1.0000000000000000E+020
 30
1.0000000000000000E+020
  9
$PEXTMAX
 10
-1.0000000000000000E+020
 20
-1.0000000000000000E+020
 30
-1.0000000000000000E+020
  9
$PLIMMIN
 10
0.0
 20
0.0
  9
$PLIMMAX
 10
12.0
 20
9.0
  9
$UNITMODE
 70
     0
  9
$VISRETAIN
 70
     0
  9
$PLINEGEN
 70
     0
  9
$PSLTSCALE
 70
     0
  0
ENDSEC
  0
SECTION
  2
TABLES
  0
TABLE
  2
VPORT
 70
     1
  0
VPORT
  2
*ACTIVE
 70
     0
 10
0.0
 20
0.0
 11
1.0
 21
1.0
 12
362.34662576687123
 22
150.0
 13
0.0
 23
0.0
 14
5.0
 24
5.0
 15
5.0
 25
5.0
 16
0.0
 26
0.0
 36
1.0
 17
0.0
 27
0.0
 37
0.0
 40
300.0
 41
2.415644171779141
 42
50.0
 43
0.0
 44
0.0
 50
0.0
 51
0.0
 71
     0
 72
   500
 73
     1
 74
     0
 75
     0
 76
     0
 77
     0
 78
     0
  0
ENDTAB
  0
TABLE
  2
LTYPE
 70
     5
  0
LTYPE
  2
CONTINUOUS
 70
     0
  3
Solid Line
 72
    65
 73
     0
 40
0.0
  0
LTYPE
  2
CENTER
 70
     0
  3
____ _ ____ _ ____ _ ____ _ ____ _ ____ _ ____
 72
    65
 73
     4
 40
2.0
 49
1.25
 49
-0.25
 49
0.25
 49
-0.25
  0
LTYPE
  2
PHANTOM2
 70
     0
  3
___ _ _ ___ _ _ ___ _ _ ___ _ _
 72
    65
 73
     6
 40
1.25
 49
0.625
 49
-0.125
 49
0.125
 49
-0.125
 49
0.125
 49
-0.125
  0
LTYPE
  2
HIDDEN
 70
     0
  3
__ __ __ __ __ __ __ __ __ __ __ __ __ __ __ __
 72
    65
 73
     2
 40
0.375
 49
0.25
 49
-0.125
  0
LTYPE
  2
PHANTOM
 70
     0
  3
_____ _ _ _____ _ _ _____ _ _ _____ _ _ ____
 72
    65
 73
     6
 40
2.5
 49
1.25
 49
-0.25
 49
0.25
 49
-0.25
 49
0.25
 49
-0.25
  0
ENDTAB
  0
TABLE
  2
LAYER
 70
     6
  0
LAYER
  2
0
 70
     0
 62
     7
  6
CONTINUOUS
  0
LAYER
  2
1
 70
     0
 62
     1
  6
CENTER
  0
LAYER
  2
2
 70
     0
 62
     2
  6
HIDDEN
  0
LAYER
  2
5
 70
     0
 62
     3
  6
PHANTOM
  0
LAYER
  2
3
 70
     0
 62
     3
  6
CONTINUOUS
  0
LAYER
  2
DEFPOINTS
 70
     0
 62
     7
  6
CONTINUOUS
  0
ENDTAB
  0
TABLE
  2
STYLE
 70
     2
  0
STYLE
  2
STANDARD
 70
     0
 40
0.0
 41
1.0
 50
0.0
 71
     0
 42
0.2
  3
TXT
  4
BIGFONT
  0
STYLE
  2
STANDARD1
 70
     0
 40
0.0
 41
1.0
 50
0.0
 71
     0
 42
3.0
  3
txt
  4

  0
ENDTAB
  0
TABLE
  2
VIEW
 70
     0
  0
ENDTAB
  0
TABLE
  2
UCS
 70
     0
  0
ENDTAB
  0
TABLE
  2
APPID
 70
    11
  0
APPID
  2
ACAD
 70
     0
  0
APPID
  2
ACAD_MLEADERVER
 70
     0
  0
APPID
  2
ACAD_EXEMPT_FROM_CAD_STANDARDS
 70
     0
  0
APPID
  2
ACAD_DSTYLE_DIMJAG
 70
     0
  0
APPID
  2
ACAD_DSTYLE_DIMTALN
 70
     0
  0
APPID
  2
ACAD_NAV_VCDISPLAY
 70
     0
  0
APPID
  2
ACAD_PSEXT
 70
     0
  0
APPID
  2
ACAECLAYERSTANDARD
 70
     0
  0
APPID
  2
ACCMTRANSPARENCY
 70
     0
  0
APPID
  2
ACAD_DSTYLE_DIMRADIAL_EXTENSION
 70
     0
  0
APPID
  2
ACADANNOTATIVE
 70
     0
  0
ENDTAB
  0
TABLE
  2
DIMSTYLE
 70
     1
  0
DIMSTYLE
  2
STANDARD
 70
     0
  3

  4

  5

  6

  7

 40
1.0
 41
0.18
 42
0.0625
 43
0.38
 44
0.18
 45
0.0
 46
0.0
 47
0.0
 48
0.0
140
0.18
141
0.09
142
0.0
143
25.399999999999999
144
1.0
145
0.0
146
1.0
147
0.09
 71
     0
 72
     0
 73
     1
 74
     1
 75
     0
 76
     0
 77
     0
 78
     0
170
     0
171
     2
172
     0
173
     0
174
     0
175
     0
176
     0
177
     0
178
     0
  0
ENDTAB
  0
ENDSEC
  0
SECTION
  2
BLOCKS
  0
BLOCK
  8
0
  2
$MODEL_SPACE
 70
     0
 10
0.0
 20
0.0
 30
0.0
  3
$MODEL_SPACE
  1

  0
ENDBLK
  5
9
  8
0
  0
BLOCK
 67
     1
  8
0
  2
$PAPER_SPACE
 70
     0
 10
0.0
 20
0.0
 30
0.0
  3
$PAPER_SPACE
  1

  0
ENDBLK
  5
E
 67
     1
  8
0
  0
ENDSEC
  0
SECTION
  2
ENTITIES
  0
TEXT
  5
7FEA
  8
0
 62
     3
 10
105.0
 20
0.0
 30
0.0
 40
3.2000000000000002
  1
■ピンホールドクランパーの取付け方法〈オフを上にする場合〉(下図)
  0
TEXT
  5
7FEB
  8
0
 62
     3
 10
155.0866666666665
 20
-19.168098188633891
 30
0.0
 40
3.2000000000000002
  1
6mmのプレートに固定する場合
 72
     1
 11
182.49999999999989
 21
-19.594764855300561
 31
0.0
 73
     1
  0
TEXT
  5
80DD
  8
0
 62
     3
 10
294.61999999999989
 20
-19.168098188633891
 30
0.0
 40
3.2000000000000002
  1
6mmを超え14mm以下のプレートに固定する場合
 72
     1
 11
337.5
 21
-19.594764855300561
 31
0.0
 73
     1
  0
TEXT
  5
8474
  8
0
 62
     3
 10
138.4333333333332
 20
-123.673270445643
 30
0.0
 40
3.2000000000000002
  1
組付け状態
 72
     1
 11
147.49999999999989
 21
-123.673270445643
 31
0.0
  0
POLYLINE
  5
8487
  8
5
 66
     1
 10
0.0
 20
0.0
 30
0.0
 70
     1
  0
VERTEX
  5
12F0B
  8
5
 10
105.0
 20
-10.0
 30
0.0
  0
VERTEX
  5
12F0C
  8
5
 10
415.0
 20
-10.0
 30
0.0
  0
VERTEX
  5
12F0D
  8
5
 10
415.0
 20
-281.545106205698
 30
0.0
  0
VERTEX
  5
12F0E
  8
5
 10
105.0
 20
-281.545106205698
 30
0.0
  0
SEQEND
  5
12F0F
  8
5
  0
TEXT
  5
8489
  8
0
 62
     3
 10
210.2466666666667
 20
-123.673270445643
 30
0.0
 40
3.2000000000000002
  1
取付け穴
 72
     1
 11
217.5
 21
-123.673270445643
 31
0.0
  0
TEXT
  5
848A
  8
0
 62
     3
 10
293.43333333333322
 20
-123.673270445643
 30
0.0
 40
3.2000000000000002
  1
組付け状態
 72
     1
 11
302.49999999999989
 21
-123.673270445643
 31
0.0
  0
TEXT
  5
848B
  8
0
 62
     3
 10
365.24666666666673
 20
-123.673270445643
 30
0.0
 40
3.2000000000000002
  1
取付け穴
 72
     1
 11
372.5
 21
-123.673270445643
 31
0.0
  0
TEXT
  5
87B9
  8
0
 62
     3
 10
0.0
 20
0.0
 30
0.0
 40
10.0
  1
QCPC0834-14
  7
STANDARD1
  0
TEXT
  5
884B
  8
0
 62
     3
 10
105.0
 20
-7.0
 30
0.0
 40
3.2000000000000002
  1
■Installation Instructions for Pin Holding Clamps 〈For Y-axis Positioning of "OFF" Mark〉 (see diagram below)
  0
TEXT
  5
884C
  8
0
 62
     3
 10
123.7799999999999
 20
-26.168098188633891
 30
0.0
 40
3.2000000000000002
  1
For installation on plate of 6 mm thickness.
 72
     1
 11
182.49999999999989
 21
-26.594764855300561
 31
0.0
 73
     1
  0
TEXT
  5
884D
  8
0
 62
     3
 10
263.63333333333333
 20
-26.168098188633891
 30
0.0
 40
3.2000000000000002
  1
For installation on plate of over 6 to 14 mm thickness.
 72
     1
 11
337.5
 21
-26.594764855300561
 31
0.0
 73
     1
  0
TEXT
  5
884E
  8
0
 62
     3
 10
122.53999999999979
 20
-130.67327044564291
 30
0.0
 40
3.2000000000000002
  1
Installed condition
 72
     1
 11
147.49999999999989
 21
-130.67327044564291
 31
0.0
  0
TEXT
  5
884F
  8
0
 62
     3
 10
195.4733333333333
 20
-130.67327044564291
 30
0.0
 40
3.2000000000000002
  1
Installation hole
 72
     1
 11
217.5
 21
-130.67327044564291
 31
0.0
  0
TEXT
  5
8850
  8
0
 62
     3
 10
277.53999999999991
 20
-130.67327044564291
 30
0.0
 40
3.2000000000000002
  1
Installed condition
 72
     1
 11
302.49999999999989
 21
-130.67327044564291
 31
0.0
  0
TEXT
  5
8851
  8
0
 62
     3
 10
350.4733333333333
 20
-130.67327044564291
 30
0.0
 40
3.2000000000000002
  1
Installation hole
 72
     1
 11
372.5
 21
-130.67327044564291
 31
0.0
  0
LINE
  5
EEE7
  8
0
 10
140.7500029727816
 20
114.0
 30
0.0
 11
140.7500029727816
 21
116.9999995604157
 31
0.0
  0
LINE
  5
EEE8
  8
0
 10
135.25000300258401
 20
116.9999995604157
 30
0.0
 11
135.25000300258401
 21
114.0
 31
0.0
  0
LINE
  5
EEE9
  8
0
 10
139.50000323355201
 20
116.9999995604157
 30
0.0
 11
139.50000323355201
 21
119.49999997019771
 31
0.0
  0
LINE
  5
EEEA
  8
0
 10
136.5000027418136
 20
119.49999997019771
 30
0.0
 11
136.5000027418136
 21
116.9999995604157
 31
0.0
  0
LINE
  5
EEEB
  8
0
 10
119.7500023245811
 20
114.0
 30
0.0
 11
119.7500023245811
 21
116.9999995604157
 31
0.0
  0
LINE
  5
EEEC
  8
0
 10
114.2500023543834
 20
116.9999995604157
 30
0.0
 11
114.2500023543834
 21
114.0
 31
0.0
  0
LINE
  5
EEED
  8
0
 10
118.5000025853514
 20
116.9999995604157
 30
0.0
 11
118.5000025853514
 21
119.49999997019771
 31
0.0
  0
LINE
  5
EEEE
  8
0
 10
115.50000302493569
 20
119.49999997019771
 30
0.0
 11
115.50000302493569
 21
116.9999995604157
 31
0.0
  0
LINE
  5
EEEF
  8
0
 10
140.99937949329609
 20
146.77228586375711
 30
0.0
 11
139.08284895122051
 21
147.4698464721441
 31
0.0
  0
LINE
  5
EEF0
  8
0
 10
122.91715659201139
 20
147.4698464721441
 30
0.0
 11
121.0006260499358
 21
146.77228586375711
 31
0.0
  0
LINE
  5
EEF1
  8
0
 10
120.6723218038678
 20
146.32860751450059
 30
0.0
 11
120.0000028312206
 21
133.50000040233141
 31
0.0
  0
LINE
  5
EEF2
  8
0
 10
142.00000271201131
 20
133.50000040233141
 30
0.0
 11
141.32768373936409
 21
146.32860751450059
 31
0.0
  0
ARC
  5
EEF3
  8
0
 10
121.17163640377591
 20
146.3024400444244
 30
0.0
 40
0.5000000000000096
 50
110.0000000000033
 51
177.00000000000091
  0
ARC
  5
EEF4
  8
0
 10
140.8283691394559
 20
146.3024400444244
 30
0.0
 40
0.5000000000000121
 50
2.9999999999990892
 51
69.999999999996632
  0
ARC
  5
EEF5
  8
0
 10
138.91183928126159
 20
146.99999986588949
 30
0.0
 40
0.5
 50
69.999999999996632
 51
90.0
  0
ARC
  5
EEF6
  8
0
 10
123.0881662619701
 20
146.99999986588961
 30
0.0
 40
0.5
 50
90.0
 51
110.0000000000033
  0
ARC
  5
EEF7
  8
0
 10
147.0000027716159
 20
126.16100812924989
 30
0.0
 40
1.00000000000001
 50
0.0
 51
69.999999999996632
  0
ARC
  5
EEF8
  8
0
 10
115.000002771616
 20
126.16100812924989
 30
0.0
 40
1.00000000000001
 50
110.0000000000033
 51
180.0
  0
LINE
  5
EEF9
  8
0
 10
114.000001847744
 20
126.1610090136528
 30
0.0
 11
114.000001847744
 21
120.00000005215399
 31
0.0
  0
LINE
  5
EEFA
  8
0
 10
148.000003695488
 20
120.00000005215399
 30
0.0
 11
148.000003695488
 21
126.1610090136528
 31
0.0
  0
LINE
  5
EEFB
  8
0
 10
114.000001847744
 20
120.00000005215399
 30
0.0
 11
114.50000286102291
 21
119.49999997019771
 31
0.0
  0
LINE
  5
EEFC
  8
0
 10
147.50000268220899
 20
119.49999997019771
 30
0.0
 11
148.000003695488
 21
120.00000005215399
 31
0.0
  0
LINE
  5
EEFD
  8
0
 10
147.34202243387699
 20
127.1007004529238
 30
0.0
 11
140.7500029727816
 21
129.49999974668029
 31
0.0
  0
LINE
  5
EEFE
  8
0
 10
121.25000257045031
 20
129.49999974668029
 30
0.0
 11
114.6579831093549
 21
127.1007004529238
 31
0.0
  0
ARC
  5
EEFF
  8
0
 10
121.600002771616
 20
119.0999998658895
 30
0.0
 40
0.3999999999999986
 50
0.0
 51
90.0
  0
ARC
  5
EF00
  8
0
 10
140.4000027716159
 20
119.0999998658895
 30
0.0
 40
0.3999999999999915
 50
90.0
 51
180.0
  0
LINE
  5
EF01
  8
0
 10
122.0000031590461
 20
114.9999996982515
 30
0.0
 11
123.0000023916363
 21
114.0
 31
0.0
  0
LINE
  5
EF02
  8
0
 10
122.0000031590461
 20
119.099999718368
 30
0.0
 11
122.0000031590461
 21
114.9999996982515
 31
0.0
  0
LINE
  5
EF03
  8
0
 10
140.00000238418579
 20
116.9999995604157
 30
0.0
 11
140.00000238418579
 21
119.099999718368
 31
0.0
  0
ARC
  5
EF04
  8
0
 10
139.6500027716159
 20
129.8999998658895
 30
0.0
 40
0.3999999999999915
 50
180.0
 51
270.0
  0
ARC
  5
EF05
  8
0
 10
122.35000277161591
 20
129.8999998658895
 30
0.0
 40
0.4000000000000057
 50
270.0
 51
0.0
  0
LINE
  5
EF06
  8
0
 10
122.75000281631939
 20
133.50000040233141
 30
0.0
 11
122.75000281631939
 21
129.89999906718731
 31
0.0
  0
LINE
  5
EF07
  8
0
 10
139.2500027269125
 20
129.89999906718731
 30
0.0
 11
139.2500027269125
 21
133.50000040233141
 31
0.0
  0
LINE
  5
EF08
  8
0
 10
140.7500029727816
 20
114.0
 30
0.0
 11
135.25000300258401
 21
114.0
 31
0.0
  0
LINE
  5
EF09
  8
0
 10
140.7500029727816
 20
116.9999995604157
 30
0.0
 11
135.25000300258401
 21
116.9999995604157
 31
0.0
  0
LINE
  5
EF0A
  8
0
 10
119.7500023245811
 20
116.9999995604157
 30
0.0
 11
114.2500023543834
 21
116.9999995604157
 31
0.0
  0
LINE
  5
EF0B
  8
0
 10
119.7500023245811
 20
114.0
 30
0.0
 11
114.2500023543834
 21
114.0
 31
0.0
  0
LINE
  5
EF0D
  8
0
 10
131.8048582598567
 20
143.11085449159151
 30
0.0
 11
130.19514728337521
 21
143.11085449159151
 31
0.0
  0
LINE
  5
EF10
  8
0
 10
129.39019191078839
 20
133.50000040233141
 30
0.0
 11
129.75030641071501
 21
143.11085449159151
 31
0.0
  0
ARC
  5
EF11
  8
0
 10
129.9727268470451
 20
138.6489180349237
 30
0.0
 40
4.467476669646774
 50
87.146258666947375
 51
92.853741333052611
  0
LINE
  5
EF13
  8
0
 10
132.24969913251701
 20
143.11085449159151
 30
0.0
 11
132.60981363244349
 21
133.50000040233141
 31
0.0
  0
ARC
  5
EF14
  8
0
 10
132.02727869618681
 20
138.6489180349237
 30
0.0
 40
4.467476669646774
 50
87.146258666947375
 51
92.853741333052611
  0
LINE
  5
EF17
  8
0
 10
129.45905227214101
 20
144.441889539361
 30
0.0
 11
128.28820400871331
 21
145.61370567977431
 31
0.0
  0
ARC
  5
EF18
  8
0
 10
127.61189518324321
 20
143.34031540349699
 30
0.0
 40
2.150687073441846
 50
353.8753464902573
 51
30.810240640894818
  0
LINE
  5
EF1A
  8
0
 10
133.7118015345186
 20
145.61370567977431
 30
0.0
 11
132.54095327109101
 21
144.441889539361
 31
0.0
  0
ARC
  5
EF1C
  8
0
 10
134.21152302329111
 20
143.37895585306219
 30
0.0
 40
1.98005841288456
 50
147.53261987301099
 51
187.78179299584039
  0
ARC
  5
EF2A
  8
0
 10
126.2413125455022
 20
143.0721930581378
 30
0.0
 40
3.2632883826140922
 50
51.152616516027337
 51
93.719534584131409
  0
ARC
  5
EF2C
  8
0
 10
135.69086250527391
 20
143.28648992270291
 30
0.0
 40
3.0549329789585911
 50
84.750056970005446
 51
130.37779192983271
  0
LINE
  5
EF31
  8
0
 10
120.0000028312206
 20
133.50000040233141
 30
0.0
 11
142.00000271201131
 21
133.5000004023313
 31
0.0
  0
LINE
  5
EF33
  8
0
 10
123.0881660431623
 20
147.49999897181991
 30
0.0
 11
138.91183950006959
 21
147.49999897181991
 31
0.0
  0
LINE
  5
EF37
  8
0
 10
147.50000268220899
 20
119.49999997019771
 30
0.0
 11
114.50000286102291
 21
119.49999997019771
 31
0.0
  0
LINE
  5
EF38
  8
0
 10
121.25000257045041
 20
129.49999974668029
 30
0.0
 11
140.7500029727816
 21
129.49999974668029
 31
0.0
  0
LINE
  5
EF3A
  8
0
 10
145.93796703964469
 20
127.5610979050398
 30
0.0
 11
143.26186284422869
 21
128.53967206180101
 31
0.0
  0
LINE
  5
EF3B
  8
0
 10
143.26186284422869
 20
128.53967206180101
 30
0.0
 11
143.26186284422869
 21
128.53977823257449
 31
0.0
  0
LINE
  5
EF3C
  8
0
 10
143.26186284422869
 20
128.53977823257449
 30
0.0
 11
146.0366248339414
 21
127.5615076869726
 31
0.0
  0
LINE
  5
EF3D
  8
0
 10
146.0366248339414
 20
127.5615076869726
 30
0.0
 11
146.0914350301027
 21
127.55210319161409
 31
0.0
  0
LINE
  5
EF3E
  8
0
 10
146.0914350301027
 20
127.55210319161409
 30
0.0
 11
142.51576077193019
 21
128.85674828290939
 31
0.0
  0
LINE
  5
EF3F
  8
0
 10
142.51576077193019
 20
128.85674828290939
 30
0.0
 11
142.47054226696491
 21
128.86753486096859
 31
0.0
  0
LINE
  5
EF40
  8
0
 10
142.47054226696491
 20
128.86753486096859
 30
0.0
 11
145.14801643788809
 21
127.8887502253055
 31
0.0
  0
LINE
  5
EF41
  8
0
 10
145.14801643788809
 20
127.8887502253055
 30
0.0
 11
145.14596100896591
 21
127.889079913497
 31
0.0
  0
LINE
  5
EF42
  8
0
 10
145.14596100896591
 20
127.889079913497
 30
0.0
 11
142.37051356583831
 21
128.8695036768913
 31
0.0
  0
LINE
  5
EF43
  8
0
 10
142.37051356583831
 20
128.8695036768913
 30
0.0
 11
142.3170742765069
 21
128.85856436192989
 31
0.0
  0
LINE
  5
EF44
  8
0
 10
142.3170742765069
 20
128.85856436192989
 30
0.0
 11
145.89274853467941
 21
127.553474098444
 31
0.0
  0
LINE
  5
EF45
  8
0
 10
145.89274853467941
 20
127.553474098444
 30
0.0
 11
145.93796703964469
 21
127.5610979050398
 31
0.0
  0
LINE
  5
EF47
  8
0
 10
122.0000031590461
 20
114.9999996982515
 30
0.0
 11
135.25000300258401
 21
114.9999996982515
 31
0.0
  0
LINE
  5
EF48
  8
0
 10
135.25000300258401
 20
114.0
 30
0.0
 11
123.0000023916363
 21
114.0
 31
0.0
  0
LINE
  5
EF56
  8
0
 10
126.02961475029591
 20
146.32860751450059
 30
0.0
 11
120.6723218038678
 21
146.32860751450059
 31
0.0
  0
LINE
  5
EF57
  8
0
 10
141.32768373936409
 20
146.32860751450059
 30
0.0
 11
135.97039079293609
 21
146.32860751450059
 31
0.0
  0
LINE
  5
EF58
  8
0
 10
114.6579831093549
 20
127.1007004529237
 30
0.0
 11
147.34202243387699
 21
127.1007004529238
 31
0.0
  0
LINE
  5
EF5A
  8
0
 10
148.000003695488
 20
126.1610090136528
 30
0.0
 11
114.000001847744
 21
126.1610090136528
 31
0.0
  0
CIRCLE
  5
EF5F
  8
0
 10
131.00000277161601
 20
194.49999897181991
 30
0.0
 40
3.0
  0
LINE
  5
EF60
  8
0
 10
132.1547032985836
 20
194.49999897181991
 30
0.0
 11
131.5773530350998
 21
195.4999990193173
 31
0.0
  0
LINE
  5
EF61
  8
0
 10
131.5773530350998
 20
195.4999990193173
 30
0.0
 11
130.4226525081321
 21
195.4999990193173
 31
0.0
  0
LINE
  5
EF62
  8
0
 10
130.4226525081321
 20
195.4999990193173
 30
0.0
 11
129.84530224464831
 21
194.49999897181991
 31
0.0
  0
LINE
  5
EF63
  8
0
 10
129.84530224464831
 20
194.49999897181991
 30
0.0
 11
130.4226525081321
 21
193.4999989243224
 31
0.0
  0
LINE
  5
EF64
  8
0
 10
130.4226525081321
 20
193.4999989243224
 30
0.0
 11
131.5773530350998
 21
193.4999989243224
 31
0.0
  0
LINE
  5
EF65
  8
0
 10
131.5773530350998
 20
193.4999989243224
 30
0.0
 11
132.1547032985836
 21
194.49999897181991
 31
0.0
  0
CIRCLE
  5
EF68
  8
0
 10
131.00000277161601
 20
194.49999897181991
 30
0.0
 40
8.0828465813086012
  0
CIRCLE
  5
EF69
  8
0
 10
131.00000277161601
 20
194.49999897181991
 30
0.0
 40
3.3014213562372978
  0
ARC
  5
EF84
  8
0
 10
138.91946027676369
 20
208.39428293166799
 30
0.0
 40
4.9927774113793353
 50
199.99844834837489
 51
240.318821407603
  0
ARC
  5
EF87
  8
0
 10
123.080547033603
 20
180.60571650313099
 30
0.0
 40
4.9927752408310013
 50
19.99843920342164
 51
60.318830552549237
  0
ARC
  5
EF8A
  8
0
 10
123.08054470187381
 20
208.394283408089
 30
0.0
 40
4.9927781048632314
 50
299.68118151418048
 51
340.00154872984371
  0
ARC
  5
EF8D
  8
0
 10
138.9194615733571
 20
180.605713917869
 30
0.0
 40
4.9927790039679563
 50
119.6811853022874
 51
160.00154494174049
  0
ARC
  5
EF90
  8
0
 10
131.00000277161581
 20
194.49999897181991
 30
0.0
 40
11.000000000000011
 50
119.6827432555931
 51
240.31725674440679
  0
ARC
  5
EF91
  8
0
 10
131.00000277161581
 20
194.49999897181991
 30
0.0
 40
11.000000000000011
 50
299.68274325560151
 51
60.317256744406819
  0
LINE
  5
EF9A
  8
0
 10
129.39019191078839
 20
211.1319896429778
 30
0.0
 11
127.7722676005214
 21
206.6867795437575
 31
0.0
  0
LINE
  5
EF9D
  8
0
 10
132.60981363244349
 20
177.8680083006621
 30
0.0
 11
134.22773794271049
 21
182.3132183998824
 31
0.0
  0
LINE
  5
EFA2
  8
0
 10
134.22773794271049
 20
206.6867795437575
 30
0.0
 11
132.60981363244349
 21
211.1319896429778
 31
0.0
  0
LINE
  5
EFA5
  8
0
 10
127.7722676005214
 20
182.3132183998824
 30
0.0
 11
129.39019191078839
 21
177.8680083006621
 31
0.0
  0
ARC
  5
EFB1
  8
0
 10
132.14068397071969
 20
210.96131094843051
 30
0.0
 40
0.4992132372859209
 50
19.99239240226678
 51
86.043840070335833
  0
ARC
  5
EFB2
  8
0
 10
129.85931906464629
 20
210.96131427867121
 30
0.0
 40
0.4992097419602727
 50
93.955899151022436
 51
160.00786837637381
  0
ARC
  5
EFB5
  8
0
 10
129.8593215725121
 20
178.03868699520939
 30
0.0
 40
0.4992132372859409
 50
199.99239240227089
 51
266.04384007033582
  0
ARC
  5
EFB6
  8
0
 10
132.14068647858551
 20
178.03868366496869
 30
0.0
 40
0.4992097419602823
 50
273.95589915102238
 51
340.00786837637378
  0
ARC
  5
EFB8
  8
0
 10
131.00000277161581
 20
194.49999897181991
 30
0.0
 40
16.999999999999979
 50
86.036273417603795
 51
93.963726582396177
  0
ARC
  5
EFB9
  8
0
 10
131.00000277161581
 20
194.49999897181991
 30
0.0
 40
17.000000000000021
 50
266.03627341760381
 51
273.96372658239619
  0
ARC
  5
EFBA
  8
0
 10
145.13230023907789
 20
195.99368286738181
 30
0.0
 40
0.8586202817490292
 50
3.8737975042437092
 51
49.83228383643344
  0
ARC
  5
EFBB
  8
0
 10
144.56683321208891
 20
194.640976190679
 30
0.0
 40
2.2996151723843492
 50
60.873869823658353
 51
101.58905797601579
  0
ARC
  5
EFBC
  8
0
 10
144.06813425610451
 20
194.674082527856
 30
0.0
 40
2.219931870694464
 50
89.052035479242249
 51
131.79310275403469
  0
ARC
  5
EFBD
  8
0
 10
143.2464265534544
 20
195.8035035798884
 30
0.0
 40
0.8419954279188097
 50
141.36871568875671
 51
188.3161020678337
  0
ARC
  5
EFBE
  8
0
 10
143.2394444620252
 20
195.74306400921921
 30
0.0
 40
0.8284340726789837
 50
184.24638247935141
 51
230.7620868194951
  0
ARC
  5
EFBF
  8
0
 10
143.82303073317999
 20
197.01598383569069
 30
0.0
 40
2.2118643798998878
 50
239.94993438441929
 51
282.85656720794032
  0
ARC
  5
EFC0
  8
0
 10
144.3472138815838
 20
197.04943797813959
 30
0.0
 40
2.1901014739838192
 50
269.16232148854021
 51
312.00718990035068
  0
ARC
  5
EFC1
  8
0
 10
145.1723047089707
 20
195.94063275553799
 30
0.0
 40
0.8241709347344123
 50
321.00841986191489
 51
7.7442077417900723
  0
ARC
  5
EFC2
  8
0
 10
128.06997658441961
 20
208.4191446820339
 30
0.0
 40
0.8697374118813092
 50
99.897263912256122
 51
145.5801874735771
  0
ARC
  5
EFC3
  8
0
 10
129.40649846598919
 20
208.0011721346514
 30
0.0
 40
2.24637726616149
 50
156.11415020867011
 51
198.13183298769161
  0
POLYLINE
  5
EFC4
  8
0
 66
     1
 10
0.0
 20
0.0
 30
0.0
 70
   128
  0
VERTEX
  5
12F11
  8
0
 10
127.2716696094721
 20
207.30208946764481
 30
0.0
  0
VERTEX
  5
12F12
  8
0
 10
127.4932212382555
 20
206.5414988100529
 30
0.0
  0
VERTEX
  5
12F13
  8
0
 10
127.6024788804352
 20
206.3270943835378
 30
0.0
  0
SEQEND
  5
12F14
  8
0
  0
LINE
  5
EFC5
  8
0
 10
128.64534013904631
 20
209.08552656322721
 30
0.0
 11
128.5692988149822
 21
209.16494788974529
 31
0.0
  0
ARC
  5
EFC6
  8
0
 10
128.11562734920719
 20
208.46480542841661
 30
0.0
 40
0.8342764919460364
 50
57.05796416676224
 51
103.52719651395481
  0
LINE
  5
EFC7
  8
0
 10
134.0029916446656
 20
207.30426503717911
 30
0.0
 11
134.31396444328129
 21
207.23645450919869
 31
0.0
  0
LINE
  5
EFC8
  8
0
 10
134.31396444328129
 20
207.23645450919869
 30
0.0
 11
134.39069867134091
 21
207.58655449748051
 31
0.0
  0
LINE
  5
EFC9
  8
0
 10
134.39069867134091
 20
207.58655449748051
 30
0.0
 11
133.85796539485449
 21
207.70272115617999
 31
0.0
  0
LINE
  5
EFCA
  8
0
 10
133.4761468879878
 20
208.7517591789366
 30
0.0
 11
133.5281244665384
 21
208.9903779923917
 31
0.0
  0
LINE
  5
EFCB
  8
0
 10
133.5281244665384
 20
208.9903779923917
 30
0.0
 11
135.0032015889883
 21
208.66905400902041
 31
0.0
  0
LINE
  5
EFCC
  8
0
 10
135.0032015889883
 20
208.66905400902041
 30
0.0
 11
135.07925059646371
 21
209.01915306597959
 31
0.0
  0
LINE
  5
EFCD
  8
0
 10
135.07925059646371
 20
209.01915306597959
 30
0.0
 11
133.2324456144124
 21
209.42132329940799
 31
0.0
  0
LINE
  5
EFCE
  8
0
 10
145.93796703964469
 20
192.456517521292
 30
0.0
 11
143.26186284422869
 21
192.73330868594351
 31
0.0
  0
LINE
  5
EFCF
  8
0
 10
143.26186284422869
 20
192.73330868594351
 30
0.0
 11
143.26186284422869
 21
192.7353639984504
 31
0.0
  0
LINE
  5
EFD0
  8
0
 10
143.26186284422869
 20
192.7353639984504
 30
0.0
 11
146.0366248339414
 21
193.41158369928601
 31
0.0
  0
LINE
  5
EFD1
  8
0
 10
146.0366248339414
 20
193.41158369928601
 30
0.0
 11
146.0914350301027
 21
193.94050123076889
 31
0.0
  0
LINE
  5
EFD2
  8
0
 10
146.0914350301027
 20
193.94050123076889
 30
0.0
 11
142.51576077193019
 21
194.31046945822891
 31
0.0
  0
LINE
  5
EFD3
  8
0
 10
142.51576077193019
 20
194.31046945822891
 30
0.0
 11
142.47054226696491
 21
193.8726737061516
 31
0.0
  0
LINE
  5
EFD4
  8
0
 10
142.47054226696491
 20
193.8726737061516
 30
0.0
 11
145.14801643788809
 21
193.59588271612299
 31
0.0
  0
LINE
  5
EFD5
  8
0
 10
145.14801643788809
 20
193.59588271612299
 30
0.0
 11
145.14596100896591
 21
193.57806942565369
 31
0.0
  0
LINE
  5
EFD6
  8
0
 10
145.14596100896591
 20
193.57806942565369
 30
0.0
 11
142.37051356583831
 21
192.90184966661039
 31
0.0
  0
LINE
  5
EFD7
  8
0
 10
142.37051356583831
 20
192.90184966661039
 30
0.0
 11
142.3170742765069
 21
192.38868999667471
 31
0.0
  0
LINE
  5
EFD8
  8
0
 10
142.3170742765069
 20
192.38868999667471
 30
0.0
 11
145.89274853467941
 21
192.01872187107799
 31
0.0
  0
LINE
  5
EFD9
  8
0
 10
145.89274853467941
 20
192.01872187107799
 30
0.0
 11
145.93796703964469
 21
192.456517521292
 31
0.0
  0
LINE
  5
EFDA
  8
0
 10
141.64897978305811
 20
201.95649253577
 30
0.0
 11
143.2872832939029
 21
203.10364539176231
 31
0.0
  0
ARC
  5
EFDB
  8
0
 10
131.00000277161601
 20
194.49999897181991
 30
0.0
 40
13.0
 50
34.999999999998863
 51
55.000000000002807
  0
LINE
  5
EFDC
  8
0
 10
139.6036491915583
 20
206.7872794941068
 30
0.0
 11
138.45649633556599
 21
205.14897598326209
 31
0.0
  0
POLYLINE
  5
EFDD
  8
0
 66
     1
 10
0.0
 20
0.0
 30
0.0
 70
   128
  0
VERTEX
  5
12F15
  8
0
 10
134.86106895841661
 20
205.5165093988181
 30
0.0
  0
VERTEX
  5
12F16
  8
0
 10
137.09068011492491
 20
206.11393141001469
 30
0.0
  0
VERTEX
  5
12F17
  8
0
 10
139.6036491915583
 20
206.7872794941068
 30
0.0
  0
SEQEND
  5
12F18
  8
0
  0
ARC
  5
EFDE
  8
0
 10
131.00000277161601
 20
194.49999897181991
 30
0.0
 40
11.5
 50
18.02649523726836
 51
69.416487680744751
  0
POLYLINE
  5
EFDF
  8
0
 66
     1
 10
0.0
 20
0.0
 30
0.0
 70
   128
  0
VERTEX
  5
12F19
  8
0
 10
143.2872832939029
 20
203.10364539176231
 30
0.0
  0
VERTEX
  5
12F1A
  8
0
 10
142.6148991286754
 20
200.59427215158951
 30
0.0
  0
VERTEX
  5
12F1B
  8
0
 10
141.93550862371919
 20
198.05875179730359
 30
0.0
  0
SEQEND
  5
12F1C
  8
0
  0
ARC
  5
EFE0
  8
0
 10
128.0682509652475
 20
208.4065946741942
 30
0.0
 40
0.5293999753870767
 50
54.989401650982479
 51
98.16014684321263
  0
LINE
  5
EFE1
  8
0
 10
128.37198252789671
 20
208.840197570622
 30
0.0
 11
128.50264615379271
 21
208.69347887486231
 31
0.0
  0
POLYLINE
  5
EFE2
  8
0
 66
     1
 10
0.0
 20
0.0
 30
0.0
 70
   128
  0
VERTEX
  5
12F1D
  8
0
 10
127.8284747805446
 20
206.84120772778991
 30
0.0
  0
VERTEX
  5
12F1E
  8
0
 10
127.8138218168169
 20
206.88427487760791
 30
0.0
  0
VERTEX
  5
12F1F
  8
0
 10
127.6895966567099
 20
207.38978559523829
 30
0.0
  0
SEQEND
  5
12F20
  8
0
  0
ARC
  5
EFE3
  8
0
 10
129.43675200606921
 20
208.0761830714786
 30
0.0
 40
1.877150316352993
 50
160.84216603755451
 51
201.44816296241731
  0
ARC
  5
EFE4
  8
0
 10
128.10109138189441
 20
208.4344227776468
 30
0.0
 40
0.5078253923793853
 50
102.2770724056286
 51
149.4938758456104
  0
ARC
  5
EFE5
  8
0
 10
145.1155470008168
 20
195.9961285094347
 30
0.0
 40
0.5257207434998567
 50
318.85278079013182
 51
2.0984581564662781
  0
ARC
  5
EFE6
  8
0
 10
144.2753430709468
 20
197.53428256264851
 30
0.0
 40
2.2533628514794408
 50
269.89840788389517
 51
303.26761477775727
  0
ARC
  5
EFE7
  8
0
 10
143.7622931243485
 20
197.11345954059991
 30
0.0
 40
1.9019268388425961
 50
245.1867422014893
 51
285.52459327504988
  0
ARC
  5
EFE8
  8
0
 10
143.24262994505091
 20
195.78241054276361
 30
0.0
 40
0.4835499070722906
 50
187.65070228995981
 51
234.8333899924537
  0
ARC
  5
EFE9
  8
0
 10
143.28178205210421
 20
195.75884999707841
 30
0.0
 40
0.5200018599113429
 50
138.750937716371
 51
184.50190806767671
  0
ARC
  5
EFEA
  8
0
 10
144.1443806697458
 20
194.16726049418531
 30
0.0
 40
2.3051014500546132
 50
89.892387053259597
 51
122.94412430735881
  0
ARC
  5
EFEB
  8
0
 10
144.6489206449767
 20
194.68649466317501
 30
0.0
 40
1.8545937570589821
 50
64.815378261362412
 51
105.6472692749366
  0
ARC
  5
EFEC
  8
0
 10
145.1381387995911
 20
195.957129504286
 30
0.0
 40
0.5061393742538738
 50
6.6085477144281031
 51
53.652530412678381
  0
ARC
  5
EFED
  8
0
 10
131.00000277161601
 20
194.49999897181991
 30
0.0
 40
17.00000000000005
 50
273.96372658239619
 51
86.036273417603795
  0
ARC
  5
EFEE
  8
0
 10
131.00000277161601
 20
194.49999897181991
 30
0.0
 40
17.000000000000028
 50
93.963726582396177
 51
266.03627341760381
  0
LINE
  5
EFF1
  8
0
 10
139.25000272691261
 20
79.846043333411245
 30
0.0
 11
138.0000029876829
 21
80.567731715738802
 31
0.0
  0
LINE
  5
EFF2
  8
0
 10
136.75000278279191
 20
79.846043333411245
 30
0.0
 11
138.0000029876829
 21
80.567731715738802
 31
0.0
  0
LINE
  5
EFF3
  8
0
 10
136.75000278279191
 20
79.846043333411245
 30
0.0
 11
136.75000278279191
 21
78.402667500078707
 31
0.0
  0
LINE
  5
EFF4
  8
0
 10
136.75000278279191
 20
78.402667500078707
 30
0.0
 11
138.0000029876829
 21
77.680980049073725
 31
0.0
  0
LINE
  5
EFF5
  8
0
 10
139.25000272691261
 20
78.402667500078707
 30
0.0
 11
138.0000029876829
 21
77.680980049073725
 31
0.0
  0
LINE
  5
EFF6
  8
0
 10
139.25000272691261
 20
78.402667500078707
 30
0.0
 11
139.25000272691261
 21
79.846043333411245
 31
0.0
  0
CIRCLE
  5
EFF7
  8
0
 10
138.0000027716161
 20
79.124355652982103
 30
0.0
 40
2.7499999999999978
  0
LINE
  5
EFF8
  8
0
 10
115.7500026002527
 20
67.721687858458637
 30
0.0
 11
115.7500026002527
 21
66.27831214154142
 31
0.0
  0
LINE
  5
EFF9
  8
0
 10
117.00000233948241
 20
65.556624283082812
 30
0.0
 11
115.7500026002527
 21
66.27831214154142
 31
0.0
  0
LINE
  5
EFFA
  8
0
 10
117.00000233948241
 20
65.556624283082812
 30
0.0
 11
118.2500030100346
 21
66.27831214154142
 31
0.0
  0
LINE
  5
EFFB
  8
0
 10
118.2500030100346
 20
66.27831214154142
 30
0.0
 11
118.2500030100346
 21
67.721687858458637
 31
0.0
  0
LINE
  5
EFFC
  8
0
 10
117.00000233948241
 20
68.443375716917245
 30
0.0
 11
118.2500030100346
 21
67.721687858458637
 31
0.0
  0
LINE
  5
EFFD
  8
0
 10
117.00000233948241
 20
68.443375716917245
 30
0.0
 11
115.7500026002527
 21
67.721687858458637
 31
0.0
  0
CIRCLE
  5
EFFE
  8
0
 10
117.0000027716161
 20
67.000000000000014
 30
0.0
 40
2.75
  0
LINE
  5
EFFF
  8
0
 10
138.0000029876829
 20
53.432268284261262
 30
0.0
 11
139.25000272691261
 21
54.153956666588819
 31
0.0
  0
LINE
  5
F000
  8
0
 10
139.25000272691261
 20
55.59733249992135
 30
0.0
 11
139.25000272691261
 21
54.153956666588819
 31
0.0
  0
LINE
  5
F001
  8
0
 10
139.25000272691261
 20
55.59733249992135
 30
0.0
 11
138.0000029876829
 21
56.319019950926339
 31
0.0
  0
LINE
  5
F002
  8
0
 10
138.0000029876829
 20
56.319019950926339
 30
0.0
 11
136.75000278279191
 21
55.59733249992135
 31
0.0
  0
LINE
  5
F003
  8
0
 10
136.75000278279191
 20
54.153956666588819
 30
0.0
 11
136.75000278279191
 21
55.59733249992135
 31
0.0
  0
LINE
  5
F004
  8
0
 10
136.75000278279191
 20
54.153956666588819
 30
0.0
 11
138.0000029876829
 21
53.432268284261262
 31
0.0
  0
CIRCLE
  5
F005
  8
0
 10
138.00000277161601
 20
54.875644347017818
 30
0.0
 40
2.749999999999996
  0
CIRCLE
  5
F006
  8
0
 10
131.0000027716161
 20
67.0
 30
0.0
 40
3.2500000000000142
  0
CIRCLE
  5
F007
  8
0
 10
131.0000027716161
 20
67.000000000000014
 30
0.0
 40
9.0
  0
CIRCLE
  5
F008
  8
0
 10
131.0000027716161
 20
67.000000000000014
 30
0.0
 40
8.0000000000000071
  0
CIRCLE
  5
F00A
  8
0
 10
131.0000027716161
 20
67.000000000000014
 30
0.0
 40
4.0
  0
CIRCLE
  5
F010
  8
0
 10
131.0000027716161
 20
67.0
 30
0.0
 40
17.000000000000011
  0
LINE
  5
F011
  8
0
 10
81.874356791377053
 20
114.0
 30
0.0
 11
81.874356791377053
 21
116.9999995604157
 31
0.0
  0
LINE
  5
F012
  8
0
 10
76.374356821179376
 20
116.9999995604157
 30
0.0
 11
76.374356821179376
 21
114.0
 31
0.0
  0
LINE
  5
F013
  8
0
 10
80.624356120824814
 20
116.9999995604157
 30
0.0
 11
80.624356120824814
 21
119.49999997019771
 31
0.0
  0
LINE
  5
F014
  8
0
 10
77.624356560409055
 20
119.49999997019771
 30
0.0
 11
77.624356560409055
 21
116.9999995604157
 31
0.0
  0
LINE
  5
F015
  8
0
 10
69.750000908970833
 20
114.0
 30
0.0
 11
69.750000908970833
 21
116.9999995604157
 31
0.0
  0
LINE
  5
F016
  8
0
 10
64.250000938773155
 20
116.9999995604157
 30
0.0
 11
64.250000938773155
 21
114.0
 31
0.0
  0
LINE
  5
F017
  8
0
 10
68.50000093691051
 20
116.9999995604157
 30
0.0
 11
68.50000093691051
 21
119.49999997019771
 31
0.0
  0
LINE
  5
F018
  8
0
 10
65.500000910833464
 20
119.49999997019771
 30
0.0
 11
65.500000910833464
 21
116.9999995604157
 31
0.0
  0
LINE
  5
F019
  8
0
 10
57.625645026564492
 20
114.0
 30
0.0
 11
57.625645026564492
 21
116.9999995604157
 31
0.0
  0
LINE
  5
F01A
  8
0
 10
52.125645056366807
 20
116.9999995604157
 30
0.0
 11
52.125645056366807
 21
114.0
 31
0.0
  0
LINE
  5
F01B
  8
0
 10
56.375645287334812
 20
116.9999995604157
 30
0.0
 11
56.375645287334812
 21
119.49999997019771
 31
0.0
  0
LINE
  5
F01C
  8
0
 10
53.375645726919061
 20
119.49999997019771
 30
0.0
 11
53.375645726919061
 21
116.9999995604157
 31
0.0
  0
LINE
  5
F01D
  8
0
 10
82.18309860676527
 20
144.88556788861749
 30
0.0
 11
75.082847103476524
 21
147.4698464721441
 31
0.0
  0
LINE
  5
F01E
  8
0
 10
58.917154744267457
 20
147.4698464721441
 30
0.0
 11
51.816903240978711
 21
144.88556788861749
 31
0.0
  0
ARC
  5
F01F
  8
0
 10
74.911837433517675
 20
146.99999986588961
 30
0.0
 40
0.5
 50
69.999999999996632
 51
90.0
  0
ARC
  5
F020
  8
0
 10
59.088164414226192
 20
146.99999986588949
 30
0.0
 40
0.5
 50
90.0
 51
110.0000000000033
  0
ARC
  5
F021
  8
0
 10
81.499058397040471
 20
143.0061808499191
 30
0.0
 40
2.0000000000000182
 50
2.9999999999990901
 51
69.999999999996632
  0
ARC
  5
F022
  8
0
 10
52.50094345070351
 20
143.0061808499191
 30
0.0
 40
2.0000000000000031
 50
110.0000000000033
 51
177.00000000000091
  0
LINE
  5
F023
  8
0
 10
50.503683462738991
 20
143.11085449159151
 30
0.0
 11
50.0
 21
133.50000040233141
 31
0.0
  0
LINE
  5
F024
  8
0
 10
84.000001847743974
 20
133.50000040233141
 30
0.0
 11
83.496318385004983
 21
143.11085449159151
 31
0.0
  0
ARC
  5
F025
  8
0
 10
83.000000923871994
 20
126.16100812924989
 30
0.0
 40
1.0000000000000051
 50
0.0
 51
69.999999999996632
  0
ARC
  5
F026
  8
0
 10
51.000000923871987
 20
126.16100812924989
 30
0.0
 40
1.000000000000008
 50
110.0000000000033
 51
180.0
  0
LINE
  5
F027
  8
0
 10
50.0
 20
126.1610090136528
 30
0.0
 11
50.0
 21
120.00000005215399
 31
0.0
  0
LINE
  5
F028
  8
0
 10
84.000001847743974
 20
120.00000005215399
 30
0.0
 11
84.000001847743974
 21
126.1610090136528
 31
0.0
  0
LINE
  5
F029
  8
0
 10
50.0
 20
120.00000005215399
 30
0.0
 11
50.500001013278961
 21
119.49999997019771
 31
0.0
  0
LINE
  5
F02A
  8
0
 10
83.500000834465027
 20
119.49999997019771
 30
0.0
 11
84.000001847743974
 21
120.00000005215399
 31
0.0
  0
LINE
  5
F02B
  8
0
 10
83.342020586133003
 20
127.1007004529238
 30
0.0
 11
76.75000112503767
 21
129.49999974668029
 31
0.0
  0
LINE
  5
F02C
  8
0
 10
51.922718249261372
 20
127.5610271245241
 30
0.0
 11
50.657981261610978
 21
127.1007004529238
 31
0.0
  0
LINE
  5
F02D
  8
0
 10
53.828771412372582
 20
128.25477489829061
 30
0.0
 11
51.922718249261372
 21
127.5610271245241
 31
0.0
  0
LINE
  5
F02E
  8
0
 10
57.250000722706311
 20
129.49999974668029
 30
0.0
 11
53.828771412372582
 21
128.25477489829061
 31
0.0
  0
ARC
  5
F02F
  8
0
 10
57.60000092387191
 20
119.0999998658895
 30
0.0
 40
0.3999999999999968
 50
0.0
 51
90.0
  0
ARC
  5
F030
  8
0
 10
76.400000923871971
 20
119.0999998658895
 30
0.0
 40
0.3999999999999986
 50
90.0
 51
180.0
  0
LINE
  5
F031
  8
0
 10
58.000001311302178
 20
119.099999718368
 30
0.0
 11
58.000001311302178
 21
114.9999996982515
 31
0.0
  0
LINE
  5
F032
  8
0
 10
76.000000536441803
 20
114.9999996982515
 30
0.0
 11
76.000000536441803
 21
119.099999718368
 31
0.0
  0
LINE
  5
F033
  8
0
 10
58.000001311302178
 20
114.9999996982515
 30
0.0
 11
59.000000543892376
 21
114.0
 31
0.0
  0
LINE
  5
F034
  8
0
 10
75.000001303851604
 20
114.0
 30
0.0
 11
76.000000536441803
 21
114.9999996982515
 31
0.0
  0
ARC
  5
F035
  8
0
 10
75.650000923871971
 20
129.8999998658895
 30
0.0
 40
0.3999999999999986
 50
180.0
 51
270.0
  0
ARC
  5
F036
  8
0
 10
58.350000923871903
 20
129.8999998658895
 30
0.0
 40
0.3999999999999986
 50
270.0
 51
0.0
  0
LINE
  5
F037
  8
0
 10
58.75000096857547
 20
133.50000040233141
 30
0.0
 11
58.75000096857547
 21
129.89999906718731
 31
0.0
  0
LINE
  5
F038
  8
0
 10
75.25000087916851
 20
129.89999906718731
 30
0.0
 11
75.25000087916851
 21
133.50000040233141
 31
0.0
  0
LINE
  5
F03A
  8
0
 10
55.421869456767922
 20
128.73632268607619
 30
0.0
 11
55.419490858912361
 21
128.7433299571276
 31
0.0
  0
LINE
  5
F03D
  8
0
 10
81.874356791377053
 20
114.0
 30
0.0
 11
76.374356821179376
 21
114.0
 31
0.0
  0
LINE
  5
F03F
  8
0
 10
81.874356791377053
 20
116.9999995604157
 30
0.0
 11
76.374356821179376
 21
116.9999995604157
 31
0.0
  0
LINE
  5
F040
  8
0
 10
69.750000908970833
 20
114.0
 30
0.0
 11
64.250000938773155
 21
114.0
 31
0.0
  0
LINE
  5
F041
  8
0
 10
69.750000908970833
 20
116.9999995604157
 30
0.0
 11
64.250000938773155
 21
116.9999995604157
 31
0.0
  0
LINE
  5
F042
  8
0
 10
57.625645026564492
 20
114.0
 30
0.0
 11
52.125645056366807
 21
114.0
 31
0.0
  0
LINE
  5
F044
  8
0
 10
57.625645026564492
 20
116.9999995604157
 30
0.0
 11
52.125645056366807
 21
116.9999995604157
 31
0.0
  0
POLYLINE
  5
F046
  8
0
 66
     1
 10
0.0
 20
0.0
 30
0.0
 70
   128
  0
VERTEX
  5
12F21
  8
0
 10
57.947032339870923
 20
146.32860751450059
 30
0.0
  0
VERTEX
  5
12F22
  8
0
 10
57.702688686549664
 20
140.1275339871645
 30
0.0
  0
VERTEX
  5
12F23
  8
0
 10
57.44341313838958
 20
133.50000040233141
 30
0.0
  0
SEQEND
  5
12F24
  8
0
  0
LINE
  5
F047
  8
0
 10
76.052969507873044
 20
146.32860751450059
 30
0.0
 11
57.947032339870923
 21
146.32860751450059
 31
0.0
  0
POLYLINE
  5
F048
  8
0
 66
     1
 10
0.0
 20
0.0
 30
0.0
 70
   128
  0
VERTEX
  5
12F25
  8
0
 10
76.556588709354401
 20
133.50000040233141
 30
0.0
  0
VERTEX
  5
12F26
  8
0
 10
76.297313161194324
 20
140.1275339871645
 30
0.0
  0
VERTEX
  5
12F27
  8
0
 10
76.052969507873044
 20
146.32860751450059
 30
0.0
  0
SEQEND
  5
12F28
  8
0
  0
LINE
  5
F052
  8
0
 10
59.088164195418351
 20
147.49999897181991
 30
0.0
 11
74.912782985671129
 21
147.49999897181991
 31
0.0
  0
LINE
  5
F06C
  8
0
 10
84.000001847743974
 20
133.50000040233141
 30
0.0
 11
49.999999999999943
 21
133.50000040233141
 31
0.0
  0
LINE
  5
F06E
  8
0
 10
83.500000834465027
 20
119.49999997019771
 30
0.0
 11
50.500001013278961
 21
119.49999997019771
 31
0.0
  0
ARC
  5
F06F
  8
0
 10
52.036969986334952
 20
129.2218042017831
 30
0.0
 40
1.6771237659590761
 50
276.40496605452671
 51
289.22583466516892
  0
ARC
  5
F070
  8
0
 10
44.208368408099773
 20
154.42879767546981
 30
0.0
 40
28.07087678383219
 50
287.37118687812313
 51
290.84668475605753
  0
ARC
  5
F071
  8
0
 10
47.842513516754479
 20
146.2460074468288
 30
0.0
 40
19.136614336935509
 50
289.3966906478766
 51
294.10214350150233
  0
POLYLINE
  5
F072
  8
0
 66
     1
 10
0.0
 20
0.0
 30
0.0
 70
   128
  0
VERTEX
  5
12F29
  8
0
 10
55.657229572534561
 20
128.77774418890479
 30
0.0
  0
VERTEX
  5
12F2A
  8
0
 10
55.76958525925874
 20
128.8402061313391
 30
0.0
  0
VERTEX
  5
12F2B
  8
0
 10
55.783374421298497
 20
128.8616228252649
 30
0.0
  0
SEQEND
  5
12F2C
  8
0
  0
LINE
  5
F073
  8
0
 10
55.789124406874173
 20
128.87055420875549
 30
0.0
 11
55.769590847194188
 21
128.87346924841401
 31
0.0
  0
ARC
  5
F074
  8
0
 10
56.000345602144527
 20
127.23916896908131
 30
0.0
 40
1.650510575536956
 50
98.036742235282347
 51
111.2161230225192
  0
ARC
  5
F075
  8
0
 10
71.822596913482585
 20
80.347009835747116
 30
0.0
 40
51.13847993810257
 50
108.7282587891012
 51
110.66392039310411
  0
ARC
  5
F076
  8
0
 10
64.229145547038115
 20
99.015400148260184
 30
0.0
 40
30.995787420399061
 50
109.7079615384587
 51
112.5650799233609
  0
POLYLINE
  5
F077
  8
0
 66
     1
 10
0.0
 20
0.0
 30
0.0
 70
   128
  0
VERTEX
  5
12F2D
  8
0
 10
52.335052005946629
 20
127.63828219473361
 30
0.0
  0
VERTEX
  5
12F2E
  8
0
 10
52.258593216538422
 20
127.6018469929695
 30
0.0
  0
VERTEX
  5
12F2F
  8
0
 10
52.203799784183502
 20
127.5660991072655
 30
0.0
  0
SEQEND
  5
12F30
  8
0
  0
LINE
  5
F078
  8
0
 10
52.203800349601011
 20
127.5660994761505
 30
0.0
 11
52.224061638116829
 21
127.5551486164331
 31
0.0
  0
LINE
  5
F079
  8
0
 10
57.250000722706311
 20
129.49999974668029
 30
0.0
 11
76.75000112503767
 21
129.49999974668029
 31
0.0
  0
LINE
  5
F083
  8
0
 10
58.000001311302178
 20
114.9999996982515
 30
0.0
 11
64.250000938773155
 21
114.9999996982515
 31
0.0
  0
LINE
  5
F084
  8
0
 10
69.750000908970833
 20
114.9999996982515
 30
0.0
 11
76.000000536441803
 21
114.9999996982515
 31
0.0
  0
LINE
  5
F085
  8
0
 10
75.000001303851604
 20
114.0
 30
0.0
 11
69.750000908970833
 21
114.0
 31
0.0
  0
LINE
  5
F086
  8
0
 10
64.250000938773155
 20
114.0
 30
0.0
 11
59.000000543892376
 21
114.0
 31
0.0
  0
ARC
  5
F093
  8
0
 10
44.924848755665828
 20
152.00036238479461
 30
0.0
 40
25.50670869461181
 50
288.00220666640388
 51
291.10730001220873
  0
LINE
  5
F094
  8
0
 10
52.569365315139287
 20
127.6835779994726
 30
0.0
 11
52.57190037518739
 21
127.69759812951089
 31
0.0
  0
POLYLINE
  5
F095
  8
0
 66
     1
 10
0.0
 20
0.0
 30
0.0
 70
   128
  0
VERTEX
  5
12F31
  8
0
 10
52.57190037518739
 20
127.69759812951089
 30
0.0
  0
VERTEX
  5
12F32
  8
0
 10
52.62809079140424
 20
127.7274507433176
 30
0.0
  0
VERTEX
  5
12F33
  8
0
 10
52.659802325069897
 20
127.7423798441887
 30
0.0
  0
SEQEND
  5
12F34
  8
0
  0
ARC
  5
F096
  8
0
 10
65.403131977497424
 20
96.377986919173054
 30
0.0
 40
33.854358569986417
 50
109.9279850119371
 51
112.111870899449
  0
ARC
  5
F097
  8
0
 10
66.648449247990811
 20
94.785209654712929
 30
0.0
 40
35.781724658777193
 50
108.6874162610105
 51
110.9334179751414
  0
ARC
  5
F098
  8
0
 10
55.603845383026389
 20
127.57753450172309
 30
0.0
 40
1.1802820147757549
 50
98.986127325933381
 51
110.84733759593951
  0
ARC
  5
F099
  8
0
 10
55.280419955351128
 20
128.8640025537008
 30
0.0
 40
0.1905521189798411
 50
285.64106688981428
 51
317.92890580853168
  0
ARC
  5
F09A
  8
0
 10
46.454673828043717
 20
149.67714715233419
 30
0.0
 40
22.796100268055969
 50
289.6228205715426
 51
292.91804254208688
  0
ARC
  5
F09B
  8
0
 10
52.417799249038801
 20
128.8115480883711
 30
0.0
 40
1.138107549330404
 50
277.65303073932353
 51
290.03935636764442
  0
LINE
  5
F0AD
  8
0
 10
50.657981261610978
 20
127.1007004529238
 30
0.0
 11
83.342020586133003
 21
127.1007004529238
 31
0.0
  0
LINE
  5
F0AE
  8
0
 10
84.000001847743974
 20
126.1610090136528
 30
0.0
 11
50.0
 21
126.1610090136528
 31
0.0
  0
LINE
  5
F0B2
  8
0
 10
185.6256487220526
 20
114.0
 30
0.0
 11
185.6256487220526
 21
116.9999995604157
 31
0.0
  0
LINE
  5
F0B3
  8
0
 10
180.1256487518549
 20
116.9999995604157
 30
0.0
 11
180.1256487518549
 21
114.0
 31
0.0
  0
LINE
  5
F0B4
  8
0
 10
184.3756489828229
 20
116.9999995604157
 30
0.0
 11
184.3756489828229
 21
119.49999997019771
 31
0.0
  0
LINE
  5
F0B5
  8
0
 10
181.37564942240709
 20
119.49999997019771
 30
0.0
 11
181.37564942240709
 21
116.9999995604157
 31
0.0
  0
LINE
  5
F0B6
  8
0
 10
209.87436048686499
 20
114.0
 30
0.0
 11
209.87436048686499
 21
116.9999995604157
 31
0.0
  0
LINE
  5
F0B7
  8
0
 10
204.37436051666739
 20
116.9999995604157
 30
0.0
 11
204.37436051666739
 21
114.0
 31
0.0
  0
LINE
  5
F0B8
  8
0
 10
208.62435981631279
 20
116.9999995604157
 30
0.0
 11
208.62435981631279
 21
119.49999997019771
 31
0.0
  0
LINE
  5
F0B9
  8
0
 10
205.62436025589699
 20
119.49999997019771
 30
0.0
 11
205.62436025589699
 21
116.9999995604157
 31
0.0
  0
ARC
  5
F0C5
  8
0
 10
211.00000461936
 20
126.16100812924989
 30
0.0
 40
1.00000000000001
 50
0.0
 51
69.999999999996632
  0
ARC
  5
F0C6
  8
0
 10
179.00000461935991
 20
126.16100812924989
 30
0.0
 40
1.00000000000001
 50
110.0000000000033
 51
180.0
  0
LINE
  5
F0C7
  8
0
 10
178.000003695488
 20
126.1610090136528
 30
0.0
 11
178.000003695488
 21
120.00000005215399
 31
0.0
  0
LINE
  5
F0C8
  8
0
 10
212.00000554323199
 20
120.00000005215399
 30
0.0
 11
212.00000554323199
 21
126.1610090136528
 31
0.0
  0
LINE
  5
F0C9
  8
0
 10
178.000003695488
 20
120.00000005215399
 30
0.0
 11
178.50000470876691
 21
119.49999997019771
 31
0.0
  0
LINE
  5
F0CA
  8
0
 10
211.500004529953
 20
119.49999997019771
 30
0.0
 11
212.00000554323199
 21
120.00000005215399
 31
0.0
  0
LINE
  5
F0CB
  8
0
 10
208.1712341308594
 20
128.25477489829061
 30
0.0
 11
204.75000482052559
 21
129.49999974668029
 31
0.0
  0
LINE
  5
F0CC
  8
0
 10
210.07728729397061
 20
127.5610271245241
 30
0.0
 11
208.1712341308594
 21
128.25477489829061
 31
0.0
  0
LINE
  5
F0CD
  8
0
 10
211.34202428162101
 20
127.1007004529238
 30
0.0
 11
210.07728729397061
 21
127.5610271245241
 31
0.0
  0
LINE
  5
F0CE
  8
0
 10
185.25000441819429
 20
129.49999974668029
 30
0.0
 11
178.6579849570989
 21
127.1007004529238
 31
0.0
  0
ARC
  5
F0D1
  8
0
 10
185.60000461935999
 20
119.0999998658895
 30
0.0
 40
0.4000000000000199
 50
0.0
 51
90.0
  0
ARC
  5
F0D2
  8
0
 10
204.40000461936
 20
119.0999998658895
 30
0.0
 40
0.4000000000000057
 50
90.0
 51
180.0
  0
LINE
  5
F0D3
  8
0
 10
186.0000050067901
 20
119.099999718368
 30
0.0
 11
186.0000050067901
 21
114.9999996982515
 31
0.0
  0
LINE
  5
F0D4
  8
0
 10
204.00000423192981
 20
114.9999996982515
 30
0.0
 11
204.00000423192981
 21
119.099999718368
 31
0.0
  0
LINE
  5
F0D5
  8
0
 10
186.0000050067901
 20
114.9999996982515
 30
0.0
 11
187.0000042393803
 21
114.0
 31
0.0
  0
LINE
  5
F0D6
  8
0
 10
203.00000499933961
 20
114.0
 30
0.0
 11
204.00000423192981
 21
114.9999996982515
 31
0.0
  0
ARC
  5
F0D7
  8
0
 10
203.65000461935989
 20
129.8999998658895
 30
0.0
 40
0.3999999999999915
 50
180.0
 51
270.0
  0
ARC
  5
F0D8
  8
0
 10
186.35000461935999
 20
129.8999998658895
 30
0.0
 40
0.4000000000000057
 50
270.0
 51
0.0
  0
LINE
  5
F0D9
  8
0
 10
186.7500046640634
 20
133.50000040233141
 30
0.0
 11
186.7500046640634
 21
129.89999906718731
 31
0.0
  0
LINE
  5
F0DA
  8
0
 10
203.25000457465649
 20
129.89999906718731
 30
0.0
 11
203.25000457465649
 21
133.50000040233141
 31
0.0
  0
LINE
  5
F0DC
  8
0
 10
185.6256487220526
 20
114.0
 30
0.0
 11
180.1256487518549
 21
114.0
 31
0.0
  0
LINE
  5
F0DD
  8
0
 10
185.6256487220526
 20
116.9999995604157
 30
0.0
 11
180.1256487518549
 21
116.9999995604157
 31
0.0
  0
LINE
  5
F0DE
  8
0
 10
209.87436048686499
 20
114.0
 30
0.0
 11
204.37436051666739
 21
114.0
 31
0.0
  0
LINE
  5
F0DF
  8
0
 10
209.87436048686499
 20
116.9999995604157
 30
0.0
 11
204.37436051666739
 21
116.9999995604157
 31
0.0
  0
LINE
  5
F107
  8
0
 10
211.500004529953
 20
119.49999997019771
 30
0.0
 11
178.50000470876691
 21
119.49999997019771
 31
0.0
  0
ARC
  5
F108
  8
0
 10
196.61289064918839
 20
129.33160872352261
 30
0.0
 40
1.768647301084538
 50
268.01719002445162
 51
287.67257845771923
  0
ARC
  5
F109
  8
0
 10
197.01966704656999
 20
128.03429374392391
 30
0.0
 40
0.4091164988280911
 50
288.54871538563992
 51
23.89557955573925
  0
ARC
  5
F10A
  8
0
 10
196.58805698153489
 20
127.9785638993812
 30
0.0
 40
0.8355401727764904
 50
15.369295962877221
 51
73.227392747728345
  0
ARC
  5
F10B
  8
0
 10
196.23124026700179
 20
126.933775378749
 30
0.0
 40
1.939264330015317
 50
72.041426883650999
 51
91.463009706490837
  0
ARC
  5
F10C
  8
0
 10
196.1303190629859
 20
127.3420456699312
 30
0.0
 40
1.531225102897769
 50
88.076012179687027
 51
110.2065367825664
  0
POLYLINE
  5
F10D
  8
0
 66
     1
 10
0.0
 20
0.0
 30
0.0
 70
   128
  0
VERTEX
  5
12F35
  8
0
 10
195.6014258461073
 20
128.7790294140577
 30
0.0
  0
VERTEX
  5
12F36
  8
0
 10
195.4138096328825
 20
128.64521326124671
 30
0.0
  0
VERTEX
  5
12F37
  8
0
 10
195.33938476466571
 20
128.48811776936051
 30
0.0
  0
VERTEX
  5
12F38
  8
0
 10
195.3595762164332
 20
128.200609177351
 30
0.0
  0
SEQEND
  5
12F39
  8
0
  0
ARC
  5
F10E
  8
0
 10
196.12155059350479
 20
128.41200752937721
 30
0.0
 40
0.7907554707702952
 50
195.505875874585
 51
255.38798890935519
  0
ARC
  5
F10F
  8
0
 10
196.50232028702459
 20
129.6237064462459
 30
0.0
 40
2.0602777957622971
 50
253.64192851034761
 51
271.37325869609202
  0
LINE
  5
F110
  8
0
 10
206.32578492164609
 20
128.87252116203311
 30
0.0
 11
207.97967970371249
 21
128.2572000622749
 31
0.0
  0
LINE
  5
F111
  8
0
 10
207.97967970371249
 20
128.2572000622749
 30
0.0
 11
207.73646015673879
 21
128.2586678266525
 31
0.0
  0
LINE
  5
F112
  8
0
 10
207.73646015673879
 20
128.2586678266525
 30
0.0
 11
208.08656014502051
 21
128.1283124685288
 31
0.0
  0
LINE
  5
F113
  8
0
 10
208.08656014502051
 20
128.1283124685288
 30
0.0
 11
208.32977969199419
 21
128.1268968582153
 31
0.0
  0
LINE
  5
F114
  8
0
 10
208.32977969199419
 20
128.1268968582153
 30
0.0
 11
209.49038363993171
 21
127.69497552514071
 31
0.0
  0
LINE
  5
F115
  8
0
 10
209.49038363993171
 20
127.69497552514071
 30
0.0
 11
209.16905965656039
 21
127.6897172778845
 31
0.0
  0
LINE
  5
F116
  8
0
 10
209.16905965656039
 20
127.6897172778845
 30
0.0
 11
209.5191587135196
 21
127.55955936014649
 31
0.0
  0
LINE
  5
F117
  8
0
 10
209.5191587135196
 20
127.55955936014649
 30
0.0
 11
209.93571601808071
 21
127.55566829442979
 31
0.0
  0
LINE
  5
F118
  8
0
 10
209.93571601808071
 20
127.55566829442979
 30
0.0
 11
206.4210173115134
 21
128.8606691509485
 31
0.0
  0
LINE
  5
F119
  8
0
 10
206.4210173115134
 20
128.8606691509485
 30
0.0
 11
206.32578492164609
 21
128.87252116203311
 31
0.0
  0
LINE
  5
F11A
  8
0
 10
185.25000441819429
 20
129.49999974668029
 30
0.0
 11
204.75000482052559
 21
129.49999974668029
 31
0.0
  0
LINE
  5
F122
  8
0
 10
192.95652316883189
 20
127.5610979050398
 30
0.0
 11
193.23331433348361
 21
128.53967206180101
 31
0.0
  0
LINE
  5
F123
  8
0
 10
193.23331433348361
 20
128.53967206180101
 30
0.0
 11
193.2353696459904
 21
128.53977823257449
 31
0.0
  0
LINE
  5
F124
  8
0
 10
193.2353696459904
 20
128.53977823257449
 30
0.0
 11
193.91158934682599
 21
127.5615076869726
 31
0.0
  0
LINE
  5
F125
  8
0
 10
193.91158934682599
 20
127.5615076869726
 30
0.0
 11
194.44050687830881
 21
127.55210319161409
 31
0.0
  0
LINE
  5
F126
  8
0
 10
194.44050687830881
 20
127.55210319161409
 30
0.0
 11
194.810475105769
 21
128.85674828290939
 31
0.0
  0
LINE
  5
F127
  8
0
 10
194.810475105769
 20
128.85674828290939
 30
0.0
 11
194.37267935369161
 21
128.86753486096859
 31
0.0
  0
LINE
  5
F128
  8
0
 10
194.37267935369161
 20
128.86753486096859
 30
0.0
 11
194.09588836366299
 21
127.8887502253055
 31
0.0
  0
LINE
  5
F129
  8
0
 10
194.09588836366299
 20
127.8887502253055
 30
0.0
 11
194.07807507319359
 21
127.889079913497
 31
0.0
  0
LINE
  5
F12A
  8
0
 10
194.07807507319359
 20
127.889079913497
 30
0.0
 11
193.4018553141504
 21
128.8695036768913
 31
0.0
  0
LINE
  5
F12B
  8
0
 10
193.4018553141504
 20
128.8695036768913
 30
0.0
 11
192.88869564421469
 21
128.85856436192989
 31
0.0
  0
LINE
  5
F12C
  8
0
 10
192.88869564421469
 20
128.85856436192989
 30
0.0
 11
192.51872751861799
 21
127.553474098444
 31
0.0
  0
LINE
  5
F12D
  8
0
 10
192.51872751861799
 20
127.553474098444
 30
0.0
 11
192.95652316883189
 21
127.5610979050398
 31
0.0
  0
LINE
  5
F12E
  8
0
 10
202.45649818331
 20
128.31709714233881
 30
0.0
 11
203.60365103930241
 21
127.5891567915678
 31
0.0
  0
LINE
  5
F12F
  8
0
 10
205.64898163080221
 20
128.31709714233881
 30
0.0
 11
202.45649818331
 21
128.31709714233881
 31
0.0
  0
LINE
  5
F130
  8
0
 10
207.28728514164689
 20
127.5891567915678
 30
0.0
 11
205.64898163080221
 21
128.31709714233881
 31
0.0
  0
POLYLINE
  5
F131
  8
0
 66
     1
 10
0.0
 20
0.0
 30
0.0
 70
   128
  0
VERTEX
  5
12F3A
  8
0
 10
205.9355104714632
 20
128.86305147409439
 30
0.0
  0
VERTEX
  5
12F3B
  8
0
 10
206.61393705755469
 20
128.27556574344641
 30
0.0
  0
VERTEX
  5
12F3C
  8
0
 10
207.28728514164689
 20
127.5891567915678
 30
0.0
  0
SEQEND
  5
12F3D
  8
0
  0
LINE
  5
F132
  8
0
 10
198.55875744484359
 20
128.86305147409439
 30
0.0
 11
205.9355104714632
 21
128.86305147409439
 31
0.0
  0
POLYLINE
  5
F133
  8
0
 66
     1
 10
0.0
 20
0.0
 30
0.0
 70
   128
  0
VERTEX
  5
12F3E
  8
0
 10
203.60365103930241
 20
127.5891567915678
 30
0.0
  0
VERTEX
  5
12F3F
  8
0
 10
201.09427779912949
 20
128.27464745938781
 30
0.0
  0
VERTEX
  5
12F40
  8
0
 10
198.55875744484359
 20
128.86305147409439
 30
0.0
  0
SEQEND
  5
12F41
  8
0
  0
ARC
  5
F146
  8
0
 10
196.5227788352384
 20
128.89610820595689
 30
0.0
 40
1.2047446910126509
 50
251.9859842247356
 51
269.6483288838765
  0
ARC
  5
F147
  8
0
 10
196.3937053861797
 20
128.3242299691255
 30
0.0
 40
0.6233362200003948
 50
190.56131436493621
 51
247.006336619053
  0
POLYLINE
  5
F148
  8
0
 66
     1
 10
0.0
 20
0.0
 30
0.0
 70
   128
  0
VERTEX
  5
12F42
  8
0
 10
195.780928900931
 20
128.20998014509681
 30
0.0
  0
VERTEX
  5
12F43
  8
0
 10
195.74504719581449
 20
128.4451148808003
 30
0.0
  0
VERTEX
  5
12F44
  8
0
 10
195.76818584697321
 20
128.5648140460253
 30
0.0
  0
VERTEX
  5
12F45
  8
0
 10
195.83266695495689
 20
128.65070992708209
 30
0.0
  0
VERTEX
  5
12F46
  8
0
 10
195.88712348137051
 20
128.6821700036526
 30
0.0
  0
SEQEND
  5
12F47
  8
0
  0
ARC
  5
F149
  8
0
 10
196.2077102506172
 20
127.8869698703797
 30
0.0
 40
0.8573908843538948
 50
89.309723231401165
 51
111.956941728055
  0
ARC
  5
F14A
  8
0
 10
196.2236375847028
 20
127.57119632662931
 30
0.0
 40
1.1731155630029431
 50
71.199081171756291
 51
90.273415132558938
  0
ARC
  5
F14B
  8
0
 10
196.33383038128861
 20
128.08989783438781
 30
0.0
 40
0.6496246832956514
 50
10.60283814421445
 51
65.64676133774357
  0
POLYLINE
  5
F14C
  8
0
 66
     1
 10
0.0
 20
0.0
 30
0.0
 70
   128
  0
VERTEX
  5
12F48
  8
0
 10
196.9723635260016
 20
128.20942880213261
 30
0.0
  0
VERTEX
  5
12F49
  8
0
 10
197.00763806700709
 20
127.97888921201231
 30
0.0
  0
VERTEX
  5
12F4A
  8
0
 10
196.98378899134681
 20
127.86240124702449
 30
0.0
  0
VERTEX
  5
12F4B
  8
0
 10
196.91589056979851
 20
127.77737335860731
 30
0.0
  0
VERTEX
  5
12F4C
  8
0
 10
196.86479879543171
 20
127.7500148266554
 30
0.0
  0
SEQEND
  5
12F4D
  8
0
  0
ARC
  5
F14D
  8
0
 10
196.53203545683289
 20
128.66268229575209
 30
0.0
 40
0.9714388033545658
 50
269.01786574822057
 51
290.03212040301349
  0
LINE
  5
F15E
  8
0
 10
186.0000050067901
 20
114.9999996982515
 30
0.0
 11
204.00000423192981
 21
114.9999996982515
 31
0.0
  0
LINE
  5
F15F
  8
0
 10
203.00000499933961
 20
114.0
 30
0.0
 11
187.0000042393803
 21
114.0
 31
0.0
  0
LINE
  5
F16D
  8
0
 10
178.6579849570989
 20
127.1007004529238
 30
0.0
 11
211.34202428162101
 21
127.1007004529238
 31
0.0
  0
LINE
  5
F16E
  8
0
 10
212.00000554323199
 20
126.1610090136528
 30
0.0
 11
178.000003695488
 21
126.1610090136528
 31
0.0
  0
LINE
  5
F175
  8
0
 10
356.75000786781322
 20
114.0
 30
0.0
 11
356.75000786781322
 21
116.9999995604157
 31
0.0
  0
LINE
  5
F176
  8
0
 10
351.2500078976156
 20
116.9999995604157
 30
0.0
 11
351.2500078976156
 21
114.0
 31
0.0
  0
LINE
  5
F177
  8
0
 10
355.50000812858349
 20
116.9999995604157
 30
0.0
 11
355.50000812858349
 21
119.49999997019771
 31
0.0
  0
LINE
  5
F178
  8
0
 10
352.5000085681678
 20
119.49999997019771
 30
0.0
 11
352.5000085681678
 21
116.9999995604157
 31
0.0
  0
LINE
  5
F179
  8
0
 10
377.75000851601368
 20
114.0
 30
0.0
 11
377.75000851601368
 21
116.9999995604157
 31
0.0
  0
LINE
  5
F17A
  8
0
 10
372.25000854581612
 20
116.9999995604157
 30
0.0
 11
372.25000854581612
 21
114.0
 31
0.0
  0
LINE
  5
F17B
  8
0
 10
376.50000877678411
 20
116.9999995604157
 30
0.0
 11
376.50000877678411
 21
119.49999997019771
 31
0.0
  0
LINE
  5
F17C
  8
0
 10
373.50000828504568
 20
119.49999997019771
 30
0.0
 11
373.50000828504568
 21
116.9999995604157
 31
0.0
  0
ARC
  5
F185
  8
0
 10
384.00000831484812
 20
126.16100812924989
 30
0.0
 40
1.0
 50
0.0
 51
69.999999999996632
  0
ARC
  5
F186
  8
0
 10
352.00000831484812
 20
126.16100812924989
 30
0.0
 40
1.00000000000001
 50
110.0000000000033
 51
180.0
  0
LINE
  5
F187
  8
0
 10
351.00000739097612
 20
126.1610090136528
 30
0.0
 11
351.00000739097612
 21
120.00000005215399
 31
0.0
  0
LINE
  5
F188
  8
0
 10
385.00000923872011
 20
120.00000005215399
 30
0.0
 11
385.00000923872011
 21
126.1610090136528
 31
0.0
  0
LINE
  5
F189
  8
0
 10
351.00000739097612
 20
120.00000005215399
 30
0.0
 11
351.50000840425503
 21
119.49999997019771
 31
0.0
  0
LINE
  5
F18A
  8
0
 10
384.50000822544109
 20
119.49999997019771
 30
0.0
 11
385.00000923872011
 21
120.00000005215399
 31
0.0
  0
LINE
  5
F18B
  8
0
 10
384.34202797710913
 20
127.1007004529238
 30
0.0
 11
377.75000851601368
 21
129.49999974668029
 31
0.0
  0
LINE
  5
F18C
  8
0
 10
358.25000811368238
 20
129.49999974668029
 30
0.0
 11
351.65798865258711
 21
127.1007004529238
 31
0.0
  0
ARC
  5
F18D
  8
0
 10
358.60000831484808
 20
119.0999998658895
 30
0.0
 40
0.3999999999999915
 50
0.0
 51
90.0
  0
ARC
  5
F18E
  8
0
 10
377.40000831484809
 20
119.0999998658895
 30
0.0
 40
0.3999999999999915
 50
90.0
 51
180.0
  0
LINE
  5
F18F
  8
0
 10
359.00000870227831
 20
114.9999996982515
 30
0.0
 11
360.00000793486851
 21
114.0
 31
0.0
  0
LINE
  5
F190
  8
0
 10
359.00000870227831
 20
119.099999718368
 30
0.0
 11
359.00000870227831
 21
114.9999996982515
 31
0.0
  0
LINE
  5
F191
  8
0
 10
377.00000792741793
 20
116.9999995604157
 30
0.0
 11
377.00000792741793
 21
119.099999718368
 31
0.0
  0
ARC
  5
F192
  8
0
 10
376.65000831484798
 20
129.8999998658895
 30
0.0
 40
0.3999999999999915
 50
180.0
 51
270.0
  0
ARC
  5
F193
  8
0
 10
359.35000831484808
 20
129.8999998658895
 30
0.0
 40
0.3999999999999915
 50
270.0
 51
0.0
  0
LINE
  5
F194
  8
0
 10
359.75000835955149
 20
131.60630868375301
 30
0.0
 11
359.75000835955149
 21
129.89999906718731
 31
0.0
  0
LINE
  5
F195
  8
0
 10
376.25000827014458
 20
129.89999906718731
 30
0.0
 11
376.25000827014458
 21
131.60630868375301
 31
0.0
  0
LINE
  5
F196
  8
0
 10
356.75000786781322
 20
114.0
 30
0.0
 11
351.2500078976156
 21
114.0
 31
0.0
  0
LINE
  5
F197
  8
0
 10
356.75000786781322
 20
116.9999995604157
 30
0.0
 11
351.2500078976156
 21
116.9999995604157
 31
0.0
  0
LINE
  5
F198
  8
0
 10
377.75000851601368
 20
114.0
 30
0.0
 11
372.25000854581612
 21
114.0
 31
0.0
  0
LINE
  5
F199
  8
0
 10
377.75000851601368
 20
116.9999995604157
 30
0.0
 11
372.25000854581612
 21
116.9999995604157
 31
0.0
  0
LINE
  5
F1C4
  8
0
 10
384.50000822544109
 20
119.49999997019771
 30
0.0
 11
351.50000840425503
 21
119.49999997019771
 31
0.0
  0
LINE
  5
F1C5
  8
0
 10
358.25000811368261
 20
129.49999974668029
 30
0.0
 11
377.75000851601368
 21
129.49999974668029
 31
0.0
  0
LINE
  5
F1C7
  8
0
 10
382.9379725828768
 20
127.5610979050398
 30
0.0
 11
380.26186838746082
 21
128.53967206180101
 31
0.0
  0
LINE
  5
F1C8
  8
0
 10
380.26186838746082
 20
128.53967206180101
 30
0.0
 11
380.26186838746082
 21
128.53977823257449
 31
0.0
  0
LINE
  5
F1C9
  8
0
 10
380.26186838746082
 20
128.53977823257449
 30
0.0
 11
383.03663037717359
 21
127.5615076869726
 31
0.0
  0
LINE
  5
F1CA
  8
0
 10
383.03663037717359
 20
127.5615076869726
 30
0.0
 11
383.09144057333481
 21
127.55210319161409
 31
0.0
  0
LINE
  5
F1CB
  8
0
 10
383.09144057333481
 20
127.55210319161409
 30
0.0
 11
379.5157663151623
 21
128.85674828290939
 31
0.0
  0
LINE
  5
F1CC
  8
0
 10
379.5157663151623
 20
128.85674828290939
 30
0.0
 11
379.47054781019699
 21
128.86753486096859
 31
0.0
  0
LINE
  5
F1CD
  8
0
 10
379.47054781019699
 20
128.86753486096859
 30
0.0
 11
382.14802198112022
 21
127.8887502253055
 31
0.0
  0
LINE
  5
F1CE
  8
0
 10
382.14802198112022
 20
127.8887502253055
 30
0.0
 11
382.1459665521981
 21
127.889079913497
 31
0.0
  0
LINE
  5
F1CF
  8
0
 10
382.1459665521981
 20
127.889079913497
 30
0.0
 11
379.37051910907041
 21
128.8695036768913
 31
0.0
  0
LINE
  5
F1D0
  8
0
 10
379.37051910907041
 20
128.8695036768913
 30
0.0
 11
379.31707981973898
 21
128.85856436192989
 31
0.0
  0
LINE
  5
F1D1
  8
0
 10
379.31707981973898
 20
128.85856436192989
 30
0.0
 11
382.89275407791149
 21
127.553474098444
 31
0.0
  0
LINE
  5
F1D2
  8
0
 10
382.89275407791149
 20
127.553474098444
 30
0.0
 11
382.9379725828768
 21
127.5610979050398
 31
0.0
  0
LINE
  5
F1D3
  8
0
 10
359.00000870227808
 20
114.9999996982514
 30
0.0
 11
372.25000854581612
 21
114.9999996982515
 31
0.0
  0
LINE
  5
F1D6
  8
0
 10
372.25000854581612
 20
114.0
 30
0.0
 11
360.00000793486851
 21
114.0
 31
0.0
  0
LINE
  5
F1E6
  8
0
 10
351.65798865258711
 20
127.1007004529237
 30
0.0
 11
384.34202797710913
 21
127.1007004529238
 31
0.0
  0
LINE
  5
F1E8
  8
0
 10
385.00000923872011
 20
126.1610090136528
 30
0.0
 11
351.00000739097612
 21
126.1610090136528
 31
0.0
  0
ARC
  5
F248
  8
0
 10
365.0699821276516
 20
208.4191446820339
 30
0.0
 40
0.8697374118813648
 50
99.897263912256122
 51
145.58018747357471
  0
ARC
  5
F249
  8
0
 10
366.40650400922129
 20
208.00117213465151
 30
0.0
 40
2.246377266161514
 50
156.11415020866579
 51
198.13183298768851
  0
ARC
  5
F24A
  8
0
 10
366.5023194277349
 20
207.49756600679919
 30
0.0
 40
2.2391929258300238
 50
185.00816844374481
 51
227.6475200707591
  0
ARC
  5
F24B
  8
0
 10
365.45921342032392
 20
206.56910362854649
 30
0.0
 40
0.8626536790898242
 50
237.34932449835739
 51
283.53520862707842
  0
ARC
  5
F24C
  8
0
 10
365.51236139090889
 20
206.5485120242096
 30
0.0
 40
0.831516101653762
 50
280.3051147394213
 51
327.10810335566322
  0
ARC
  5
F24D
  8
0
 10
364.09699933416329
 20
207.01172147315819
 30
0.0
 40
2.3030494938967832
 50
336.59680785358961
 51
18.001026632604511
  0
ARC
  5
F24E
  8
0
 10
364.0922589936427
 20
207.52965970524511
 30
0.0
 40
2.2035948936608478
 50
5.0450637699312519
 51
47.910627981518083
  0
ARC
  5
F24F
  8
0
 10
365.11563289243929
 20
208.46480542841661
 30
0.0
 40
0.834276491946084
 50
57.057964166762183
 51
103.52719651395481
  0
LINE
  5
F250
  8
0
 10
369.83820787630992
 20
205.8257792741062
 30
0.0
 11
370.19858431071049
 21
207.47967405617251
 31
0.0
  0
LINE
  5
F251
  8
0
 10
370.19858431071049
 20
207.47967405617251
 30
0.0
 11
371.31396998651343
 21
207.23645450919881
 31
0.0
  0
LINE
  5
F252
  8
0
 10
371.31396998651343
 20
207.23645450919881
 30
0.0
 11
371.39070421457302
 21
207.58655449748059
 31
0.0
  0
LINE
  5
F253
  8
0
 10
371.39070421457302
 20
207.58655449748059
 30
0.0
 11
370.27531853877019
 21
207.8297740444543
 31
0.0
  0
LINE
  5
F254
  8
0
 10
370.27531853877019
 20
207.8297740444543
 30
0.0
 11
370.52813000977051
 21
208.9903779923917
 31
0.0
  0
LINE
  5
F255
  8
0
 10
370.52813000977051
 20
208.9903779923917
 30
0.0
 11
372.00320713222038
 21
208.6690540090205
 31
0.0
  0
LINE
  5
F256
  8
0
 10
372.00320713222038
 20
208.6690540090205
 30
0.0
 11
372.07925613969581
 21
209.01915306597959
 31
0.0
  0
LINE
  5
F257
  8
0
 10
372.07925613969581
 20
209.01915306597959
 30
0.0
 11
370.16638336703193
 21
209.43571037054079
 31
0.0
  0
LINE
  5
F258
  8
0
 10
370.16638336703193
 20
209.43571037054079
 30
0.0
 11
369.40041210968059
 21
205.9210116639735
 31
0.0
  0
LINE
  5
F259
  8
0
 10
369.40041210968059
 20
205.9210116639735
 30
0.0
 11
369.83820787630992
 21
205.8257792741062
 31
0.0
  0
LINE
  5
F25A
  8
0
 10
367.48797356616723
 20
205.97239459306019
 30
0.0
 11
367.50304632354539
 21
207.6742478311063
 31
0.0
  0
LINE
  5
F25B
  8
0
 10
367.50304632354539
 20
207.6742478311063
 30
0.0
 11
368.64994783885788
 21
207.6639706864955
 31
0.0
  0
LINE
  5
F25C
  8
0
 10
368.64994783885788
 20
207.6639706864955
 30
0.0
 11
368.6533734179103
 21
208.0140706747772
 31
0.0
  0
LINE
  5
F25D
  8
0
 10
368.6533734179103
 20
208.0140706747772
 30
0.0
 11
367.50647196080553
 21
208.02434781938811
 31
0.0
  0
LINE
  5
F25E
  8
0
 10
367.50647196080553
 20
208.02434781938811
 30
0.0
 11
367.51674887258571
 21
209.2281148433687
 31
0.0
  0
LINE
  5
F25F
  8
0
 10
367.51674887258571
 20
209.2281148433687
 30
0.0
 11
369.03361851349479
 21
209.21441229432841
 31
0.0
  0
LINE
  5
F260
  8
0
 10
369.03361851349479
 20
209.21441229432841
 30
0.0
 11
369.03635904658603
 21
209.56451135128751
 31
0.0
  0
LINE
  5
F261
  8
0
 10
369.03635904658603
 20
209.56451135128751
 30
0.0
 11
367.08169363904761
 21
209.58163930475729
 31
0.0
  0
LINE
  5
F262
  8
0
 10
367.08169363904761
 20
209.58163930475729
 30
0.0
 11
367.05017779953789
 21
205.97581999748959
 31
0.0
  0
LINE
  5
F263
  8
0
 10
367.05017779953789
 20
205.97581999748959
 30
0.0
 11
367.48797356616723
 21
205.97239459306019
 31
0.0
  0
LINE
  5
F264
  8
0
 10
382.3826705664398
 20
192.0714992228896
 30
0.0
 11
382.89275407791149
 21
192.0187218710781
 31
0.0
  0
LINE
  5
F265
  8
0
 10
382.89275407791149
 20
192.0187218710781
 30
0.0
 11
382.91834309697163
 21
192.26646787859511
 31
0.0
  0
LINE
  5
F266
  8
0
 10
378.64898532629019
 20
201.95649253577011
 30
0.0
 11
380.28728883713501
 21
203.1036453917624
 31
0.0
  0
ARC
  5
F267
  8
0
 10
368.00000831484812
 20
194.49999897181999
 30
0.0
 40
13.0
 50
34.999999999998913
 51
55.00000000000275
  0
LINE
  5
F268
  8
0
 10
376.60365473479038
 20
206.78727949410691
 30
0.0
 11
375.45650187879812
 21
205.1489759832622
 31
0.0
  0
POLYLINE
  5
F269
  8
0
 66
     1
 10
0.0
 20
0.0
 30
0.0
 70
   128
  0
VERTEX
  5
12F4E
  8
0
 10
371.55876114033168
 20
205.43550482392331
 30
0.0
  0
VERTEX
  5
12F4F
  8
0
 10
374.09068565815699
 20
206.1139314100148
 30
0.0
  0
VERTEX
  5
12F50
  8
0
 10
376.60365473479038
 20
206.78727949410691
 30
0.0
  0
SEQEND
  5
12F51
  8
0
  0
ARC
  5
F26A
  8
0
 10
368.00000831484812
 20
194.49999897181999
 30
0.0
 40
11.500000000000011
 50
20.471487962050841
 51
71.973504762730244
  0
POLYLINE
  5
F26B
  8
0
 66
     1
 10
0.0
 20
0.0
 30
0.0
 70
   128
  0
VERTEX
  5
12F52
  8
0
 10
380.28728883713501
 20
203.1036453917624
 30
0.0
  0
VERTEX
  5
12F53
  8
0
 10
379.61490467190748
 20
200.59427215158959
 30
0.0
  0
VERTEX
  5
12F54
  8
0
 10
379.01165375637311
 20
198.34291124513319
 30
0.0
  0
SEQEND
  5
12F55
  8
0
  0
ARC
  5
F26C
  8
0
 10
365.06825650847969
 20
208.40659467419439
 30
0.0
 40
0.5293999753870785
 50
54.98940165098238
 51
98.16014684321263
  0
ARC
  5
F26D
  8
0
 10
363.57456979198201
 20
207.39298710879649
 30
0.0
 40
2.3076244475713161
 50
6.0386102343366952
 51
38.839649568968142
  0
ARC
  5
F26E
  8
0
 10
364.07978801145038
 20
206.9347409593266
 30
0.0
 40
1.9219996178412719
 50
341.2266359135503
 51
21.39077992482915
  0
ARC
  5
F26F
  8
0
 10
365.47387230228412
 20
206.55487196767771
 30
0.0
 40
0.4880132603567872
 50
283.58347630681328
 51
330.71958396414692
  0
ARC
  5
F270
  8
0
 10
365.49671248864189
 20
206.60879832239689
 30
0.0
 40
0.5362017427307291
 50
235.25461904858929
 51
279.85518338880399
  0
ARC
  5
F271
  8
0
 10
366.84838087933969
 20
207.56232258201581
 30
0.0
 40
2.1656625772333018
 50
184.56956173381991
 51
220.0710559175171
  0
ARC
  5
F272
  8
0
 10
366.43675754930132
 20
208.07618307147871
 30
0.0
 40
1.877150316352993
 50
160.84216603755451
 51
201.44816296241731
  0
ARC
  5
F273
  8
0
 10
365.10109692512651
 20
208.4344227776468
 30
0.0
 40
0.5078253923794162
 50
102.2770724056285
 51
149.4938758456104
  0
LINE
  5
F27A
  8
0
 10
446.87436603009701
 20
114.0
 30
0.0
 11
446.87436603009701
 21
116.9999995604157
 31
0.0
  0
LINE
  5
F27B
  8
0
 10
441.37436605989927
 20
116.9999995604157
 30
0.0
 11
441.37436605989927
 21
114.0
 31
0.0
  0
LINE
  5
F27C
  8
0
 10
445.6243653595447
 20
116.9999995604157
 30
0.0
 11
445.6243653595447
 21
119.49999997019771
 31
0.0
  0
LINE
  5
F27D
  8
0
 10
442.62436579912901
 20
119.49999997019771
 30
0.0
 11
442.62436579912901
 21
116.9999995604157
 31
0.0
  0
LINE
  5
F27E
  8
0
 10
422.62565426528448
 20
114.0
 30
0.0
 11
422.62565426528448
 21
116.9999995604157
 31
0.0
  0
LINE
  5
F27F
  8
0
 10
417.1256542950868
 20
116.9999995604157
 30
0.0
 11
417.1256542950868
 21
114.0
 31
0.0
  0
LINE
  5
F280
  8
0
 10
421.3756545260548
 20
116.9999995604157
 30
0.0
 11
421.3756545260548
 21
119.49999997019771
 31
0.0
  0
LINE
  5
F281
  8
0
 10
418.37565496563911
 20
119.49999997019771
 30
0.0
 11
418.37565496563911
 21
116.9999995604157
 31
0.0
  0
ARC
  5
F28A
  8
0
 10
448.00001016259188
 20
126.16100812924989
 30
0.0
 40
1.0
 50
0.0
 51
69.999999999996632
  0
ARC
  5
F28B
  8
0
 10
416.00001016259188
 20
126.16100812924989
 30
0.0
 40
1.00000000000001
 50
110.0000000000033
 51
180.0
  0
LINE
  5
F28C
  8
0
 10
415.00000923871988
 20
126.1610090136528
 30
0.0
 11
415.00000923871988
 21
120.00000005215399
 31
0.0
  0
LINE
  5
F28D
  8
0
 10
449.00001108646393
 20
120.00000005215399
 30
0.0
 11
449.00001108646393
 21
126.1610090136528
 31
0.0
  0
LINE
  5
F28E
  8
0
 10
415.00000923871988
 20
120.00000005215399
 30
0.0
 11
415.5000102519989
 21
119.49999997019771
 31
0.0
  0
LINE
  5
F28F
  8
0
 10
448.50001007318491
 20
119.49999997019771
 30
0.0
 11
449.00001108646393
 21
120.00000005215399
 31
0.0
  0
LINE
  5
F290
  8
0
 10
445.17123967409128
 20
128.25477489829061
 30
0.0
 11
441.75001036375761
 21
129.49999974668029
 31
0.0
  0
LINE
  5
F291
  8
0
 10
447.07729283720249
 20
127.5610271245241
 30
0.0
 11
445.17123967409128
 21
128.25477489829061
 31
0.0
  0
LINE
  5
F292
  8
0
 10
448.34202982485289
 20
127.1007004529238
 30
0.0
 11
447.07729283720249
 21
127.5610271245241
 31
0.0
  0
LINE
  5
F293
  8
0
 10
422.2500099614262
 20
129.49999974668029
 30
0.0
 11
415.65799050033092
 21
127.1007004529238
 31
0.0
  0
ARC
  5
F296
  8
0
 10
422.60001016259179
 20
119.0999998658895
 30
0.0
 40
0.4000000000000057
 50
0.0
 51
90.0
  0
ARC
  5
F297
  8
0
 10
441.4000101625918
 20
119.0999998658895
 30
0.0
 40
0.3999999999999915
 50
90.0
 51
180.0
  0
LINE
  5
F298
  8
0
 10
423.00001055002213
 20
114.9999996982515
 30
0.0
 11
424.00000978261232
 21
114.0
 31
0.0
  0
LINE
  5
F299
  8
0
 10
440.00001054257149
 20
114.0
 30
0.0
 11
441.00000977516169
 21
114.9999996982515
 31
0.0
  0
LINE
  5
F29A
  8
0
 10
423.00001055002213
 20
119.099999718368
 30
0.0
 11
423.00001055002213
 21
114.9999996982515
 31
0.0
  0
LINE
  5
F29B
  8
0
 10
441.00000977516169
 20
114.9999996982515
 30
0.0
 11
441.00000977516169
 21
119.099999718368
 31
0.0
  0
ARC
  5
F29C
  8
0
 10
440.65001016259191
 20
129.8999998658895
 30
0.0
 40
0.4000000000000341
 50
180.0
 51
270.0
  0
ARC
  5
F29D
  8
0
 10
423.3500101625919
 20
129.8999998658895
 30
0.0
 40
0.4000000000000057
 50
270.0
 51
0.0
  0
LINE
  5
F29E
  8
0
 10
423.75001020729542
 20
131.60630868375301
 30
0.0
 11
423.75001020729542
 21
129.89999906718731
 31
0.0
  0
LINE
  5
F29F
  8
0
 10
440.25001011788839
 20
129.89999906718731
 30
0.0
 11
440.25001011788839
 21
131.60630868375301
 31
0.0
  0
LINE
  5
F2A1
  8
0
 10
446.87436603009701
 20
114.0
 30
0.0
 11
441.37436605989927
 21
114.0
 31
0.0
  0
LINE
  5
F2A2
  8
0
 10
446.87436603009701
 20
116.9999995604157
 30
0.0
 11
441.37436605989927
 21
116.9999995604157
 31
0.0
  0
LINE
  5
F2A3
  8
0
 10
422.62565426528448
 20
116.9999995604157
 30
0.0
 11
417.1256542950868
 21
116.9999995604157
 31
0.0
  0
LINE
  5
F2A4
  8
0
 10
422.62565426528448
 20
114.0
 30
0.0
 11
417.1256542950868
 21
114.0
 31
0.0
  0
LINE
  5
F2CE
  8
0
 10
448.50001007318491
 20
119.49999997019771
 30
0.0
 11
415.5000102519989
 21
119.49999997019771
 31
0.0
  0
ARC
  5
F2CF
  8
0
 10
433.61289619242029
 20
129.33160872352261
 30
0.0
 40
1.768647301084538
 50
268.01719002445162
 51
287.67257845771911
  0
ARC
  5
F2D0
  8
0
 10
434.01967258980193
 20
128.03429374392391
 30
0.0
 40
0.4091164988280698
 50
288.54871538563981
 51
23.895579555739261
  0
ARC
  5
F2D1
  8
0
 10
433.58806252476688
 20
127.9785638993812
 30
0.0
 40
0.8355401727765102
 50
15.36929596287723
 51
73.227392747728317
  0
ARC
  5
F2D2
  8
0
 10
433.2312458102337
 20
126.933775378749
 30
0.0
 40
1.939264330015317
 50
72.041426883650999
 51
91.463009706490837
  0
ARC
  5
F2D3
  8
0
 10
433.13032460621781
 20
127.3420456699312
 30
0.0
 40
1.5312251028977699
 50
88.076012179687027
 51
110.2065367825663
  0
POLYLINE
  5
F2D4
  8
0
 66
     1
 10
0.0
 20
0.0
 30
0.0
 70
   128
  0
VERTEX
  5
12F56
  8
0
 10
432.60143138933921
 20
128.7790294140577
 30
0.0
  0
VERTEX
  5
12F57
  8
0
 10
432.41381517611438
 20
128.64521326124671
 30
0.0
  0
VERTEX
  5
12F58
  8
0
 10
432.3393903078977
 20
128.48811776936051
 30
0.0
  0
VERTEX
  5
12F59
  8
0
 10
432.3595817596651
 20
128.200609177351
 30
0.0
  0
SEQEND
  5
12F5A
  8
0
  0
ARC
  5
F2D5
  8
0
 10
433.12155613673667
 20
128.41200752937729
 30
0.0
 40
0.7907554707703235
 50
195.50587587458671
 51
255.38798890935519
  0
ARC
  5
F2D6
  8
0
 10
433.50232583025661
 20
129.6237064462459
 30
0.0
 40
2.0602777957623002
 50
253.64192851034761
 51
271.37325869609202
  0
LINE
  5
F2D7
  8
0
 10
443.32579046487808
 20
128.87252116203311
 30
0.0
 11
444.97968524694443
 21
128.2572000622749
 31
0.0
  0
LINE
  5
F2D8
  8
0
 10
444.97968524694443
 20
128.2572000622749
 30
0.0
 11
444.73646569997072
 21
128.2586678266525
 31
0.0
  0
LINE
  5
F2D9
  8
0
 10
444.73646569997072
 20
128.2586678266525
 30
0.0
 11
445.08656568825239
 21
128.1283124685288
 31
0.0
  0
LINE
  5
F2DA
  8
0
 10
445.08656568825239
 20
128.1283124685288
 30
0.0
 11
445.3297852352261
 21
128.1268968582153
 31
0.0
  0
LINE
  5
F2DB
  8
0
 10
445.3297852352261
 20
128.1268968582153
 30
0.0
 11
446.49038918316359
 21
127.69497552514071
 31
0.0
  0
LINE
  5
F2DC
  8
0
 10
446.49038918316359
 20
127.69497552514071
 30
0.0
 11
446.16906519979239
 21
127.6897172778845
 31
0.0
  0
LINE
  5
F2DD
  8
0
 10
446.16906519979239
 20
127.6897172778845
 30
0.0
 11
446.51916425675148
 21
127.55955936014649
 31
0.0
  0
LINE
  5
F2DE
  8
0
 10
446.51916425675148
 20
127.55955936014649
 30
0.0
 11
446.93572156131262
 21
127.55566829442979
 31
0.0
  0
LINE
  5
F2DF
  8
0
 10
446.93572156131262
 20
127.55566829442979
 30
0.0
 11
443.42102285474539
 21
128.8606691509485
 31
0.0
  0
LINE
  5
F2E0
  8
0
 10
443.42102285474539
 20
128.8606691509485
 30
0.0
 11
443.32579046487808
 21
128.87252116203311
 31
0.0
  0
LINE
  5
F2E1
  8
0
 10
422.2500099614262
 20
129.49999974668029
 30
0.0
 11
441.75001036375761
 21
129.49999974668029
 31
0.0
  0
LINE
  5
F2E9
  8
0
 10
429.95652871206403
 20
127.5610979050398
 30
0.0
 11
430.23331987671548
 21
128.53967206180101
 31
0.0
  0
LINE
  5
F2EA
  8
0
 10
430.23331987671548
 20
128.53967206180101
 30
0.0
 11
430.2353751892224
 21
128.53977823257449
 31
0.0
  0
LINE
  5
F2EB
  8
0
 10
430.2353751892224
 20
128.53977823257449
 30
0.0
 11
430.91159489005798
 21
127.5615076869726
 31
0.0
  0
LINE
  5
F2EC
  8
0
 10
430.91159489005798
 20
127.5615076869726
 30
0.0
 11
431.44051242154092
 21
127.55210319161409
 31
0.0
  0
LINE
  5
F2ED
  8
0
 10
431.44051242154092
 20
127.55210319161409
 30
0.0
 11
431.81048064900091
 21
128.85674828290939
 31
0.0
  0
LINE
  5
F2EE
  8
0
 10
431.81048064900091
 20
128.85674828290939
 30
0.0
 11
431.3726848969236
 21
128.86753486096859
 31
0.0
  0
LINE
  5
F2EF
  8
0
 10
431.3726848969236
 20
128.86753486096859
 30
0.0
 11
431.09589390689501
 21
127.8887502253055
 31
0.0
  0
LINE
  5
F2F0
  8
0
 10
431.09589390689501
 20
127.8887502253055
 30
0.0
 11
431.07808061642572
 21
127.889079913497
 31
0.0
  0
LINE
  5
F2F1
  8
0
 10
431.07808061642572
 20
127.889079913497
 30
0.0
 11
430.40186085738242
 21
128.8695036768913
 31
0.0
  0
LINE
  5
F2F2
  8
0
 10
430.40186085738242
 20
128.8695036768913
 30
0.0
 11
429.88870118744671
 21
128.85856436192989
 31
0.0
  0
LINE
  5
F2F3
  8
0
 10
429.88870118744671
 20
128.85856436192989
 30
0.0
 11
429.51873306185001
 21
127.553474098444
 31
0.0
  0
LINE
  5
F2F4
  8
0
 10
429.51873306185001
 20
127.553474098444
 30
0.0
 11
429.95652871206403
 21
127.5610979050398
 31
0.0
  0
LINE
  5
F2F5
  8
0
 10
439.456503726542
 20
128.31709714233881
 30
0.0
 11
440.60365658253431
 21
127.5891567915678
 31
0.0
  0
LINE
  5
F2F6
  8
0
 10
442.64898717403412
 20
128.31709714233881
 30
0.0
 11
439.456503726542
 21
128.31709714233881
 31
0.0
  0
LINE
  5
F2F7
  8
0
 10
444.28729068487883
 20
127.5891567915678
 30
0.0
 11
442.64898717403412
 21
128.31709714233881
 31
0.0
  0
POLYLINE
  5
F2F8
  8
0
 66
     1
 10
0.0
 20
0.0
 30
0.0
 70
   128
  0
VERTEX
  5
12F5B
  8
0
 10
442.93551601469511
 20
128.86305147409439
 30
0.0
  0
VERTEX
  5
12F5C
  8
0
 10
443.61394260078669
 20
128.27556574344641
 30
0.0
  0
VERTEX
  5
12F5D
  8
0
 10
444.28729068487883
 20
127.5891567915678
 30
0.0
  0
SEQEND
  5
12F5E
  8
0
  0
LINE
  5
F2F9
  8
0
 10
435.55876298807561
 20
128.86305147409439
 30
0.0
 11
442.93551601469511
 21
128.86305147409439
 31
0.0
  0
POLYLINE
  5
F2FA
  8
0
 66
     1
 10
0.0
 20
0.0
 30
0.0
 70
   128
  0
VERTEX
  5
12F5F
  8
0
 10
440.60365658253431
 20
127.5891567915678
 30
0.0
  0
VERTEX
  5
12F60
  8
0
 10
438.09428334236139
 20
128.27464745938781
 30
0.0
  0
VERTEX
  5
12F61
  8
0
 10
435.55876298807561
 20
128.86305147409439
 30
0.0
  0
SEQEND
  5
12F62
  8
0
  0
ARC
  5
F30D
  8
0
 10
433.52278437847042
 20
128.89610820595689
 30
0.0
 40
1.2047446910126509
 50
251.9859842247356
 51
269.6483288838765
  0
ARC
  5
F30E
  8
0
 10
433.39371092941178
 20
128.3242299691255
 30
0.0
 40
0.6233362200004532
 50
190.5613143649347
 51
247.0063366190393
  0
POLYLINE
  5
F30F
  8
0
 66
     1
 10
0.0
 20
0.0
 30
0.0
 70
   128
  0
VERTEX
  5
12F63
  8
0
 10
432.78093444416299
 20
128.20998014509681
 30
0.0
  0
VERTEX
  5
12F64
  8
0
 10
432.74505273904651
 20
128.4451148808003
 30
0.0
  0
VERTEX
  5
12F65
  8
0
 10
432.76819139020512
 20
128.5648140460253
 30
0.0
  0
VERTEX
  5
12F66
  8
0
 10
432.83267249818891
 20
128.65070992708209
 30
0.0
  0
VERTEX
  5
12F67
  8
0
 10
432.88712902460242
 20
128.6821700036526
 30
0.0
  0
SEQEND
  5
12F68
  8
0
  0
ARC
  5
F310
  8
0
 10
433.20771579384899
 20
127.8869698703797
 30
0.0
 40
0.8573908843538948
 50
89.309723231401165
 51
111.9569417280549
  0
ARC
  5
F311
  8
0
 10
433.22364312793479
 20
127.57119632662931
 30
0.0
 40
1.173115563002944
 50
71.199081171756276
 51
90.273415132558938
  0
ARC
  5
F312
  8
0
 10
433.3338359245206
 20
128.08989783438781
 30
0.0
 40
0.6496246832956455
 50
10.60283814421445
 51
65.646761337743399
  0
POLYLINE
  5
F313
  8
0
 66
     1
 10
0.0
 20
0.0
 30
0.0
 70
   128
  0
VERTEX
  5
12F69
  8
0
 10
433.97236906923348
 20
128.20942880213261
 30
0.0
  0
VERTEX
  5
12F6A
  8
0
 10
434.00764361023897
 20
127.97888921201231
 30
0.0
  0
VERTEX
  5
12F6B
  8
0
 10
433.98379453457892
 20
127.86240124702449
 30
0.0
  0
VERTEX
  5
12F6C
  8
0
 10
433.91589611303061
 20
127.77737335860731
 30
0.0
  0
VERTEX
  5
12F6D
  8
0
 10
433.86480433866382
 20
127.7500148266554
 30
0.0
  0
SEQEND
  5
12F6E
  8
0
  0
ARC
  5
F314
  8
0
 10
433.53204100006491
 20
128.66268229575209
 30
0.0
 40
0.971438803354566
 50
269.01786574822057
 51
290.03212040301349
  0
LINE
  5
F325
  8
0
 10
423.00001055002213
 20
114.9999996982515
 30
0.0
 11
441.00000977516169
 21
114.9999996982515
 31
0.0
  0
LINE
  5
F326
  8
0
 10
440.00001054257149
 20
114.0
 30
0.0
 11
424.00000978261232
 21
114.0
 31
0.0
  0
LINE
  5
F334
  8
0
 10
415.65799050033092
 20
127.1007004529238
 30
0.0
 11
448.34202982485289
 21
127.1007004529238
 31
0.0
  0
LINE
  5
F335
  8
0
 10
449.00001108646393
 20
126.1610090136528
 30
0.0
 11
415.00000923871988
 21
126.1610090136528
 31
0.0
  0
LINE
  5
F338
  8
0
 10
306.75000645220291
 20
114.0
 30
0.0
 11
306.75000645220291
 21
116.9999995604157
 31
0.0
  0
LINE
  5
F339
  8
0
 10
301.25000648200529
 20
116.9999995604157
 30
0.0
 11
301.25000648200529
 21
114.0
 31
0.0
  0
LINE
  5
F33A
  8
0
 10
305.50000648014259
 20
116.9999995604157
 30
0.0
 11
305.50000648014259
 21
119.49999997019771
 31
0.0
  0
LINE
  5
F33B
  8
0
 10
302.50000645406561
 20
119.49999997019771
 30
0.0
 11
302.50000645406561
 21
116.9999995604157
 31
0.0
  0
LINE
  5
F33C
  8
0
 10
294.62565056979662
 20
114.0
 30
0.0
 11
294.62565056979662
 21
116.9999995604157
 31
0.0
  0
LINE
  5
F33D
  8
0
 10
289.12565059959888
 20
116.9999995604157
 30
0.0
 11
289.12565059959888
 21
114.0
 31
0.0
  0
LINE
  5
F33E
  8
0
 10
293.37565083056688
 20
116.9999995604157
 30
0.0
 11
293.37565083056688
 21
119.49999997019771
 31
0.0
  0
LINE
  5
F33F
  8
0
 10
290.37565127015108
 20
119.49999997019771
 30
0.0
 11
290.37565127015108
 21
116.9999995604157
 31
0.0
  0
LINE
  5
F340
  8
0
 10
318.87436233460897
 20
114.0
 30
0.0
 11
318.87436233460897
 21
116.9999995604157
 31
0.0
  0
LINE
  5
F341
  8
0
 10
313.37436236441141
 20
116.9999995604157
 30
0.0
 11
313.37436236441141
 21
114.0
 31
0.0
  0
LINE
  5
F342
  8
0
 10
317.62436166405678
 20
116.9999995604157
 30
0.0
 11
317.62436166405678
 21
119.49999997019771
 31
0.0
  0
LINE
  5
F343
  8
0
 10
314.62436210364098
 20
119.49999997019771
 30
0.0
 11
314.62436210364098
 21
116.9999995604157
 31
0.0
  0
ARC
  5
F34C
  8
0
 10
320.00000646710401
 20
126.16100812924989
 30
0.0
 40
1.00000000000001
 50
0.0
 51
69.999999999996632
  0
ARC
  5
F34D
  8
0
 10
288.0000064671039
 20
126.16100812924989
 30
0.0
 40
1.0
 50
110.0000000000033
 51
180.0
  0
LINE
  5
F34E
  8
0
 10
287.00000554323202
 20
126.1610090136528
 30
0.0
 11
287.00000554323202
 21
120.00000005215399
 31
0.0
  0
LINE
  5
F34F
  8
0
 10
321.00000739097601
 20
120.00000005215399
 30
0.0
 11
321.00000739097601
 21
126.1610090136528
 31
0.0
  0
LINE
  5
F350
  8
0
 10
287.00000554323202
 20
120.00000005215399
 30
0.0
 11
287.50000655651093
 21
119.49999997019771
 31
0.0
  0
LINE
  5
F351
  8
0
 10
320.50000637769699
 20
119.49999997019771
 30
0.0
 11
321.00000739097601
 21
120.00000005215399
 31
0.0
  0
LINE
  5
F352
  8
0
 10
320.34202612936502
 20
127.1007004529238
 30
0.0
 11
313.75000666826958
 21
129.49999974668029
 31
0.0
  0
LINE
  5
F353
  8
0
 10
288.92272379249329
 20
127.5610271245241
 30
0.0
 11
287.65798680484301
 21
127.1007004529238
 31
0.0
  0
LINE
  5
F355
  8
0
 10
294.25000626593828
 20
129.49999974668029
 30
0.0
 11
290.82877695560461
 21
128.25477489829061
 31
0.0
  0
ARC
  5
F356
  8
0
 10
294.60000646710398
 20
119.0999998658895
 30
0.0
 40
0.4000000000000057
 50
0.0
 51
90.0
  0
ARC
  5
F357
  8
0
 10
313.40000646710388
 20
119.0999998658895
 30
0.0
 40
0.3999999999999915
 50
90.0
 51
180.0
  0
LINE
  5
F358
  8
0
 10
295.00000685453421
 20
114.9999996982515
 30
0.0
 11
296.0000060871244
 21
114.0
 31
0.0
  0
LINE
  5
F359
  8
0
 10
312.00000684708363
 20
114.0
 30
0.0
 11
313.00000607967382
 21
114.9999996982515
 31
0.0
  0
LINE
  5
F35A
  8
0
 10
295.00000685453421
 20
119.099999718368
 30
0.0
 11
295.00000685453421
 21
114.9999996982515
 31
0.0
  0
LINE
  5
F35B
  8
0
 10
313.00000607967382
 20
114.9999996982515
 30
0.0
 11
313.00000607967382
 21
119.099999718368
 31
0.0
  0
ARC
  5
F35C
  8
0
 10
312.65000646710388
 20
129.8999998658895
 30
0.0
 40
0.3999999999999772
 50
180.0
 51
270.0
  0
ARC
  5
F35D
  8
0
 10
295.35000646710398
 20
129.8999998658895
 30
0.0
 40
0.4000000000000057
 50
270.0
 51
0.0
  0
LINE
  5
F35E
  8
0
 10
295.75000651180738
 20
131.60630868375301
 30
0.0
 11
295.75000651180738
 21
129.89999906718731
 31
0.0
  0
LINE
  5
F35F
  8
0
 10
312.25000642240047
 20
129.89999906718731
 30
0.0
 11
312.25000642240047
 21
131.60630868375301
 31
0.0
  0
LINE
  5
F361
  8
0
 10
292.421875
 20
128.73632268607619
 30
0.0
 11
292.41949640214438
 21
128.7433299571276
 31
0.0
  0
LINE
  5
F363
  8
0
 10
306.75000645220291
 20
114.0
 30
0.0
 11
301.25000648200529
 21
114.0
 31
0.0
  0
LINE
  5
F364
  8
0
 10
306.75000645220291
 20
116.9999995604157
 30
0.0
 11
301.25000648200529
 21
116.9999995604157
 31
0.0
  0
LINE
  5
F365
  8
0
 10
294.62565056979668
 20
114.0
 30
0.0
 11
289.12565059959888
 21
114.0
 31
0.0
  0
LINE
  5
F367
  8
0
 10
294.62565056979668
 20
116.9999995604157
 30
0.0
 11
289.12565059959888
 21
116.9999995604157
 31
0.0
  0
LINE
  5
F36A
  8
0
 10
318.87436233460897
 20
114.0
 30
0.0
 11
313.37436236441152
 21
114.0
 31
0.0
  0
LINE
  5
F36C
  8
0
 10
318.87436233460897
 20
116.9999995604157
 30
0.0
 11
313.37436236441152
 21
116.9999995604157
 31
0.0
  0
LINE
  5
F396
  8
0
 10
320.50000637769699
 20
119.49999997019771
 30
0.0
 11
287.50000655651093
 21
119.49999997019771
 31
0.0
  0
ARC
  5
F397
  8
0
 10
289.03697552956697
 20
129.2218042017831
 30
0.0
 40
1.677123765959073
 50
276.40496605452671
 51
289.22583466516892
  0
ARC
  5
F398
  8
0
 10
281.20837395133191
 20
154.42879767546981
 30
0.0
 40
28.070876783832151
 50
287.37118687812318
 51
290.84668475605753
  0
ARC
  5
F399
  8
0
 10
284.8425190599865
 20
146.2460074468288
 30
0.0
 40
19.136614336935509
 50
289.3966906478766
 51
294.10214350150233
  0
POLYLINE
  5
F39A
  8
0
 66
     1
 10
0.0
 20
0.0
 30
0.0
 70
   128
  0
VERTEX
  5
12F6F
  8
0
 10
292.65723511576653
 20
128.77774418890479
 30
0.0
  0
VERTEX
  5
12F70
  8
0
 10
292.76959080249071
 20
128.8402061313391
 30
0.0
  0
VERTEX
  5
12F71
  8
0
 10
292.78337996453052
 20
128.8616228252649
 30
0.0
  0
SEQEND
  5
12F72
  8
0
  0
LINE
  5
F39B
  8
0
 10
292.78337996453052
 20
128.8616228252649
 30
0.0
 11
292.76959639042622
 21
128.87346924841401
 31
0.0
  0
ARC
  5
F39C
  8
0
 10
293.0003511453765
 20
127.23916896908131
 30
0.0
 40
1.650510575536924
 50
98.036742235282347
 51
111.2161230225192
  0
ARC
  5
F39D
  8
0
 10
308.82260245671472
 20
80.347009835747116
 30
0.0
 40
51.13847993810257
 50
108.7282587891012
 51
110.66392039310411
  0
ARC
  5
F39E
  8
0
 10
301.22915109027019
 20
99.015400148260042
 30
0.0
 40
30.9957874203992
 50
109.7079615384587
 51
112.5650799233609
  0
POLYLINE
  5
F39F
  8
0
 66
     1
 10
0.0
 20
0.0
 30
0.0
 70
   128
  0
VERTEX
  5
12F73
  8
0
 10
289.3350575491786
 20
127.63828219473361
 30
0.0
  0
VERTEX
  5
12F74
  8
0
 10
289.25859875977039
 20
127.6018469929695
 30
0.0
  0
VERTEX
  5
12F75
  8
0
 10
289.20380532741552
 20
127.5660991072655
 30
0.0
  0
SEQEND
  5
12F76
  8
0
  0
LINE
  5
F3A0
  8
0
 10
289.20775599777699
 20
127.5639645159244
 30
0.0
 11
289.2240671813488
 21
127.5551486164331
 31
0.0
  0
LINE
  5
F3A1
  8
0
 10
294.25000626593828
 20
129.49999974668029
 30
0.0
 11
313.75000666826958
 21
129.49999974668029
 31
0.0
  0
LINE
  5
F3AB
  8
0
 10
295.00000685453421
 20
114.9999996982515
 30
0.0
 11
301.25000648200512
 21
114.9999996982515
 31
0.0
  0
LINE
  5
F3AC
  8
0
 10
306.7500064522028
 20
114.9999996982515
 30
0.0
 11
313.00000607967382
 21
114.9999996982515
 31
0.0
  0
LINE
  5
F3AD
  8
0
 10
312.00000684708363
 20
114.0
 30
0.0
 11
306.7500064522028
 21
114.0
 31
0.0
  0
LINE
  5
F3AE
  8
0
 10
301.25000648200512
 20
114.0
 30
0.0
 11
296.0000060871244
 21
114.0
 31
0.0
  0
ARC
  5
F3BB
  8
0
 10
281.92485429889791
 20
152.00036238479461
 30
0.0
 40
25.506708694611788
 50
288.00220666640388
 51
291.10730001220873
  0
LINE
  5
F3BC
  8
0
 10
289.56937085837131
 20
127.6835779994726
 30
0.0
 11
289.57190591841942
 21
127.69759812951089
 31
0.0
  0
POLYLINE
  5
F3BD
  8
0
 66
     1
 10
0.0
 20
0.0
 30
0.0
 70
   128
  0
VERTEX
  5
12F77
  8
0
 10
289.57190591841942
 20
127.69759812951089
 30
0.0
  0
VERTEX
  5
12F78
  8
0
 10
289.62809633463621
 20
127.7274507433176
 30
0.0
  0
VERTEX
  5
12F79
  8
0
 10
289.65980786830193
 20
127.7423798441887
 30
0.0
  0
SEQEND
  5
12F7A
  8
0
  0
ARC
  5
F3BE
  8
0
 10
302.4031375207295
 20
96.377986919173026
 30
0.0
 40
33.854358569986459
 50
109.927985011937
 51
112.111870899449
  0
ARC
  5
F3BF
  8
0
 10
303.64845479122289
 20
94.785209654712929
 30
0.0
 40
35.781724658777193
 50
108.6874162610105
 51
110.9334179751414
  0
ARC
  5
F3C0
  8
0
 10
292.60385092625847
 20
127.57753450172309
 30
0.0
 40
1.1802820147757409
 50
98.986127325933381
 51
110.84733759593951
  0
ARC
  5
F3C1
  8
0
 10
292.28042549858321
 20
128.8640025537008
 30
0.0
 40
0.1905521189798385
 50
285.64106688981428
 51
317.92890580853162
  0
ARC
  5
F3C2
  8
0
 10
283.45467937127569
 20
149.67714715233419
 30
0.0
 40
22.796100268056001
 50
289.6228205715426
 51
292.91804254208682
  0
ARC
  5
F3C3
  8
0
 10
289.41780479227089
 20
128.8115480883711
 30
0.0
 40
1.1381075493303761
 50
277.65303073932353
 51
290.03935636764442
  0
LINE
  5
F3CD
  8
0
 10
288.92272379249329
 20
127.5610271245241
 30
0.0
 11
290.82877695560461
 21
128.25477489829061
 31
0.0
  0
LINE
  5
F3D4
  8
0
 10
287.65798680484301
 20
127.1007004529238
 30
0.0
 11
320.34202612936502
 21
127.1007004529238
 31
0.0
  0
LINE
  5
F3D5
  8
0
 10
321.00000739097601
 20
126.1610090136528
 30
0.0
 11
287.00000554323202
 21
126.1610090136528
 31
0.0
  0
POLYLINE
  5
F3D9
  8
0
 66
     1
 10
0.0
 20
0.0
 30
0.0
 70
   128
  0
VERTEX
  5
12F7B
  8
0
 10
368.00000831484812
 20
70.080292604863644
 30
0.0
  0
VERTEX
  5
12F7C
  8
0
 10
368.3224639715628
 20
70.115361789241433
 30
0.0
  0
VERTEX
  5
12F7D
  8
0
 10
368.58144481433573
 20
70.197566606104374
 30
0.0
  0
SEQEND
  5
12F7E
  8
0
  0
POLYLINE
  5
F3DA
  8
0
 66
     1
 10
0.0
 20
0.0
 30
0.0
 70
   128
  0
VERTEX
  5
12F7F
  8
0
 10
367.41857181536051
 20
70.197566606104374
 30
0.0
  0
VERTEX
  5
12F80
  8
0
 10
367.67755265813332
 20
70.115361789241433
 30
0.0
  0
VERTEX
  5
12F81
  8
0
 10
368.00000831484812
 20
70.080292604863644
 30
0.0
  0
SEQEND
  5
12F82
  8
0
  0
POLYLINE
  5
F3DB
  8
0
 66
     1
 10
0.0
 20
0.0
 30
0.0
 70
   128
  0
VERTEX
  5
12F83
  8
0
 10
371.0803009197117
 20
67.0
 30
0.0
  0
VERTEX
  5
12F84
  8
0
 10
371.11537010408949
 20
66.677544343285263
 30
0.0
  0
VERTEX
  5
12F85
  8
0
 10
371.19757492095238
 20
66.418563500512391
 30
0.0
  0
SEQEND
  5
12F86
  8
0
  0
POLYLINE
  5
F3DC
  8
0
 66
     1
 10
0.0
 20
0.0
 30
0.0
 70
   128
  0
VERTEX
  5
12F87
  8
0
 10
371.19757492095238
 20
67.581436499487609
 30
0.0
  0
VERTEX
  5
12F88
  8
0
 10
371.11537010408949
 20
67.322455656714723
 30
0.0
  0
VERTEX
  5
12F89
  8
0
 10
371.0803009197117
 20
67.0
 30
0.0
  0
SEQEND
  5
12F8A
  8
0
  0
POLYLINE
  5
F3DD
  8
0
 66
     1
 10
0.0
 20
0.0
 30
0.0
 70
   128
  0
VERTEX
  5
12F8B
  8
0
 10
364.91971570998442
 20
67.000000000000014
 30
0.0
  0
VERTEX
  5
12F8C
  8
0
 10
364.88464652560663
 20
67.322455656714723
 30
0.0
  0
VERTEX
  5
12F8D
  8
0
 10
364.80244170874369
 20
67.581436499487609
 30
0.0
  0
SEQEND
  5
12F8E
  8
0
  0
POLYLINE
  5
F3DE
  8
0
 66
     1
 10
0.0
 20
0.0
 30
0.0
 70
   128
  0
VERTEX
  5
12F8F
  8
0
 10
364.80244170874369
 20
66.418563500512391
 30
0.0
  0
VERTEX
  5
12F90
  8
0
 10
364.88464652560663
 20
66.677544343285263
 30
0.0
  0
VERTEX
  5
12F91
  8
0
 10
364.91971570998442
 20
67.000000000000014
 30
0.0
  0
SEQEND
  5
12F92
  8
0
  0
POLYLINE
  5
F3DF
  8
0
 66
     1
 10
0.0
 20
0.0
 30
0.0
 70
   128
  0
VERTEX
  5
12F93
  8
0
 10
368.00000831484812
 20
63.919707395136363
 30
0.0
  0
VERTEX
  5
12F94
  8
0
 10
367.67755265813332
 20
63.884638210758567
 30
0.0
  0
VERTEX
  5
12F95
  8
0
 10
367.41857181536051
 20
63.802433393895633
 30
0.0
  0
SEQEND
  5
12F96
  8
0
  0
POLYLINE
  5
F3E0
  8
0
 66
     1
 10
0.0
 20
0.0
 30
0.0
 70
   128
  0
VERTEX
  5
12F97
  8
0
 10
368.58144481433573
 20
63.802433393895633
 30
0.0
  0
VERTEX
  5
12F98
  8
0
 10
368.3224639715628
 20
63.884638210758567
 30
0.0
  0
VERTEX
  5
12F99
  8
0
 10
368.00000831484812
 20
63.919707395136363
 30
0.0
  0
SEQEND
  5
12F9A
  8
0
  0
LINE
  5
F495
  8
1
 10
131.00000277161601
 20
216.49999897181991
 30
0.0
 11
131.00000277161601
 21
172.49999897181991
 31
0.0
  0
LINE
  5
F496
  8
1
 10
153.00000277161601
 20
194.49999897181991
 30
0.0
 11
109.000002771616
 21
194.49999897181991
 31
0.0
  0
LINE
  5
F583
  8
1
 10
131.0000027716161
 20
89.0
 30
0.0
 11
131.0000027716161
 21
44.999999999999993
 31
0.0
  0
LINE
  5
F584
  8
1
 10
153.0000027716161
 20
67.0
 30
0.0
 11
109.0000027716161
 21
67.0
 31
0.0
  0
LINE
  5
F585
  8
1
 10
135.6250027716161
 20
75.010734985005968
 30
0.0
 11
140.37500277161621
 21
83.237976320958126
 31
0.0
  0
LINE
  5
F587
  8
1
 10
135.62500277161621
 20
58.989265014994032
 30
0.0
 11
140.37500277161621
 21
50.762023679041867
 31
0.0
  0
CIRCLE
  5
F588
  8
1
 10
131.0000027716161
 20
67.000000000000014
 30
0.0
 40
14.0
  0
CIRCLE
  5
F65C
  8
0
 10
368.00000831484812
 20
194.49999897181991
 30
0.0
 40
3.0
  0
LINE
  5
F65D
  8
0
 10
368.00000831484812
 20
193.34529844485229
 30
0.0
 11
369.00000836234551
 21
193.92264870833611
 31
0.0
  0
LINE
  5
F65E
  8
0
 10
369.00000836234551
 20
193.92264870833611
 30
0.0
 11
369.00000836234551
 21
195.07734923530381
 31
0.0
  0
LINE
  5
F65F
  8
0
 10
369.00000836234551
 20
195.07734923530381
 30
0.0
 11
368.00000831484812
 21
195.65469949878761
 31
0.0
  0
LINE
  5
F660
  8
0
 10
368.00000831484812
 20
195.65469949878761
 30
0.0
 11
367.00000826735061
 21
195.07734923530381
 31
0.0
  0
LINE
  5
F661
  8
0
 10
367.00000826735061
 20
195.07734923530381
 30
0.0
 11
367.00000826735061
 21
193.92264870833611
 31
0.0
  0
LINE
  5
F662
  8
0
 10
367.00000826735061
 20
193.92264870833611
 30
0.0
 11
368.00000831484812
 21
193.34529844485229
 31
0.0
  0
CIRCLE
  5
F663
  8
0
 10
368.00000831484812
 20
194.49999897181991
 30
0.0
 40
8.0828465813086012
  0
CIRCLE
  5
F664
  8
0
 10
368.00000831484812
 20
194.49999897181991
 30
0.0
 40
3.3014213562372978
  0
ARC
  5
F665
  8
0
 10
381.89429227469623
 20
186.5805414666722
 30
0.0
 40
4.9927774113793353
 50
109.99844834837459
 51
150.318821407608
  0
ARC
  5
F666
  8
0
 10
354.1057258461592
 20
202.41945470983291
 30
0.0
 40
4.9927752408310013
 50
289.99843920341777
 51
330.3188305525498
  0
ARC
  5
F667
  8
0
 10
381.89429275111718
 20
202.41945704156211
 30
0.0
 40
4.9927781048632314
 50
209.6811815141819
 51
250.00154872984501
  0
ARC
  5
F668
  8
0
 10
354.10572326089732
 20
186.58054017007879
 30
0.0
 40
4.9927790039679563
 50
29.681185302286899
 51
70.001544941742083
  0
ARC
  5
F669
  8
0
 10
368.00000831484817
 20
194.4999989718201
 30
0.0
 40
11.000000000000011
 50
29.682743255589578
 51
150.31725674441029
  0
ARC
  5
F66A
  8
0
 10
368.00000831484817
 20
194.4999989718201
 30
0.0
 40
11.000000000000011
 50
209.68274325560381
 51
330.31725674441037
  0
LINE
  5
F66B
  8
0
 10
384.63199898600601
 20
196.1098098326475
 30
0.0
 11
380.18678888678568
 21
197.7277341429145
 31
0.0
  0
LINE
  5
F66C
  8
0
 10
351.36801764369028
 20
192.8901881109924
 30
0.0
 11
355.81322774291061
 21
191.2722638007254
 31
0.0
  0
LINE
  5
F66D
  8
0
 10
380.18678888678568
 20
191.2722638007254
 30
0.0
 11
384.63199898600601
 21
192.8901881109924
 31
0.0
  0
LINE
  5
F66E
  8
0
 10
355.81322774291061
 20
197.7277341429145
 30
0.0
 11
351.36801764369028
 21
196.1098098326475
 31
0.0
  0
ARC
  5
F66F
  8
0
 10
384.46132029145872
 20
193.3593177727162
 30
0.0
 40
0.4992132372859209
 50
289.99239240226723
 51
356.04384007033588
  0
ARC
  5
F670
  8
0
 10
384.46132362169942
 20
195.6406826787896
 30
0.0
 40
0.4992097419602727
 50
3.955899151022519
 51
70.007868376373494
  0
ARC
  5
F671
  8
0
 10
351.53869633823763
 20
195.64068017092379
 30
0.0
 40
0.4992132372859409
 50
109.9923924022672
 51
176.04384007033579
  0
ARC
  5
F672
  8
0
 10
351.53869300799693
 20
193.35931526485041
 30
0.0
 40
0.4992097419602823
 50
183.95589915102249
 51
250.00786837637349
  0
ARC
  5
F673
  8
0
 10
368.00000831484817
 20
194.4999989718201
 30
0.0
 40
16.999999999999979
 50
356.03627341760398
 51
3.9637265823959908
  0
ARC
  5
F674
  8
0
 10
368.00000831484817
 20
194.4999989718201
 30
0.0
 40
17.000000000000021
 50
176.03627341760389
 51
183.96372658239599
  0
ARC
  5
F675
  8
0
 10
368.00000831484817
 20
194.49999897181991
 30
0.0
 40
17.00000000000005
 50
183.96372658239599
 51
356.03627341760398
  0
ARC
  5
F676
  8
0
 10
368.00000831484817
 20
194.49999897181991
 30
0.0
 40
17.000000000000028
 50
3.9637265823959908
 51
176.03627341760389
  0
LINE
  5
F677
  8
1
 10
390.00000831484812
 20
194.49999897181991
 30
0.0
 11
346.000008314848
 21
194.49999897181991
 31
0.0
  0
LINE
  5
F678
  8
1
 10
368.00000831484812
 20
172.49999897181991
 30
0.0
 11
368.00000831484812
 21
216.49999897181999
 31
0.0
  0
LINE
  5
F699
  8
0
 10
376.25000827014458
 20
79.846043333411245
 30
0.0
 11
375.0000085309149
 21
80.567731715738802
 31
0.0
  0
LINE
  5
F69A
  8
0
 10
373.75000832602387
 20
79.846043333411245
 30
0.0
 11
375.0000085309149
 21
80.567731715738802
 31
0.0
  0
LINE
  5
F69B
  8
0
 10
373.75000832602387
 20
79.846043333411245
 30
0.0
 11
373.75000832602387
 21
78.402667500078707
 31
0.0
  0
LINE
  5
F69C
  8
0
 10
373.75000832602387
 20
78.402667500078707
 30
0.0
 11
375.0000085309149
 21
77.680980049073725
 31
0.0
  0
LINE
  5
F69D
  8
0
 10
376.25000827014458
 20
78.402667500078707
 30
0.0
 11
375.0000085309149
 21
77.680980049073725
 31
0.0
  0
LINE
  5
F69E
  8
0
 10
376.25000827014458
 20
78.402667500078707
 30
0.0
 11
376.25000827014458
 21
79.846043333411245
 31
0.0
  0
CIRCLE
  5
F69F
  8
0
 10
375.000008314848
 20
79.124355652982103
 30
0.0
 40
2.7499999999999978
  0
LINE
  5
F6A0
  8
0
 10
352.75000814348471
 20
67.721687858458637
 30
0.0
 11
352.75000814348471
 21
66.27831214154142
 31
0.0
  0
LINE
  5
F6A1
  8
0
 10
354.00000788271439
 20
65.556624283082812
 30
0.0
 11
352.75000814348471
 21
66.27831214154142
 31
0.0
  0
LINE
  5
F6A2
  8
0
 10
354.00000788271439
 20
65.556624283082812
 30
0.0
 11
355.25000855326658
 21
66.27831214154142
 31
0.0
  0
LINE
  5
F6A3
  8
0
 10
355.25000855326658
 20
66.27831214154142
 30
0.0
 11
355.25000855326658
 21
67.721687858458637
 31
0.0
  0
LINE
  5
F6A4
  8
0
 10
354.00000788271439
 20
68.443375716917245
 30
0.0
 11
355.25000855326658
 21
67.721687858458637
 31
0.0
  0
LINE
  5
F6A5
  8
0
 10
354.00000788271439
 20
68.443375716917245
 30
0.0
 11
352.75000814348471
 21
67.721687858458637
 31
0.0
  0
CIRCLE
  5
F6A6
  8
0
 10
354.00000831484812
 20
67.000000000000014
 30
0.0
 40
2.75
  0
LINE
  5
F6A7
  8
0
 10
375.0000085309149
 20
53.432268284261262
 30
0.0
 11
376.25000827014458
 21
54.153956666588819
 31
0.0
  0
LINE
  5
F6A8
  8
0
 10
376.25000827014458
 20
55.59733249992135
 30
0.0
 11
376.25000827014458
 21
54.153956666588819
 31
0.0
  0
LINE
  5
F6A9
  8
0
 10
376.25000827014458
 20
55.59733249992135
 30
0.0
 11
375.0000085309149
 21
56.319019950926339
 31
0.0
  0
LINE
  5
F6AA
  8
0
 10
375.0000085309149
 20
56.319019950926339
 30
0.0
 11
373.75000832602387
 21
55.59733249992135
 31
0.0
  0
LINE
  5
F6AB
  8
0
 10
373.75000832602387
 20
54.153956666588819
 30
0.0
 11
373.75000832602387
 21
55.59733249992135
 31
0.0
  0
LINE
  5
F6AC
  8
0
 10
373.75000832602387
 20
54.153956666588819
 30
0.0
 11
375.0000085309149
 21
53.432268284261262
 31
0.0
  0
CIRCLE
  5
F6AD
  8
0
 10
375.000008314848
 20
54.875644347017818
 30
0.0
 40
2.749999999999996
  0
CIRCLE
  5
F6AE
  8
0
 10
368.00000831484812
 20
67.0
 30
0.0
 40
3.2500000000000142
  0
CIRCLE
  5
F6AF
  8
0
 10
368.00000831484812
 20
67.000000000000014
 30
0.0
 40
9.0
  0
CIRCLE
  5
F6B0
  8
0
 10
368.00000831484812
 20
67.000000000000014
 30
0.0
 40
8.0000000000000071
  0
CIRCLE
  5
F6B1
  8
0
 10
368.00000831484812
 20
67.000000000000014
 30
0.0
 40
4.0
  0
CIRCLE
  5
F6B2
  8
0
 10
368.00000831484812
 20
67.0
 30
0.0
 40
17.000000000000011
  0
LINE
  5
F6B3
  8
1
 10
368.00000831484812
 20
89.0
 30
0.0
 11
368.00000831484812
 21
44.999999999999993
 31
0.0
  0
LINE
  5
F6B4
  8
1
 10
390.00000831484812
 20
67.0
 30
0.0
 11
346.000008314848
 21
67.0
 31
0.0
  0
LINE
  5
F6B5
  8
1
 10
372.62500831484812
 20
75.010734985005996
 30
0.0
 11
377.37500831484817
 21
83.237976320958083
 31
0.0
  0
LINE
  5
F6B6
  8
1
 10
372.62500831484817
 20
58.989265014994018
 30
0.0
 11
377.37500831484817
 21
50.762023679041867
 31
0.0
  0
CIRCLE
  5
F6B7
  8
1
 10
368.00000831484812
 20
67.000000000000014
 30
0.0
 40
14.0
  0
LINE
  5
10AA1
  8
1
 10
54.875645041465653
 20
112.0
 30
0.0
 11
54.875645041465653
 21
121.49999997019761
 31
0.0
  0
LINE
  5
10AA2
  8
3
 10
56.105145041466471
 20
118.4999995604157
 30
0.0
 11
56.105145041466471
 21
119.49999997019771
 31
0.0
  0
LINE
  5
10AA3
  8
3
 10
56.105145041466471
 20
118.4999995604157
 30
0.0
 11
56.375645041465638
 21
118.03147981696959
 31
0.0
  0
LINE
  5
10AA4
  8
3
 10
53.64614504146482
 20
118.4999995604157
 30
0.0
 11
53.375645041465638
 21
118.03147981696959
 31
0.0
  0
LINE
  5
10AA5
  8
3
 10
53.646145041465047
 20
118.4999995604157
 30
0.0
 11
53.64614504146482
 21
119.49999997019771
 31
0.0
  0
LINE
  5
10AA6
  8
0
 10
53.375645041465638
 20
118.4999995604157
 30
0.0
 11
56.375645041465638
 21
118.4999995604157
 31
0.0
  0
LINE
  5
10AA7
  8
1
 10
67.000000923871994
 20
109.0
 30
0.0
 11
67.000000923871994
 21
152.49999897181991
 31
0.0
  0
LINE
  5
10AA8
  8
3
 10
68.22950092387282
 20
118.4999995604157
 30
0.0
 11
68.22950092387282
 21
119.49999997019771
 31
0.0
  0
LINE
  5
10AA9
  8
3
 10
68.22950092387282
 20
118.4999995604157
 30
0.0
 11
68.500000923871994
 21
118.03147981696959
 31
0.0
  0
LINE
  5
10AAA
  8
3
 10
65.770500923871168
 20
118.4999995604157
 30
0.0
 11
65.500000923871994
 21
118.03147981696959
 31
0.0
  0
LINE
  5
10AAB
  8
3
 10
65.770500923871396
 20
118.4999995604157
 30
0.0
 11
65.770500923871168
 21
119.49999997019771
 31
0.0
  0
LINE
  5
10AAC
  8
0
 10
65.500000923871994
 20
118.4999995604157
 30
0.0
 11
68.500000923871994
 21
118.4999995604157
 31
0.0
  0
LINE
  5
10AAD
  8
1
 10
79.124356806278215
 20
112.0
 30
0.0
 11
79.124356806278215
 21
121.49999997019761
 31
0.0
  0
LINE
  5
10AAE
  8
3
 10
80.353856806279055
 20
118.4999995604157
 30
0.0
 11
80.353856806279055
 21
119.49999997019761
 31
0.0
  0
LINE
  5
10AAF
  8
3
 10
80.353856806279055
 20
118.4999995604157
 30
0.0
 11
80.624356806278229
 21
118.03147981696959
 31
0.0
  0
LINE
  5
10AB0
  8
3
 10
77.894856806277403
 20
118.4999995604157
 30
0.0
 11
77.624356806278229
 21
118.03147981696959
 31
0.0
  0
LINE
  5
10AB1
  8
3
 10
77.89485680627763
 20
118.4999995604157
 30
0.0
 11
77.894856806277403
 21
119.49999997019761
 31
0.0
  0
LINE
  5
10AB2
  8
0
 10
77.624356806278229
 20
118.4999995604157
 30
0.0
 11
80.624356806278229
 21
118.4999995604157
 31
0.0
  0
LINE
  5
10B0A
  8
1
 10
195.00000461936
 20
109.0
 30
0.0
 11
195.00000461936
 21
152.49999897181991
 31
0.0
  0
LINE
  5
10B24
  8
0
 10
210.1831023022531
 20
144.88556788861749
 30
0.0
 11
203.08285079896439
 21
147.4698464721441
 31
0.0
  0
LINE
  5
10B25
  8
0
 10
186.9171584397553
 20
147.4698464721441
 30
0.0
 11
179.81690693646661
 21
144.88556788861749
 31
0.0
  0
ARC
  5
10B26
  8
0
 10
202.91184112900561
 20
146.99999986588961
 30
0.0
 40
0.5
 50
69.999999999999773
 51
90.0
  0
ARC
  5
10B27
  8
0
 10
187.08816810971399
 20
146.99999986588949
 30
0.0
 40
0.5
 50
90.0
 51
110.0000000000002
  0
ARC
  5
10B28
  8
0
 10
209.49906209252831
 20
143.0061808499191
 30
0.0
 40
2.0000000000000182
 50
2.9999999999990909
 51
69.999999999999773
  0
ARC
  5
10B29
  8
0
 10
180.50094714619141
 20
143.0061808499191
 30
0.0
 40
2.0000000000000031
 50
110.0000000000002
 51
177.00000000000091
  0
LINE
  5
10B2A
  8
0
 10
178.5036871582268
 20
143.11085449159151
 30
0.0
 11
178.00000369548781
 21
133.50000040233141
 31
0.0
  0
LINE
  5
10B2B
  8
0
 10
212.00000554323179
 20
133.50000040233141
 30
0.0
 11
211.4963220804928
 21
143.11085449159151
 31
0.0
  0
POLYLINE
  5
10B2C
  8
0
 66
     1
 10
0.0
 20
0.0
 30
0.0
 70
   128
  0
VERTEX
  5
12F9B
  8
0
 10
185.94703603535879
 20
146.32860751450059
 30
0.0
  0
VERTEX
  5
12F9C
  8
0
 10
185.7026923820375
 20
140.1275339871645
 30
0.0
  0
VERTEX
  5
12F9D
  8
0
 10
185.44341683387739
 20
133.50000040233141
 30
0.0
  0
SEQEND
  5
12F9E
  8
0
  0
LINE
  5
10B2D
  8
0
 10
204.05297320336089
 20
146.32860751450059
 30
0.0
 11
185.94703603535879
 21
146.32860751450059
 31
0.0
  0
POLYLINE
  5
10B2E
  8
0
 66
     1
 10
0.0
 20
0.0
 30
0.0
 70
   128
  0
VERTEX
  5
12F9F
  8
0
 10
204.55659240484221
 20
133.50000040233141
 30
0.0
  0
VERTEX
  5
12FA0
  8
0
 10
204.29731685668219
 20
140.1275339871645
 30
0.0
  0
VERTEX
  5
12FA1
  8
0
 10
204.05297320336089
 20
146.32860751450059
 30
0.0
  0
SEQEND
  5
12FA2
  8
0
  0
LINE
  5
10B2F
  8
0
 10
187.08816789090619
 20
147.49999897181991
 30
0.0
 11
202.91278668115899
 21
147.49999897181991
 31
0.0
  0
LINE
  5
10B30
  8
0
 10
212.00000554323179
 20
133.50000040233141
 30
0.0
 11
178.00000369548781
 21
133.50000040233141
 31
0.0
  0
LINE
  5
10B31
  8
1
 10
207.1243605017662
 20
112.0
 30
0.0
 11
207.1243605017662
 21
121.49999997019761
 31
0.0
  0
LINE
  5
10B32
  8
3
 10
208.353860501767
 20
118.4999995604157
 30
0.0
 11
208.353860501767
 21
119.49999997019771
 31
0.0
  0
LINE
  5
10B33
  8
3
 10
208.353860501767
 20
118.4999995604157
 30
0.0
 11
208.6243605017662
 21
118.03147981696959
 31
0.0
  0
LINE
  5
10B34
  8
3
 10
205.89486050176541
 20
118.4999995604157
 30
0.0
 11
205.6243605017662
 21
118.03147981696959
 31
0.0
  0
LINE
  5
10B35
  8
3
 10
205.89486050176561
 20
118.4999995604157
 30
0.0
 11
205.89486050176541
 21
119.49999997019771
 31
0.0
  0
LINE
  5
10B36
  8
0
 10
205.6243605017662
 20
118.4999995604157
 30
0.0
 11
208.6243605017662
 21
118.4999995604157
 31
0.0
  0
LINE
  5
10B37
  8
1
 10
182.87564873695371
 20
112.0
 30
0.0
 11
182.87564873695371
 21
121.49999997019761
 31
0.0
  0
LINE
  5
10B38
  8
3
 10
184.1051487369545
 20
118.4999995604157
 30
0.0
 11
184.1051487369545
 21
119.49999997019771
 31
0.0
  0
LINE
  5
10B39
  8
3
 10
184.1051487369545
 20
118.4999995604157
 30
0.0
 11
184.37564873695371
 21
118.03147981696959
 31
0.0
  0
LINE
  5
10B3A
  8
3
 10
181.64614873695291
 20
118.4999995604157
 30
0.0
 11
181.37564873695371
 21
118.03147981696959
 31
0.0
  0
LINE
  5
10B3B
  8
3
 10
181.64614873695311
 20
118.4999995604157
 30
0.0
 11
181.64614873695291
 21
119.49999997019771
 31
0.0
  0
LINE
  5
10B3C
  8
0
 10
181.37564873695371
 20
118.4999995604157
 30
0.0
 11
184.37564873695371
 21
118.4999995604157
 31
0.0
  0
LINE
  5
10C09
  8
1
 10
131.00000277161601
 20
152.49999897181991
 30
0.0
 11
131.00000277161601
 21
109.0
 31
0.0
  0
LINE
  5
10C4F
  8
1
 10
117.00000233948229
 20
112.0
 30
0.0
 11
117.00000233948229
 21
121.49999997019761
 31
0.0
  0
LINE
  5
10C50
  8
3
 10
118.2295023394831
 20
118.4999995604157
 30
0.0
 11
118.2295023394831
 21
119.49999997019771
 31
0.0
  0
LINE
  5
10C51
  8
3
 10
118.2295023394831
 20
118.4999995604157
 30
0.0
 11
118.50000233948229
 21
118.03147981696959
 31
0.0
  0
LINE
  5
10C52
  8
3
 10
115.7705023394814
 20
118.4999995604157
 30
0.0
 11
115.50000233948229
 21
118.03147981696959
 31
0.0
  0
LINE
  5
10C53
  8
3
 10
115.77050233948169
 20
118.4999995604157
 30
0.0
 11
115.7705023394814
 21
119.49999997019771
 31
0.0
  0
LINE
  5
10C54
  8
0
 10
115.50000233948229
 20
118.4999995604157
 30
0.0
 11
118.50000233948229
 21
118.4999995604157
 31
0.0
  0
LINE
  5
10C55
  8
1
 10
138.00000298768279
 20
112.0
 30
0.0
 11
138.00000298768279
 21
121.49999997019761
 31
0.0
  0
LINE
  5
10C56
  8
3
 10
139.22950298768359
 20
118.4999995604157
 30
0.0
 11
139.22950298768359
 21
119.49999997019771
 31
0.0
  0
LINE
  5
10C57
  8
3
 10
139.22950298768359
 20
118.4999995604157
 30
0.0
 11
139.50000298768279
 21
118.03147981696959
 31
0.0
  0
LINE
  5
10C58
  8
3
 10
136.77050298768199
 20
118.4999995604157
 30
0.0
 11
136.50000298768279
 21
118.03147981696959
 31
0.0
  0
LINE
  5
10C59
  8
3
 10
136.77050298768219
 20
118.4999995604157
 30
0.0
 11
136.77050298768199
 21
119.49999997019771
 31
0.0
  0
LINE
  5
10C5A
  8
0
 10
136.50000298768279
 20
118.4999995604157
 30
0.0
 11
139.50000298768279
 21
118.4999995604157
 31
0.0
  0
LINE
  5
10D09
  8
0
 10
313.99938318878412
 20
144.87859414517879
 30
0.0
 11
312.08285264670849
 21
145.57615475356579
 31
0.0
  0
LINE
  5
10D0A
  8
0
 10
295.91716028749943
 20
145.57615475356579
 30
0.0
 11
294.00062974542379
 21
144.87859414517879
 31
0.0
  0
LINE
  5
10D0B
  8
0
 10
293.67232549935579
 20
144.43491579592231
 30
0.0
 11
293.0000065267086
 21
131.60630868375301
 31
0.0
  0
LINE
  5
10D0C
  8
0
 10
315.00000640749931
 20
131.60630868375301
 30
0.0
 11
314.32768743485212
 21
144.43491579592231
 31
0.0
  0
ARC
  5
10D0D
  8
0
 10
294.17164009926393
 20
144.40874832584609
 30
0.0
 40
0.5000000000000096
 50
110.0000000000002
 51
177.00000000000091
  0
ARC
  5
10D0E
  8
0
 10
313.82837283494388
 20
144.40874832584609
 30
0.0
 40
0.5000000000000121
 50
2.9999999999990909
 51
69.999999999999773
  0
ARC
  5
10D0F
  8
0
 10
311.9118429767496
 20
145.10630814731121
 30
0.0
 40
0.5
 50
69.999999999999773
 51
90.0
  0
ARC
  5
10D10
  8
0
 10
296.08816995745809
 20
145.10630814731121
 30
0.0
 40
0.5
 50
90.0
 51
110.0000000000002
  0
LINE
  5
10D11
  8
0
 10
304.80486195534468
 20
141.21716277301309
 30
0.0
 11
303.19515097886318
 21
141.21716277301309
 31
0.0
  0
LINE
  5
10D12
  8
0
 10
302.39019560627639
 20
131.60630868375301
 30
0.0
 11
302.75031010620302
 21
141.21716277301309
 31
0.0
  0
ARC
  5
10D13
  8
0
 10
302.9727305425331
 20
136.75522631634539
 30
0.0
 40
4.467476669646774
 50
87.146258666947375
 51
92.853741333052611
  0
LINE
  5
10D14
  8
0
 10
305.24970282800501
 20
141.21716277301309
 30
0.0
 11
305.60981732793152
 21
131.60630868375301
 31
0.0
  0
ARC
  5
10D15
  8
0
 10
305.02728239167482
 20
136.75522631634539
 30
0.0
 40
4.467476669646774
 50
87.146258666947375
 51
92.853741333052611
  0
LINE
  5
10D16
  8
0
 10
302.45905596762901
 20
142.54819782078269
 30
0.0
 11
301.28820770420128
 21
143.720013961196
 31
0.0
  0
ARC
  5
10D17
  8
0
 10
300.6118988787311
 20
141.44662368491859
 30
0.0
 40
2.150687073441846
 50
353.87534649025707
 51
30.810240640894989
  0
LINE
  5
10D18
  8
0
 10
306.71180523000658
 20
143.720013961196
 30
0.0
 11
305.54095696657902
 21
142.54819782078269
 31
0.0
  0
ARC
  5
10D19
  8
0
 10
307.21152671877911
 20
141.48526413448391
 30
0.0
 40
1.98005841288456
 50
147.5326198730109
 51
187.78179299584039
  0
ARC
  5
10D1A
  8
0
 10
299.2413162409901
 20
141.17850133955949
 30
0.0
 40
3.2632883826140922
 50
51.152616516027472
 51
93.719534584131409
  0
ARC
  5
10D1B
  8
0
 10
308.69086620076189
 20
141.39279820412449
 30
0.0
 40
3.0549329789585911
 50
84.750056970005446
 51
130.3777919298326
  0
LINE
  5
10D1C
  8
0
 10
293.0000065267086
 20
131.60630868375301
 30
0.0
 11
315.00000640749931
 21
131.60630868375301
 31
0.0
  0
LINE
  5
10D1D
  8
0
 10
296.08816973865032
 20
145.6063072532416
 30
0.0
 11
311.91184319555759
 21
145.6063072532416
 31
0.0
  0
LINE
  5
10D1E
  8
0
 10
299.02961844578391
 20
144.43491579592231
 30
0.0
 11
293.67232549935579
 21
144.43491579592231
 31
0.0
  0
LINE
  5
10D1F
  8
0
 10
314.32768743485212
 20
144.43491579592231
 30
0.0
 11
308.97039448842412
 21
144.43491579592231
 31
0.0
  0
LINE
  5
10D4F
  8
0
 10
441.9993868842721
 20
144.87859414517879
 30
0.0
 11
440.08285634219641
 21
145.57615475356579
 31
0.0
  0
LINE
  5
10D50
  8
0
 10
423.9171639829874
 20
145.57615475356579
 30
0.0
 11
422.00063344091171
 21
144.87859414517879
 31
0.0
  0
LINE
  5
10D51
  8
0
 10
421.67232919484371
 20
144.43491579592231
 30
0.0
 11
421.00001022219652
 21
131.60630868375301
 31
0.0
  0
LINE
  5
10D52
  8
0
 10
443.00001010298729
 20
131.60630868375301
 30
0.0
 11
442.3276911303401
 21
144.43491579592231
 31
0.0
  0
ARC
  5
10D53
  8
0
 10
422.17164379475179
 20
144.40874832584609
 30
0.0
 40
0.5000000000000096
 50
110.0000000000002
 51
177.0000000000008
  0
ARC
  5
10D54
  8
0
 10
441.82837653043191
 20
144.40874832584601
 30
0.0
 40
0.5000000000000121
 50
2.9999999999990932
 51
69.999999999999773
  0
ARC
  5
10D55
  8
0
 10
439.91184667223757
 20
145.10630814731121
 30
0.0
 40
0.5
 50
69.999999999999773
 51
90.0
  0
ARC
  5
10D56
  8
0
 10
424.08817365294613
 20
145.10630814731121
 30
0.0
 40
0.5
 50
90.0
 51
110.0000000000002
  0
LINE
  5
10D57
  8
0
 10
432.8048656508326
 20
141.21716277301309
 30
0.0
 11
431.19515467435122
 21
141.21716277301309
 31
0.0
  0
LINE
  5
10D58
  8
0
 10
430.39019930176431
 20
131.60630868375301
 30
0.0
 11
430.75031380169088
 21
141.21716277301309
 31
0.0
  0
ARC
  5
10D59
  8
0
 10
430.97273423802102
 20
136.7552263163453
 30
0.0
 40
4.467476669646774
 50
87.146258666947375
 51
92.853741333052611
  0
LINE
  5
10D5A
  8
0
 10
433.24970652349288
 20
141.21716277301309
 30
0.0
 11
433.6098210234195
 21
131.60630868375301
 31
0.0
  0
ARC
  5
10D5B
  8
0
 10
433.02728608716279
 20
136.7552263163453
 30
0.0
 40
4.467476669646774
 50
87.146258666947375
 51
92.853741333052611
  0
LINE
  5
10D5C
  8
0
 10
430.45905966311688
 20
142.54819782078269
 30
0.0
 11
429.28821139968932
 21
143.720013961196
 31
0.0
  0
ARC
  5
10D5D
  8
0
 10
428.61190257421907
 20
141.44662368491859
 30
0.0
 40
2.150687073441846
 50
353.87534649025707
 51
30.810240640895039
  0
LINE
  5
10D5E
  8
0
 10
434.71180892549449
 20
143.720013961196
 30
0.0
 11
433.54096066206688
 21
142.54819782078269
 31
0.0
  0
ARC
  5
10D5F
  8
0
 10
435.21153041426697
 20
141.48526413448391
 30
0.0
 40
1.98005841288456
 50
147.5326198730109
 51
187.78179299584039
  0
ARC
  5
10D60
  8
0
 10
427.24131993647808
 20
141.1785013395594
 30
0.0
 40
3.2632883826140922
 50
51.152616516027607
 51
93.719534584131409
  0
ARC
  5
10D61
  8
0
 10
436.69086989624992
 20
141.39279820412449
 30
0.0
 40
3.0549329789585911
 50
84.750056970005446
 51
130.3777919298324
  0
LINE
  5
10D62
  8
0
 10
421.00001022219652
 20
131.60630868375301
 30
0.0
 11
443.00001010298729
 21
131.60630868375301
 31
0.0
  0
LINE
  5
10D63
  8
0
 10
424.0881734341383
 20
145.60630725324151
 30
0.0
 11
439.91184689104551
 21
145.60630725324151
 31
0.0
  0
LINE
  5
10D64
  8
0
 10
427.02962214127177
 20
144.43491579592231
 30
0.0
 11
421.67232919484371
 21
144.43491579592231
 31
0.0
  0
LINE
  5
10D65
  8
0
 10
442.3276911303401
 20
144.43491579592231
 30
0.0
 11
436.97039818391198
 21
144.43491579592231
 31
0.0
  0
LINE
  5
10D66
  8
1
 10
291.87565058469772
 20
112.0
 30
0.0
 11
291.87565058469772
 21
121.49999997019761
 31
0.0
  0
LINE
  5
10D67
  8
3
 10
293.10515058469861
 20
118.4999995604157
 30
0.0
 11
293.10515058469861
 21
119.49999997019761
 31
0.0
  0
LINE
  5
10D68
  8
3
 10
293.10515058469861
 20
118.4999995604157
 30
0.0
 11
293.37565058469772
 21
118.03147981696959
 31
0.0
  0
LINE
  5
10D69
  8
3
 10
290.6461505846969
 20
118.4999995604157
 30
0.0
 11
290.37565058469772
 21
118.03147981696959
 31
0.0
  0
LINE
  5
10D6A
  8
3
 10
290.64615058469712
 20
118.4999995604157
 30
0.0
 11
290.6461505846969
 21
119.49999997019761
 31
0.0
  0
LINE
  5
10D6B
  8
0
 10
290.37565058469772
 20
118.4999995604157
 30
0.0
 11
293.37565058469772
 21
118.4999995604157
 31
0.0
  0
LINE
  5
10D6C
  8
1
 10
304.00000646710407
 20
109.0
 30
0.0
 11
304.00000646710407
 21
150.60630725324151
 31
0.0
  0
LINE
  5
10D6D
  8
3
 10
305.2295064671049
 20
118.4999995604157
 30
0.0
 11
305.2295064671049
 21
119.49999997019771
 31
0.0
  0
LINE
  5
10D6E
  8
3
 10
305.2295064671049
 20
118.4999995604157
 30
0.0
 11
305.50000646710407
 21
118.03147981696959
 31
0.0
  0
LINE
  5
10D6F
  8
3
 10
302.7705064671033
 20
118.4999995604157
 30
0.0
 11
302.50000646710407
 21
118.03147981696959
 31
0.0
  0
LINE
  5
10D70
  8
3
 10
302.77050646710347
 20
118.4999995604157
 30
0.0
 11
302.7705064671033
 21
119.49999997019771
 31
0.0
  0
LINE
  5
10D71
  8
0
 10
302.50000646710407
 20
118.4999995604157
 30
0.0
 11
305.50000646710407
 21
118.4999995604157
 31
0.0
  0
LINE
  5
10D72
  8
1
 10
316.12436234951019
 20
112.0
 30
0.0
 11
316.12436234951019
 21
121.49999997019761
 31
0.0
  0
LINE
  5
10D73
  8
3
 10
317.35386234951102
 20
118.4999995604157
 30
0.0
 11
317.35386234951102
 21
119.49999997019761
 31
0.0
  0
LINE
  5
10D74
  8
3
 10
317.35386234951102
 20
118.4999995604157
 30
0.0
 11
317.62436234951019
 21
118.03147981696959
 31
0.0
  0
LINE
  5
10D75
  8
3
 10
314.89486234950942
 20
118.4999995604157
 30
0.0
 11
314.62436234951019
 21
118.03147981696959
 31
0.0
  0
LINE
  5
10D76
  8
3
 10
314.89486234950959
 20
118.4999995604157
 30
0.0
 11
314.89486234950942
 21
119.49999997019761
 31
0.0
  0
LINE
  5
10D77
  8
0
 10
314.62436234951019
 20
118.4999995604157
 30
0.0
 11
317.62436234951019
 21
118.4999995604157
 31
0.0
  0
LINE
  5
10D78
  8
1
 10
354.00000788271439
 20
112.0
 30
0.0
 11
354.00000788271439
 21
121.49999997019761
 31
0.0
  0
LINE
  5
10D79
  8
3
 10
355.22950788271521
 20
118.4999995604157
 30
0.0
 11
355.22950788271521
 21
119.49999997019771
 31
0.0
  0
LINE
  5
10D7A
  8
3
 10
355.22950788271521
 20
118.4999995604157
 30
0.0
 11
355.50000788271439
 21
118.03147981696959
 31
0.0
  0
LINE
  5
10D7B
  8
3
 10
352.77050788271362
 20
118.4999995604157
 30
0.0
 11
352.50000788271439
 21
118.03147981696959
 31
0.0
  0
LINE
  5
10D7C
  8
3
 10
352.77050788271379
 20
118.4999995604157
 30
0.0
 11
352.77050788271362
 21
119.49999997019771
 31
0.0
  0
LINE
  5
10D7D
  8
0
 10
352.50000788271439
 20
118.4999995604157
 30
0.0
 11
355.50000788271439
 21
118.4999995604157
 31
0.0
  0
LINE
  5
10D7E
  8
1
 10
375.0000085309149
 20
112.0
 30
0.0
 11
375.0000085309149
 21
121.49999997019761
 31
0.0
  0
LINE
  5
10D7F
  8
3
 10
376.22950853091572
 20
118.4999995604157
 30
0.0
 11
376.22950853091572
 21
119.49999997019771
 31
0.0
  0
LINE
  5
10D80
  8
3
 10
376.22950853091572
 20
118.4999995604157
 30
0.0
 11
376.5000085309149
 21
118.03147981696959
 31
0.0
  0
LINE
  5
10D81
  8
3
 10
373.77050853091413
 20
118.4999995604157
 30
0.0
 11
373.5000085309149
 21
118.03147981696959
 31
0.0
  0
LINE
  5
10D82
  8
3
 10
373.7705085309143
 20
118.4999995604157
 30
0.0
 11
373.77050853091413
 21
119.49999997019771
 31
0.0
  0
LINE
  5
10D83
  8
0
 10
373.5000085309149
 20
118.4999995604157
 30
0.0
 11
376.5000085309149
 21
118.4999995604157
 31
0.0
  0
LINE
  5
10D84
  8
1
 10
419.8756542801857
 20
112.0
 30
0.0
 11
419.8756542801857
 21
121.49999997019761
 31
0.0
  0
LINE
  5
10D85
  8
3
 10
421.10515428018653
 20
118.4999995604157
 30
0.0
 11
421.10515428018653
 21
119.49999997019771
 31
0.0
  0
LINE
  5
10D86
  8
3
 10
421.10515428018653
 20
118.4999995604157
 30
0.0
 11
421.37565428018559
 21
118.03147981696959
 31
0.0
  0
LINE
  5
10D87
  8
3
 10
418.64615428018487
 20
118.4999995604157
 30
0.0
 11
418.3756542801857
 21
118.03147981696959
 31
0.0
  0
LINE
  5
10D88
  8
3
 10
418.6461542801851
 20
118.4999995604157
 30
0.0
 11
418.64615428018487
 21
119.49999997019771
 31
0.0
  0
LINE
  5
10D89
  8
0
 10
418.3756542801857
 20
118.4999995604157
 30
0.0
 11
421.37565428018559
 21
118.4999995604157
 31
0.0
  0
LINE
  5
10D8A
  8
1
 10
444.12436604499811
 20
112.0
 30
0.0
 11
444.12436604499811
 21
121.49999997019761
 31
0.0
  0
LINE
  5
10D8B
  8
3
 10
445.35386604499888
 20
118.4999995604157
 30
0.0
 11
445.35386604499888
 21
119.49999997019771
 31
0.0
  0
LINE
  5
10D8C
  8
3
 10
445.35386604499888
 20
118.4999995604157
 30
0.0
 11
445.62436604499811
 21
118.03147981696959
 31
0.0
  0
LINE
  5
10D8D
  8
3
 10
442.89486604499729
 20
118.4999995604157
 30
0.0
 11
442.62436604499823
 21
118.03147981696959
 31
0.0
  0
LINE
  5
10D8E
  8
3
 10
442.89486604499751
 20
118.4999995604157
 30
0.0
 11
442.89486604499729
 21
119.49999997019771
 31
0.0
  0
LINE
  5
10D8F
  8
0
 10
442.62436604499823
 20
118.4999995604157
 30
0.0
 11
445.62436604499811
 21
118.4999995604157
 31
0.0
  0
LINE
  5
10D90
  8
1
 10
432.00001016259188
 20
150.60630725324151
 30
0.0
 11
432.00001016259188
 21
109.0
 31
0.0
  0
LINE
  5
10D91
  8
1
 10
368.00000831484812
 20
109.0
 30
0.0
 11
368.00000831484812
 21
150.60630725324151
 31
0.0
  0
LINE
  5
10E0E
  8
0
 10
383.18310599774139
 20
142.99187617003921
 30
0.0
 11
376.08285449445259
 21
145.57615475356579
 31
0.0
  0
LINE
  5
10E0F
  8
0
 10
359.91716213524347
 20
145.57615475356579
 30
0.0
 11
352.81691063195478
 21
142.99187617003921
 31
0.0
  0
ARC
  5
10E10
  8
0
 10
375.91184482449381
 20
145.10630814731121
 30
0.0
 40
0.5
 50
69.999999999999773
 51
90.0
  0
ARC
  5
10E11
  8
0
 10
360.08817180520219
 20
145.10630814731121
 30
0.0
 40
0.5
 50
90.0
 51
110.0000000000002
  0
ARC
  5
10E12
  8
0
 10
382.49906578801659
 20
141.11248913134079
 30
0.0
 40
2.0000000000000182
 50
2.9999999999990781
 51
69.999999999999773
  0
ARC
  5
10E13
  8
0
 10
353.50095084167958
 20
141.11248913134079
 30
0.0
 40
2.0000000000000031
 50
110.0000000000002
 51
177.00000000000091
  0
LINE
  5
10E14
  8
0
 10
351.50369085371511
 20
141.21716277301309
 30
0.0
 11
351.00000739097612
 21
131.60630868375301
 31
0.0
  0
LINE
  5
10E15
  8
0
 10
385.00000923872011
 20
131.60630868375301
 30
0.0
 11
384.49632577598112
 21
141.21716277301309
 31
0.0
  0
POLYLINE
  5
10E16
  8
0
 66
     1
 10
0.0
 20
0.0
 30
0.0
 70
   128
  0
VERTEX
  5
12FA3
  8
0
 10
358.947039730847
 20
144.43491579592231
 30
0.0
  0
VERTEX
  5
12FA4
  8
0
 10
358.70269607752567
 20
138.23384226858619
 30
0.0
  0
VERTEX
  5
12FA5
  8
0
 10
358.44342052936571
 20
131.60630868375301
 30
0.0
  0
SEQEND
  5
12FA6
  8
0
  0
LINE
  5
10E17
  8
0
 10
377.05297689884912
 20
144.43491579592231
 30
0.0
 11
358.947039730847
 21
144.43491579592231
 31
0.0
  0
POLYLINE
  5
10E18
  8
0
 66
     1
 10
0.0
 20
0.0
 30
0.0
 70
   128
  0
VERTEX
  5
12FA7
  8
0
 10
377.55659610033052
 20
131.60630868375301
 30
0.0
  0
VERTEX
  5
12FA8
  8
0
 10
377.29732055217039
 20
138.23384226858619
 30
0.0
  0
VERTEX
  5
12FA9
  8
0
 10
377.05297689884912
 20
144.43491579592231
 30
0.0
  0
SEQEND
  5
12FAA
  8
0
  0
LINE
  5
10E19
  8
0
 10
360.08817158639442
 20
145.60630725324151
 30
0.0
 11
375.91279037664719
 21
145.60630725324151
 31
0.0
  0
LINE
  5
10E1A
  8
0
 10
385.00000923872011
 20
131.60630868375301
 30
0.0
 11
351.00000739097612
 21
131.60630868375301
 31
0.0
  0
LINE
  5
10F0F
  8
0
 10
208.50000038743019
 20
-96.373270445642973
 30
0.0
 11
208.50000038743011
 21
-100.873270445643
 31
0.0
  0
LINE
  5
10F10
  8
0
 10
226.4999996125697
 20
-100.873270445643
 30
0.0
 11
226.49999961256981
 21
-96.373270445642973
 31
0.0
  0
LINE
  5
10F3A
  8
1
 10
217.5
 20
-90.373270445643001
 30
0.0
 11
217.5
 21
-106.3732704456429
 31
0.0
  0
LINE
  5
10F3B
  8
1
 10
203.4999995678663
 20
-103.373270445643
 30
0.0
 11
203.4999995678663
 21
-93.373270445642987
 31
0.0
  0
CIRCLE
  5
10F5D
  8
0
 10
217.5
 20
-52.094764855300568
 30
0.0
 40
9.0
  0
LINE
  5
10F61
  8
1
 10
217.5
 20
-32.094764855300568
 30
0.0
 11
217.5
 21
-72.094764855300554
 31
0.0
  0
LINE
  5
10F62
  8
1
 10
237.5
 20
-52.094764855300603
 30
0.0
 11
197.5
 21
-52.094764855300603
 31
0.0
  0
LINE
  5
10F63
  8
1
 10
221.87500000000011
 20
-44.517042572186782
 30
0.0
 11
227.12500000000011
 21
-35.423775832450197
 31
0.0
  0
LINE
  5
10F64
  8
1
 10
221.87500000000011
 20
-59.67248713841434
 30
0.0
 11
227.12500000000011
 21
-68.765753878150946
 31
0.0
  0
CIRCLE
  5
10F65
  8
1
 10
217.5
 20
-52.094764855300568
 30
0.0
 40
14.0
  0
LINE
  5
10F66
  8
0
 10
240.0
 20
-101.373270445643
 30
0.0
 11
195.0
 21
-101.373270445643
 31
0.0
  0
LINE
  5
10F6B
  8
0
 10
195.0
 20
-95.373270445642973
 30
0.0
 11
240.0
 21
-95.373270445642973
 31
0.0
  0
LINE
  5
10F70
  8
0
 10
207.50000038743011
 20
-95.373270445642973
 30
0.0
 11
208.50000038743019
 21
-96.373270445642987
 31
0.0
  0
LINE
  5
10F71
  8
0
 10
227.49999961256981
 20
-95.373270445642973
 30
0.0
 11
226.49999961256981
 21
-96.373270445642987
 31
0.0
  0
LINE
  5
10F72
  8
0
 10
205.19999956786631
 20
-97.873270855424934
 30
0.0
 11
205.19999956786631
 21
-95.873270445642987
 31
0.0
  0
LINE
  5
10F73
  8
0
 10
201.79999956786631
 20
-97.873270855424934
 30
0.0
 11
201.79999956786631
 21
-95.873270445642987
 31
0.0
  0
LINE
  5
10F74
  8
0
 10
206.7499995678663
 20
-100.873270445643
 30
0.0
 11
206.7499995678663
 21
-97.873270855424934
 31
0.0
  0
LINE
  5
10F75
  8
0
 10
200.2499995678663
 20
-100.873270445643
 30
0.0
 11
200.2499995678663
 21
-97.873270855424934
 31
0.0
  0
LINE
  5
10F77
  8
0
 10
200.2499995678663
 20
-97.873270855424906
 30
0.0
 11
206.7499995678663
 21
-97.873270855424934
 31
0.0
  0
LINE
  5
10F7A
  8
0
 10
136.24999955296499
 20
-100.87327041584059
 30
0.0
 11
136.24999955296499
 21
-97.873270855424934
 31
0.0
  0
LINE
  5
10F7B
  8
0
 10
130.74999958276729
 20
-97.873270855424934
 30
0.0
 11
130.74999958276729
 21
-100.87327041584059
 31
0.0
  0
LINE
  5
10F7C
  8
0
 10
134.99999981373529
 20
-97.873270855424934
 30
0.0
 11
134.99999981373529
 21
-95.373270445642973
 31
0.0
  0
LINE
  5
10F7D
  8
0
 10
132.0000002533196
 20
-95.373270445642973
 30
0.0
 11
132.0000002533196
 21
-97.873270855424934
 31
0.0
  0
LINE
  5
10F7E
  8
0
 10
157.49937672167999
 20
-68.100984552083503
 30
0.0
 11
155.58284617960439
 21
-67.403423943696509
 31
0.0
  0
LINE
  5
10F7F
  8
0
 10
139.4171538203953
 20
-67.403423943696509
 30
0.0
 11
137.50062327831969
 21
-68.100984552083503
 31
0.0
  0
LINE
  5
10F80
  8
0
 10
137.17231903225169
 20
-68.544662901340018
 30
0.0
 11
136.5000000596045
 21
-81.373270013509284
 31
0.0
  0
LINE
  5
10F81
  8
0
 10
158.49999994039521
 20
-81.373270013509284
 30
0.0
 11
157.82768096774799
 21
-68.544662901340018
 31
0.0
  0
ARC
  5
10F82
  8
0
 10
137.67163363215971
 20
-68.570830371416235
 30
0.0
 40
0.5000000000000096
 50
110.0000000000035
 51
177.0000000000008
  0
ARC
  5
10F83
  8
0
 10
157.32836636783981
 20
-68.570830371416264
 30
0.0
 40
0.5000000000000121
 50
2.9999999999990772
 51
69.999999999996504
  0
ARC
  5
10F84
  8
0
 10
155.4118365096455
 20
-67.873270549951116
 30
0.0
 40
0.5
 50
69.999999999996504
 51
90.0
  0
ARC
  5
10F85
  8
0
 10
139.58816349035399
 20
-67.873270549951087
 30
0.0
 40
0.5
 50
90.0
 51
110.0000000000035
  0
ARC
  5
10F86
  8
0
 10
163.4999999999998
 20
-88.712262286590729
 30
0.0
 40
1.00000000000001
 50
0.0
 51
69.999999999996504
  0
ARC
  5
10F87
  8
0
 10
131.4999999999998
 20
-88.712262286590729
 30
0.0
 40
1.00000000000001
 50
110.0000000000035
 51
180.0
  0
LINE
  5
10F88
  8
0
 10
130.49999907612781
 20
-88.712261402187849
 30
0.0
 11
130.49999907612781
 21
-94.873270363686586
 31
0.0
  0
LINE
  5
10F89
  8
0
 10
164.5000009238718
 20
-94.873270363686586
 30
0.0
 11
164.5000009238718
 21
-88.712261402187849
 31
0.0
  0
LINE
  5
10F8A
  8
0
 10
130.49999907612781
 20
-94.873270363686586
 30
0.0
 11
131.0000000894068
 21
-95.373270445642973
 31
0.0
  0
LINE
  5
10F8B
  8
0
 10
163.99999991059289
 20
-95.373270445642973
 30
0.0
 11
164.5000009238718
 21
-94.873270363686586
 31
0.0
  0
LINE
  5
10F8C
  8
0
 10
163.84201966226081
 20
-87.772569962916876
 30
0.0
 11
157.25000020116551
 21
-85.373270669160377
 31
0.0
  0
LINE
  5
10F8D
  8
0
 10
137.7499997988341
 20
-85.373270669160377
 30
0.0
 11
131.15798033773879
 21
-87.772569962916876
 31
0.0
  0
ARC
  5
10F8E
  8
0
 10
138.09999999999991
 20
-95.773270549951121
 30
0.0
 40
0.3999999999999986
 50
0.0
 51
90.0
  0
ARC
  5
10F8F
  8
0
 10
156.89999999999981
 20
-95.773270549951121
 30
0.0
 40
0.3999999999999915
 50
90.0
 51
180.0
  0
LINE
  5
10F90
  8
0
 10
138.50000038742999
 20
-99.873270717589193
 30
0.0
 11
139.49999962002019
 21
-100.87327041584059
 31
0.0
  0
LINE
  5
10F91
  8
0
 10
138.50000038742999
 20
-95.773270697472597
 30
0.0
 11
138.50000038742999
 21
-99.873270717589193
 31
0.0
  0
LINE
  5
10F92
  8
0
 10
156.49999961256961
 20
-99.873270717589193
 30
0.0
 11
156.49999961256961
 21
-95.773270697472597
 31
0.0
  0
ARC
  5
10F93
  8
0
 10
156.14999999999981
 20
-84.973270549951096
 30
0.0
 40
0.3999999999999915
 50
180.0
 51
270.0
  0
ARC
  5
10F94
  8
0
 10
138.84999999999971
 20
-84.973270549951096
 30
0.0
 40
0.4000000000000057
 50
270.0
 51
0.0
  0
LINE
  5
10F95
  8
0
 10
139.25000004470331
 20
-81.373270013509284
 30
0.0
 11
139.25000004470331
 21
-84.973271348653327
 31
0.0
  0
LINE
  5
10F96
  8
0
 10
155.74999995529629
 20
-84.973271348653327
 30
0.0
 11
155.74999995529629
 21
-81.373270013509284
 31
0.0
  0
LINE
  5
10F97
  8
0
 10
136.24999955296499
 20
-97.873270855424934
 30
0.0
 11
130.74999958276729
 21
-97.873270855424934
 31
0.0
  0
LINE
  5
10F98
  8
0
 10
136.24999955296499
 20
-100.87327041584059
 30
0.0
 11
130.74999958276729
 21
-100.87327041584059
 31
0.0
  0
LINE
  5
10F99
  8
0
 10
148.30485548824049
 20
-71.762415924249183
 30
0.0
 11
146.69514451175911
 21
-71.762415924249183
 31
0.0
  0
LINE
  5
10F9A
  8
0
 10
145.89018913917229
 20
-81.373270013509284
 30
0.0
 11
146.2503036390988
 21
-71.762415924249183
 31
0.0
  0
ARC
  5
10F9B
  8
0
 10
146.472724075429
 20
-76.224352380916955
 30
0.0
 40
4.467476669646774
 50
87.146258666947375
 51
92.853741333052611
  0
LINE
  5
10F9C
  8
0
 10
148.7496963609008
 20
-71.762415924249183
 30
0.0
 11
149.10981086082739
 21
-81.373270013509284
 31
0.0
  0
ARC
  5
10F9D
  8
0
 10
148.52727592457069
 20
-76.224352380916955
 30
0.0
 40
4.467476669646774
 50
87.146258666947375
 51
92.853741333052611
  0
LINE
  5
10F9E
  8
0
 10
145.9590495005248
 20
-70.431380876479636
 30
0.0
 11
144.78820123709721
 21
-69.259564736066352
 31
0.0
  0
ARC
  5
10F9F
  8
0
 10
144.111892411627
 20
-71.532955012343663
 30
0.0
 40
2.150687073441846
 50
353.87534649025719
 51
30.8102406408956
  0
LINE
  5
10FA0
  8
0
 10
150.21179876290239
 20
-69.259564736066352
 30
0.0
 11
149.0409504994748
 21
-70.431380876479636
 31
0.0
  0
ARC
  5
10FA1
  8
0
 10
150.7115202516749
 20
-71.494314562778413
 30
0.0
 40
1.98005841288456
 50
147.53261987301039
 51
187.7817929958405
  0
ARC
  5
10FA2
  8
0
 10
142.741309773886
 20
-71.801077357702866
 30
0.0
 40
3.2632883826140922
 50
51.152616516026832
 51
93.719534584131409
  0
ARC
  5
10FA3
  8
0
 10
152.19085973365779
 20
-71.58678049313778
 30
0.0
 40
3.0549329789585911
 50
84.750056970005446
 51
130.37779192983149
  0
LINE
  5
10FA4
  8
0
 10
136.5000000596045
 20
-81.373270013509284
 30
0.0
 11
158.49999994039521
 21
-81.373270013509298
 31
0.0
  0
LINE
  5
10FA5
  8
0
 10
139.58816327154619
 20
-67.373271444020759
 30
0.0
 11
155.41183672845349
 21
-67.373271444020759
 31
0.0
  0
LINE
  5
10FA6
  8
0
 10
163.99999991059289
 20
-95.373270445642973
 30
0.0
 11
131.0000000894068
 21
-95.373270445642973
 31
0.0
  0
LINE
  5
10FA7
  8
0
 10
137.7499997988343
 20
-85.373270669160377
 30
0.0
 11
157.25000020116551
 21
-85.373270669160377
 31
0.0
  0
LINE
  5
10FB4
  8
0
 10
138.50000038742999
 20
-99.873270717589193
 30
0.0
 11
156.4999996125697
 21
-99.873270717589193
 31
0.0
  0
LINE
  5
10FB5
  8
0
 10
155.5000003799795
 20
-100.87327041584059
 30
0.0
 11
139.49999962002019
 21
-100.87327041584059
 31
0.0
  0
LINE
  5
10FB6
  8
0
 10
142.5296119786797
 20
-68.544662901340018
 30
0.0
 11
137.17231903225169
 21
-68.544662901340018
 31
0.0
  0
LINE
  5
10FB7
  8
0
 10
157.82768096774799
 20
-68.544662901340018
 30
0.0
 11
152.47038802131991
 21
-68.544662901340018
 31
0.0
  0
LINE
  5
10FB8
  8
0
 10
131.15798033773879
 20
-87.772569962916918
 30
0.0
 11
163.84201966226081
 21
-87.772569962916876
 31
0.0
  0
LINE
  5
10FB9
  8
0
 10
164.5000009238718
 20
-88.712261402187849
 30
0.0
 11
130.49999907612781
 21
-88.712261402187849
 31
0.0
  0
LINE
  5
10FBA
  8
1
 10
147.4999999999998
 20
-62.373271444020752
 30
0.0
 11
147.4999999999998
 21
-106.3732704456429
 31
0.0
  0
LINE
  5
10FBB
  8
1
 10
133.4999995678661
 20
-103.3732704456429
 30
0.0
 11
133.49999956786621
 21
-93.373270445642987
 31
0.0
  0
LINE
  5
10FBC
  8
0
 10
130.24999956786621
 20
-100.873270445643
 30
0.0
 11
130.24999956786621
 21
-97.873270855424934
 31
0.0
  0
LINE
  5
10FBD
  8
0
 10
136.7499995678661
 20
-100.873270445643
 30
0.0
 11
136.7499995678661
 21
-97.873270855424934
 31
0.0
  0
LINE
  5
10FBE
  8
0
 10
131.79999956786611
 20
-97.873270855424934
 30
0.0
 11
131.79999956786611
 21
-95.873270445643001
 31
0.0
  0
LINE
  5
10FBF
  8
0
 10
135.19999956786609
 20
-97.873270855424934
 30
0.0
 11
135.19999956786609
 21
-95.873270445642675
 31
0.0
  0
LINE
  5
10FC0
  8
3
 10
134.72949956786701
 20
-96.373270855424934
 30
0.0
 11
134.72949956786701
 21
-95.373270445642973
 31
0.0
  0
LINE
  5
10FC1
  8
3
 10
134.72949956786701
 20
-96.373270855424934
 30
0.0
 11
134.99999956786621
 21
-96.841790598871029
 31
0.0
  0
LINE
  5
10FC2
  8
3
 10
132.2704995678653
 20
-96.373270855424934
 30
0.0
 11
131.99999956786621
 21
-96.841790598871029
 31
0.0
  0
LINE
  5
10FC3
  8
3
 10
132.27049956786561
 20
-96.373270855424934
 30
0.0
 11
132.2704995678653
 21
-95.373270445642973
 31
0.0
  0
LINE
  5
10FC4
  8
0
 10
131.99999956786621
 20
-96.373270855424934
 30
0.0
 11
134.99999956786621
 21
-96.373270855424934
 31
0.0
  0
LINE
  5
10FC5
  8
0
 10
169.9999999999998
 20
-101.373270445643
 30
0.0
 11
124.9999999999998
 21
-101.373270445643
 31
0.0
  0
LINE
  5
10FC6
  8
0
 10
156.49999961256961
 20
-99.873270717589193
 30
0.0
 11
155.50000037997941
 21
-100.87327041584059
 31
0.0
  0
LINE
  5
10FC7
  8
0
 10
138.50000038742999
 20
-99.873270717589193
 30
0.0
 11
138.50000038742999
 21
-100.873270445643
 31
0.0
  0
LINE
  5
10FC8
  8
0
 10
156.49999961256961
 20
-100.873270445643
 30
0.0
 11
156.49999961256961
 21
-99.873270717589193
 31
0.0
  0
LINE
  5
10FC9
  8
0
 10
131.0000000894068
 20
-95.373270445642973
 30
0.0
 11
124.9999999999998
 21
-95.373270445642973
 31
0.0
  0
LINE
  5
10FCA
  8
0
 10
124.9999999999998
 20
-95.373270445642973
 30
0.0
 11
169.9999999999998
 21
-95.373270445642973
 31
0.0
  0
LINE
  5
10FCB
  8
0
 10
137.50000038742999
 20
-95.373270445642973
 30
0.0
 11
138.50000038742999
 21
-96.373270445642987
 31
0.0
  0
LINE
  5
10FCC
  8
0
 10
157.49999961256961
 20
-95.373270445642973
 30
0.0
 11
156.49999961256961
 21
-96.373270445642987
 31
0.0
  0
LINE
  5
10FCD
  8
0
 10
130.74999958276729
 20
-97.873270855424934
 30
0.0
 11
130.24999956786621
 21
-97.873270855424934
 31
0.0
  0
LINE
  5
10FCE
  8
0
 10
136.24999955296499
 20
-97.873270855424934
 30
0.0
 11
136.7499995678661
 21
-97.873270855424934
 31
0.0
  0
LINE
  5
10FD7
  8
0
 10
208.50000038743019
 20
-96.373270445642973
 30
0.0
 11
226.49999961256981
 21
-96.373270445642987
 31
0.0
  0
CIRCLE
  5
11025
  8
0
 10
203.5
 20
-52.094764855300568
 30
0.0
 40
1.7
  0
CIRCLE
  5
11026
  8
2
 10
203.5
 20
-52.094764855300568
 30
0.0
 40
3.25
  0
CIRCLE
  5
11027
  8
0
 10
224.50000000000011
 20
-39.9704092023185
 30
0.0
 40
1.7
  0
CIRCLE
  5
11028
  8
2
 10
224.50000000000011
 20
-39.9704092023185
 30
0.0
 40
3.25
  0
CIRCLE
  5
11029
  8
0
 10
224.50000000000011
 20
-64.219120508282643
 30
0.0
 40
1.7
  0
CIRCLE
  5
1102A
  8
2
 10
224.50000000000011
 20
-64.219120508282643
 30
0.0
 40
3.25
  0
CIRCLE
  5
110C0
  8
0
 10
372.5
 20
-52.094764855300568
 30
0.0
 40
9.0
  0
LINE
  5
110C1
  8
1
 10
372.5
 20
-29.5947648553006
 30
0.0
 11
372.5
 21
-74.594764855300596
 31
0.0
  0
LINE
  5
110C2
  8
1
 10
395.0
 20
-52.094764855300603
 30
0.0
 11
350.0
 21
-52.094764855300603
 31
0.0
  0
LINE
  5
110C3
  8
1
 10
376.87500000000023
 20
-44.517042572186817
 30
0.0
 11
382.12500000000011
 21
-35.423775832450197
 31
0.0
  0
LINE
  5
110C4
  8
1
 10
376.87500000000011
 20
-59.672487138414368
 30
0.0
 11
382.12500000000011
 21
-68.765753878150946
 31
0.0
  0
CIRCLE
  5
110C5
  8
1
 10
372.5
 20
-52.094764855300568
 30
0.0
 40
14.0
  0
LINE
  5
110CB
  8
0
 10
291.24999955296511
 20
-108.87327041584059
 30
0.0
 11
291.24999955296511
 21
-105.87327085542491
 31
0.0
  0
LINE
  5
110CC
  8
0
 10
285.74999958276737
 20
-105.87327085542491
 30
0.0
 11
285.74999958276737
 21
-108.87327041584059
 31
0.0
  0
LINE
  5
110CD
  8
0
 10
289.99999981373543
 20
-105.87327085542491
 30
0.0
 11
289.99999981373543
 21
-103.373270445643
 31
0.0
  0
LINE
  5
110CE
  8
0
 10
287.00000025331963
 20
-103.373270445643
 30
0.0
 11
287.00000025331963
 21
-105.87327085542491
 31
0.0
  0
LINE
  5
110CF
  8
0
 10
312.49937672168011
 20
-76.100984552083503
 30
0.0
 11
310.58284617960442
 21
-75.403423943696509
 31
0.0
  0
LINE
  5
110D0
  8
0
 10
294.41715382039541
 20
-75.403423943696509
 30
0.0
 11
292.50062327831972
 21
-76.100984552083503
 31
0.0
  0
LINE
  5
110D1
  8
0
 10
292.17231903225172
 20
-76.544662901340018
 30
0.0
 11
291.50000005960447
 21
-89.373270013509284
 31
0.0
  0
LINE
  5
110D2
  8
0
 10
313.4999999403953
 20
-89.373270013509284
 30
0.0
 11
312.82768096774811
 21
-76.544662901340018
 31
0.0
  0
ARC
  5
110D3
  8
0
 10
292.6716336321598
 20
-76.570830371416235
 30
0.0
 40
0.5000000000000096
 50
110.0000000000035
 51
177.00000000000071
  0
ARC
  5
110D4
  8
0
 10
312.32836636783992
 20
-76.570830371416264
 30
0.0
 40
0.5000000000000121
 50
2.9999999999990772
 51
69.999999999996504
  0
ARC
  5
110D5
  8
0
 10
310.41183650964558
 20
-75.873270549951116
 30
0.0
 40
0.5
 50
69.999999999996504
 51
90.0
  0
ARC
  5
110D6
  8
0
 10
294.58816349035408
 20
-75.873270549951087
 30
0.0
 40
0.5
 50
90.0
 51
110.0000000000035
  0
ARC
  5
110D7
  8
0
 10
318.49999999999989
 20
-96.712262286590743
 30
0.0
 40
1.00000000000001
 50
0.0
 51
69.999999999996504
  0
ARC
  5
110D8
  8
0
 10
286.49999999999989
 20
-96.712262286590743
 30
0.0
 40
1.00000000000001
 50
110.0000000000035
 51
180.0
  0
LINE
  5
110D9
  8
0
 10
285.49999907612789
 20
-96.712261402187863
 30
0.0
 11
285.49999907612789
 21
-102.8732703636866
 31
0.0
  0
LINE
  5
110DA
  8
0
 10
319.50000092387188
 20
-102.8732703636866
 30
0.0
 11
319.50000092387188
 21
-96.712261402187863
 31
0.0
  0
LINE
  5
110DB
  8
0
 10
285.49999907612789
 20
-102.8732703636866
 30
0.0
 11
286.00000008940691
 21
-103.373270445643
 31
0.0
  0
LINE
  5
110DC
  8
0
 10
318.99999991059292
 20
-103.373270445643
 30
0.0
 11
319.50000092387188
 21
-102.8732703636866
 31
0.0
  0
LINE
  5
110DD
  8
0
 10
318.8420196622609
 20
-95.77256996291689
 30
0.0
 11
312.25000020116562
 21
-93.373270669160377
 31
0.0
  0
LINE
  5
110DE
  8
0
 10
292.74999979883421
 20
-93.373270669160377
 30
0.0
 11
286.15798033773888
 21
-95.77256996291689
 31
0.0
  0
ARC
  5
110DF
  8
0
 10
293.09999999999991
 20
-103.77327054995111
 30
0.0
 40
0.3999999999999986
 50
0.0
 51
90.0
  0
ARC
  5
110E0
  8
0
 10
311.89999999999992
 20
-103.77327054995111
 30
0.0
 40
0.3999999999999915
 50
90.0
 51
180.0
  0
LINE
  5
110E1
  8
0
 10
293.50000038743008
 20
-107.87327071758919
 30
0.0
 11
294.49999962002028
 21
-108.87327041584059
 31
0.0
  0
LINE
  5
110E2
  8
0
 10
293.50000038743008
 20
-103.7732706974726
 30
0.0
 11
293.50000038743008
 21
-107.87327071758919
 31
0.0
  0
LINE
  5
110E3
  8
0
 10
311.4999996125697
 20
-107.87327071758919
 30
0.0
 11
311.4999996125697
 21
-103.7732706974726
 31
0.0
  0
ARC
  5
110E4
  8
0
 10
311.14999999999992
 20
-92.97327054995111
 30
0.0
 40
0.3999999999999915
 50
180.0
 51
270.0
  0
ARC
  5
110E5
  8
0
 10
293.8499999999998
 20
-92.97327054995111
 30
0.0
 40
0.4000000000000057
 50
270.0
 51
0.0
  0
LINE
  5
110E6
  8
0
 10
294.25000004470343
 20
-89.373270013509284
 30
0.0
 11
294.25000004470343
 21
-92.973271348653327
 31
0.0
  0
LINE
  5
110E7
  8
0
 10
310.7499999552964
 20
-92.973271348653327
 30
0.0
 11
310.7499999552964
 21
-89.373270013509284
 31
0.0
  0
LINE
  5
110E8
  8
0
 10
291.24999955296511
 20
-105.87327085542491
 30
0.0
 11
285.74999958276737
 21
-105.87327085542491
 31
0.0
  0
LINE
  5
110E9
  8
0
 10
291.24999955296511
 20
-108.87327041584059
 30
0.0
 11
285.74999958276737
 21
-108.87327041584059
 31
0.0
  0
LINE
  5
110EA
  8
0
 10
303.30485548824061
 20
-79.762415924249183
 30
0.0
 11
301.69514451175922
 21
-79.762415924249183
 31
0.0
  0
LINE
  5
110EB
  8
0
 10
300.89018913917232
 20
-89.373270013509284
 30
0.0
 11
301.25030363909889
 21
-79.762415924249183
 31
0.0
  0
ARC
  5
110EC
  8
0
 10
301.47272407542903
 20
-84.224352380916969
 30
0.0
 40
4.467476669646774
 50
87.146258666947375
 51
92.853741333052611
  0
LINE
  5
110ED
  8
0
 10
303.74969636090088
 20
-79.762415924249183
 30
0.0
 11
304.10981086082751
 21
-89.373270013509284
 31
0.0
  0
ARC
  5
110EE
  8
0
 10
303.5272759245708
 20
-84.224352380916969
 30
0.0
 40
4.467476669646774
 50
87.146258666947375
 51
92.853741333052611
  0
LINE
  5
110EF
  8
0
 10
300.95904950052488
 20
-78.431380876479636
 30
0.0
 11
299.78820123709733
 21
-77.259564736066352
 31
0.0
  0
ARC
  5
110F0
  8
0
 10
299.11189241162708
 20
-79.532955012343677
 30
0.0
 40
2.150687073441846
 50
353.87534649025707
 51
30.810240640895721
  0
LINE
  5
110F1
  8
0
 10
305.2117987629025
 20
-77.259564736066352
 30
0.0
 11
304.04095049947489
 21
-78.431380876479636
 31
0.0
  0
ARC
  5
110F2
  8
0
 10
305.71152025167498
 20
-79.494314562778413
 30
0.0
 40
1.98005841288456
 50
147.53261987301019
 51
187.7817929958405
  0
ARC
  5
110F3
  8
0
 10
297.74130977388609
 20
-79.801077357702866
 30
0.0
 40
3.2632883826140922
 50
51.152616516026832
 51
93.719534584131409
  0
ARC
  5
110F4
  8
0
 10
307.19085973365782
 20
-79.58678049313778
 30
0.0
 40
3.0549329789585911
 50
84.750056970005446
 51
130.3777919298314
  0
LINE
  5
110F5
  8
0
 10
291.50000005960447
 20
-89.373270013509284
 30
0.0
 11
313.4999999403953
 21
-89.373270013509313
 31
0.0
  0
LINE
  5
110F6
  8
0
 10
294.58816327154631
 20
-75.373271444020759
 30
0.0
 11
310.41183672845352
 21
-75.373271444020759
 31
0.0
  0
LINE
  5
110F7
  8
0
 10
318.99999991059292
 20
-103.373270445643
 30
0.0
 11
286.00000008940691
 21
-103.373270445643
 31
0.0
  0
LINE
  5
110F8
  8
0
 10
292.74999979883432
 20
-93.373270669160377
 30
0.0
 11
312.25000020116562
 21
-93.373270669160377
 31
0.0
  0
LINE
  5
11105
  8
0
 10
293.50000038743008
 20
-107.87327071758919
 30
0.0
 11
311.4999996125697
 21
-107.87327071758919
 31
0.0
  0
LINE
  5
11106
  8
0
 10
310.5000003799795
 20
-108.87327041584059
 30
0.0
 11
294.49999962002028
 21
-108.87327041584059
 31
0.0
  0
LINE
  5
11107
  8
0
 10
297.52961197867978
 20
-76.544662901340018
 30
0.0
 11
292.17231903225172
 21
-76.544662901340018
 31
0.0
  0
LINE
  5
11108
  8
0
 10
312.82768096774811
 20
-76.544662901340018
 30
0.0
 11
307.47038802131999
 21
-76.544662901340018
 31
0.0
  0
LINE
  5
11109
  8
0
 10
286.15798033773888
 20
-95.772569962916918
 30
0.0
 11
318.8420196622609
 21
-95.77256996291689
 31
0.0
  0
LINE
  5
1110A
  8
0
 10
319.50000092387188
 20
-96.712261402187863
 30
0.0
 11
285.49999907612789
 21
-96.712261402187863
 31
0.0
  0
LINE
  5
1110B
  8
1
 10
302.49999999999989
 20
-70.373271444020745
 30
0.0
 11
302.49999999999989
 21
-114.373270445643
 31
0.0
  0
LINE
  5
1110C
  8
1
 10
288.49999956786621
 20
-111.373270445643
 30
0.0
 11
288.49999956786621
 21
-101.373270445643
 31
0.0
  0
LINE
  5
1110D
  8
0
 10
285.24999956786621
 20
-108.873270445643
 30
0.0
 11
285.24999956786621
 21
-105.87327085542491
 31
0.0
  0
LINE
  5
1110E
  8
0
 10
291.74999956786621
 20
-108.873270445643
 30
0.0
 11
291.74999956786621
 21
-105.87327085542491
 31
0.0
  0
LINE
  5
1110F
  8
0
 10
286.79999956786622
 20
-105.87327085542491
 30
0.0
 11
286.79999956786622
 21
-103.873270445643
 31
0.0
  0
LINE
  5
11110
  8
0
 10
290.1999995678662
 20
-105.87327085542491
 30
0.0
 11
290.1999995678662
 21
-103.873270445643
 31
0.0
  0
LINE
  5
11111
  8
3
 10
289.72949956786698
 20
-104.37327085542491
 30
0.0
 11
289.72949956786698
 21
-103.373270445643
 31
0.0
  0
LINE
  5
11112
  8
3
 10
289.72949956786698
 20
-104.37327085542491
 30
0.0
 11
289.99999956786621
 21
-104.841790598871
 31
0.0
  0
LINE
  5
11113
  8
3
 10
287.27049956786539
 20
-104.37327085542491
 30
0.0
 11
286.99999956786621
 21
-104.841790598871
 31
0.0
  0
LINE
  5
11114
  8
3
 10
287.27049956786561
 20
-104.37327085542491
 30
0.0
 11
287.27049956786539
 21
-103.373270445643
 31
0.0
  0
LINE
  5
11115
  8
0
 10
286.99999956786621
 20
-104.37327085542491
 30
0.0
 11
289.99999956786621
 21
-104.37327085542491
 31
0.0
  0
LINE
  5
11116
  8
0
 10
324.99999999999977
 20
-109.373270445643
 30
0.0
 11
279.99999999999977
 21
-109.373270445643
 31
0.0
  0
LINE
  5
11117
  8
0
 10
311.4999996125697
 20
-107.87327071758919
 30
0.0
 11
310.5000003799795
 21
-108.87327041584059
 31
0.0
  0
LINE
  5
11118
  8
0
 10
293.50000038743008
 20
-107.87327071758919
 30
0.0
 11
293.50000038743008
 21
-108.87327041584059
 31
0.0
  0
LINE
  5
11119
  8
0
 10
311.4999996125697
 20
-108.87327041584059
 30
0.0
 11
311.4999996125697
 21
-107.87327071758919
 31
0.0
  0
LINE
  5
1111A
  8
0
 10
286.00000008940691
 20
-103.373270445643
 30
0.0
 11
284.99999999999989
 21
-103.373270445643
 31
0.0
  0
LINE
  5
1111B
  8
0
 10
318.99999991059292
 20
-103.373270445643
 30
0.0
 11
319.99999999999989
 21
-103.373270445643
 31
0.0
  0
LINE
  5
1111C
  8
0
 10
292.50000038743008
 20
-103.373270445643
 30
0.0
 11
293.50000038743008
 21
-104.373270445643
 31
0.0
  0
LINE
  5
1111D
  8
0
 10
312.4999996125697
 20
-103.373270445643
 30
0.0
 11
311.4999996125697
 21
-104.373270445643
 31
0.0
  0
LINE
  5
1111E
  8
0
 10
285.74999958276737
 20
-105.87327085542491
 30
0.0
 11
285.24999956786621
 21
-105.87327085542491
 31
0.0
  0
LINE
  5
1111F
  8
0
 10
291.24999955296511
 20
-105.87327085542491
 30
0.0
 11
291.74999956786621
 21
-105.87327085542491
 31
0.0
  0
CIRCLE
  5
11121
  8
0
 10
358.5
 20
-52.094764855300568
 30
0.0
 40
1.7
  0
CIRCLE
  5
11122
  8
2
 10
358.5
 20
-52.094764855300568
 30
0.0
 40
3.25
  0
CIRCLE
  5
11123
  8
0
 10
379.50000000000011
 20
-39.9704092023185
 30
0.0
 40
1.7
  0
CIRCLE
  5
11124
  8
2
 10
379.50000000000011
 20
-39.9704092023185
 30
0.0
 40
3.25
  0
CIRCLE
  5
11125
  8
0
 10
379.50000000000011
 20
-64.219120508282643
 30
0.0
 40
1.7
  0
CIRCLE
  5
11126
  8
2
 10
379.50000000000011
 20
-64.219120508282643
 30
0.0
 40
3.25
  0
LINE
  5
11128
  8
0
 10
287.25504655016391
 20
-95.373270445642973
 30
0.0
 11
279.99999999999977
 21
-95.373270445642973
 31
0.0
  0
LINE
  5
11129
  8
0
 10
319.99999999999989
 20
-95.873270445642973
 30
0.0
 11
319.99999999999989
 21
-103.373270445643
 31
0.0
  0
LINE
  5
1112A
  8
0
 10
284.99999999999989
 20
-95.873270445642973
 30
0.0
 11
284.99999999999989
 21
-103.373270445643
 31
0.0
  0
LINE
  5
1112B
  8
0
 10
317.74495344983592
 20
-95.373270445642973
 30
0.0
 11
324.99999999999977
 21
-95.373270445642973
 31
0.0
  0
LINE
  5
1116F
  8
1
 10
372.5
 20
-90.373270445642973
 30
0.0
 11
372.5
 21
-114.373270445643
 31
0.0
  0
LINE
  5
11170
  8
0
 10
355.0
 20
-95.873270445642987
 30
0.0
 11
355.0
 21
-103.373270445643
 31
0.0
  0
LINE
  5
11171
  8
0
 10
390.0
 20
-95.873270445642987
 30
0.0
 11
390.0
 21
-103.373270445643
 31
0.0
  0
LINE
  5
11172
  8
1
 10
358.49999956786633
 20
-111.373270445643
 30
0.0
 11
358.49999956786633
 21
-101.3732704456429
 31
0.0
  0
LINE
  5
11173
  8
0
 10
355.24999956786638
 20
-108.873270445643
 30
0.0
 11
355.24999956786633
 21
-105.87327085542491
 31
0.0
  0
LINE
  5
11174
  8
0
 10
361.74999956786638
 20
-108.8732700582128
 30
0.0
 11
361.74999956786633
 21
-105.87327085542491
 31
0.0
  0
LINE
  5
11175
  8
0
 10
356.79999956786628
 20
-105.87327085542491
 30
0.0
 11
356.79999956786622
 21
-103.8732704456429
 31
0.0
  0
LINE
  5
11176
  8
0
 10
360.19999956786631
 20
-105.87327085542491
 30
0.0
 11
360.19999956786631
 21
-103.8732704456427
 31
0.0
  0
LINE
  5
1117C
  8
0
 10
395.0
 20
-109.373270445643
 30
0.0
 11
350.0
 21
-109.373270445643
 31
0.0
  0
LINE
  5
1117E
  8
0
 10
363.50000038743019
 20
-104.3732704456429
 30
0.0
 11
363.50000038743019
 21
-108.87327041584059
 31
0.0
  0
LINE
  5
1117F
  8
0
 10
381.49999961256981
 20
-108.87327041584059
 30
0.0
 11
381.49999961256981
 21
-104.3732704456429
 31
0.0
  0
LINE
  5
11180
  8
0
 10
390.0
 20
-103.3732704456425
 30
0.0
 11
355.0
 21
-103.373270445643
 31
0.0
  0
LINE
  5
11182
  8
0
 10
362.50000038743019
 20
-103.373270445643
 30
0.0
 11
363.50000038743019
 21
-104.373270445643
 31
0.0
  0
LINE
  5
11183
  8
0
 10
382.49999961256981
 20
-103.373270445643
 30
0.0
 11
381.49999961256981
 21
-104.373270445643
 31
0.0
  0
LINE
  5
11185
  8
0
 10
355.24999956786638
 20
-105.87327085542491
 30
0.0
 11
361.74999956786633
 21
-105.87327085542491
 31
0.0
  0
LINE
  5
11186
  8
0
 10
395.0
 20
-95.373270445642973
 30
0.0
 11
350.0
 21
-95.373270445642973
 31
0.0
  0
LINE
  5
11189
  8
0
 10
363.50000038743019
 20
-104.3732704456429
 30
0.0
 11
381.49999961256981
 21
-104.3732704456429
 31
0.0
  0
CIRCLE
  5
111D2
  8
0
 10
372.5
 20
-52.094764855300603
 30
0.0
 40
17.5
  0
LINE
  5
111D6
  8
0
 10
208.50000038743019
 20
-100.873270445643
 30
0.0
 11
208.00000038743019
 21
-101.373270445643
 31
0.0
  0
LINE
  5
111D7
  8
0
 10
226.49999961256981
 20
-100.873270445643
 30
0.0
 11
226.99999961256981
 21
-101.373270445643
 31
0.0
  0
LINE
  5
111D8
  8
0
 10
208.50000038743019
 20
-100.873270445643
 30
0.0
 11
226.49999961256981
 21
-100.873270445643
 31
0.0
  0
LINE
  5
111D9
  8
0
 10
138.50000038743011
 20
-100.873270445643
 30
0.0
 11
138.00000038742999
 21
-101.373270445643
 31
0.0
  0
LINE
  5
111DA
  8
0
 10
156.4999996125697
 20
-100.873270445643
 30
0.0
 11
156.9999996125697
 21
-101.373270445643
 31
0.0
  0
LINE
  5
111DC
  8
0
 10
139.49999962002019
 20
-100.87327041584059
 30
0.0
 11
138.50000038742999
 21
-100.87327041584059
 31
0.0
  0
LINE
  5
111DD
  8
0
 10
155.5000003799795
 20
-100.87327041584059
 30
0.0
 11
156.49999961256961
 21
-100.87327041584059
 31
0.0
  0
LINE
  5
111DE
  8
0
 10
130.24999956786621
 20
-100.873270445643
 30
0.0
 11
129.74999956786621
 21
-101.373270445643
 31
0.0
  0
LINE
  5
111DF
  8
0
 10
136.7499995678661
 20
-100.873270445643
 30
0.0
 11
137.24999956786621
 21
-101.373270445643
 31
0.0
  0
LINE
  5
111E0
  8
0
 10
130.24999956786621
 20
-100.873270445643
 30
0.0
 11
130.74999958276729
 21
-100.873270445643
 31
0.0
  0
LINE
  5
111E1
  8
0
 10
136.24999955296499
 20
-100.87327041584059
 30
0.0
 11
136.7499995678661
 21
-100.87327041584059
 31
0.0
  0
LINE
  5
111E2
  8
0
 10
131.79999956786611
 20
-95.873270445642987
 30
0.0
 11
131.29999956786611
 21
-95.373270445642973
 31
0.0
  0
LINE
  5
111E3
  8
0
 10
131.79999956786611
 20
-95.873270445642987
 30
0.0
 11
132.0000002533196
 21
-95.873270445642987
 31
0.0
  0
LINE
  5
111E4
  8
0
 10
135.1999995678662
 20
-95.873270445642603
 30
0.0
 11
135.69999956786609
 21
-95.373270445642518
 31
0.0
  0
LINE
  5
111E5
  8
0
 10
135.1999995678662
 20
-95.873270445642603
 30
0.0
 11
134.9999988824128
 21
-95.873270445642675
 31
0.0
  0
LINE
  5
111E6
  8
0
 10
200.2499995678663
 20
-100.873270445643
 30
0.0
 11
199.7499995678663
 21
-101.373270445643
 31
0.0
  0
LINE
  5
111E7
  8
0
 10
206.7499995678663
 20
-100.873270445643
 30
0.0
 11
207.2499995678663
 21
-101.373270445643
 31
0.0
  0
LINE
  5
111E8
  8
0
 10
200.2499995678663
 20
-100.873270445643
 30
0.0
 11
206.7499995678663
 21
-100.873270445643
 31
0.0
  0
LINE
  5
111EA
  8
0
 10
201.79999956786631
 20
-95.873270445642987
 30
0.0
 11
201.29999956786631
 21
-95.373270445642973
 31
0.0
  0
LINE
  5
111EB
  8
0
 10
201.79999956786631
 20
-95.873270445642987
 30
0.0
 11
205.19999956786631
 21
-95.873270445642987
 31
0.0
  0
LINE
  5
111EC
  8
0
 10
205.19999956786631
 20
-95.873270445642603
 30
0.0
 11
205.6999995678662
 21
-95.373270445642518
 31
0.0
  0
LINE
  5
111ED
  8
0
 10
286.79999956786622
 20
-103.873270445643
 30
0.0
 11
286.29999956786611
 21
-103.373270445643
 31
0.0
  0
LINE
  5
111EE
  8
0
 10
286.79999956786622
 20
-103.873270445643
 30
0.0
 11
287.00000025331963
 21
-103.873270445643
 31
0.0
  0
LINE
  5
111EF
  8
0
 10
290.19999956786631
 20
-103.8732704456426
 30
0.0
 11
290.6999995678662
 21
-103.3732704456425
 31
0.0
  0
LINE
  5
111F0
  8
0
 10
289.99999981373543
 20
-103.873270445643
 30
0.0
 11
290.1999995678662
 21
-103.873270445643
 31
0.0
  0
LINE
  5
111F1
  8
0
 10
285.24999956786621
 20
-108.873270445643
 30
0.0
 11
284.74999956786621
 21
-109.373270445643
 31
0.0
  0
LINE
  5
111F2
  8
0
 10
291.74999956786621
 20
-108.873270445643
 30
0.0
 11
292.24999956786621
 21
-109.373270445643
 31
0.0
  0
LINE
  5
111F4
  8
0
 10
291.74999956786621
 20
-108.873270445643
 30
0.0
 11
291.24999955296511
 21
-108.87327041584059
 31
0.0
  0
LINE
  5
111F5
  8
0
 10
285.24999956786621
 20
-108.873270445643
 30
0.0
 11
285.74999958276737
 21
-108.87327041584059
 31
0.0
  0
LINE
  5
111F6
  8
0
 10
356.79999956786628
 20
-103.873270445643
 30
0.0
 11
356.29999956786628
 21
-103.373270445643
 31
0.0
  0
LINE
  5
111F7
  8
0
 10
356.79999956786628
 20
-103.873270445643
 30
0.0
 11
360.19999956786631
 21
-103.8732704456427
 31
0.0
  0
LINE
  5
111F9
  8
0
 10
360.19999956786643
 20
-103.8732704456426
 30
0.0
 11
360.69999956786631
 21
-103.3732704456425
 31
0.0
  0
LINE
  5
111FA
  8
0
 10
355.24999956786633
 20
-108.873270445643
 30
0.0
 11
354.74999956786633
 21
-109.373270445643
 31
0.0
  0
LINE
  5
111FB
  8
0
 10
361.74999956786633
 20
-108.873270445643
 30
0.0
 11
362.24999956786633
 21
-109.373270445643
 31
0.0
  0
LINE
  5
111FD
  8
0
 10
355.24999956786633
 20
-108.873270445643
 30
0.0
 11
361.74999956786633
 21
-108.8732700582128
 31
0.0
  0
LINE
  5
111FE
  8
0
 10
293.50000038743008
 20
-108.873270445643
 30
0.0
 11
293.00000038743008
 21
-109.373270445643
 31
0.0
  0
LINE
  5
111FF
  8
0
 10
311.4999996125697
 20
-108.873270445643
 30
0.0
 11
311.9999996125697
 21
-109.373270445643
 31
0.0
  0
LINE
  5
11200
  8
0
 10
294.49999962002028
 20
-108.87327041584059
 30
0.0
 11
293.50000038743008
 21
-108.87327041584059
 31
0.0
  0
LINE
  5
11201
  8
0
 10
310.5000003799795
 20
-108.87327041584059
 30
0.0
 11
311.4999996125697
 21
-108.87327041584059
 31
0.0
  0
LINE
  5
11202
  8
0
 10
363.50000038743019
 20
-108.873270445643
 30
0.0
 11
363.00000038743019
 21
-109.373270445643
 31
0.0
  0
LINE
  5
11203
  8
0
 10
381.49999961256981
 20
-108.873270445643
 30
0.0
 11
381.99999961256981
 21
-109.373270445643
 31
0.0
  0
LINE
  5
11205
  8
0
 10
363.50000038743019
 20
-108.87327041584059
 30
0.0
 11
381.49999961256981
 21
-108.87327041584059
 31
0.0
  0
LINE
  5
11249
  8
0
 10
284.99999999999989
 20
-95.873270445642987
 30
0.0
 11
284.49999999999989
 21
-95.373270445642973
 31
0.0
  0
LINE
  5
1124A
  8
0
 10
319.99999999999989
 20
-95.873270445642987
 30
0.0
 11
320.49999999999989
 21
-95.373270445642973
 31
0.0
  0
LINE
  5
1124B
  8
0
 10
284.99999999999989
 20
-95.873270445642987
 30
0.0
 11
285.95585600175758
 21
-95.873270445642987
 31
0.0
  0
LINE
  5
1124C
  8
0
 10
319.04414399824219
 20
-95.873270445642987
 30
0.0
 11
319.99999999999989
 21
-95.873270445642987
 31
0.0
  0
LINE
  5
1124D
  8
0
 10
355.0
 20
-95.873270445642987
 30
0.0
 11
354.5
 21
-95.373270445642973
 31
0.0
  0
LINE
  5
1124E
  8
0
 10
390.0
 20
-95.873270445642987
 30
0.0
 11
390.5
 21
-95.373270445642973
 31
0.0
  0
LINE
  5
1124F
  8
0
 10
355.0
 20
-95.873270445642987
 30
0.0
 11
390.0
 21
-95.873270445642987
 31
0.0
  0
LINE
  5
114C3
  8
0
 10
164.50000092387171
 20
-248.74510612374181
 30
0.0
 11
164.50000092387171
 21
-246.7451062615776
 31
0.0
  0
LINE
  5
114C4
  8
0
 10
163.99999991059281
 20
-249.24510620569819
 30
0.0
 11
164.50000092387171
 21
-248.74510612374181
 31
0.0
  0
LINE
  5
114C5
  8
0
 10
164.50000092387171
 20
-246.7451062615776
 30
0.0
 11
163.99999991059281
 21
-246.24510617962119
 31
0.0
  0
LINE
  5
114C7
  8
0
 10
130.49999907612769
 20
-246.74510626157749
 30
0.0
 11
130.49999907612769
 21
-248.74510612374181
 31
0.0
  0
LINE
  5
114C9
  8
0
 10
130.49999907612769
 20
-248.74510612374181
 30
0.0
 11
131.00000008940671
 21
-249.24510620569819
 31
0.0
  0
LINE
  5
114CB
  8
0
 10
131.00000008940671
 20
-246.2451061796211
 30
0.0
 11
163.99999991059281
 21
-246.24510617962119
 31
0.0
  0
LINE
  5
114CC
  8
0
 10
131.00000008940671
 20
-246.2451061796211
 30
0.0
 11
130.49999907612769
 21
-246.74510626157749
 31
0.0
  0
LINE
  5
114D1
  8
1
 10
133.49999999999969
 20
-244.2451061796211
 30
0.0
 11
133.49999999999969
 21
-254.24510620569819
 31
0.0
  0
LINE
  5
11509
  8
0
 10
134.9999999999998
 20
-250.54510623177521
 30
0.0
 11
131.9999999999998
 21
-250.54510623177521
 31
0.0
  0
LINE
  5
1150A
  8
0
 10
136.49999999999969
 20
-252.04510623177521
 30
0.0
 11
134.99999999999969
 21
-250.54510623177521
 31
0.0
  0
LINE
  5
1150C
  8
0
 10
136.49999999999969
 20
-252.04510623177521
 30
0.0
 11
136.49999999999969
 21
-252.2451062317752
 31
0.0
  0
LINE
  5
1150D
  8
0
 10
130.49999999999969
 20
-252.04510623177521
 30
0.0
 11
136.49999999999969
 21
-252.04510623177521
 31
0.0
  0
LINE
  5
1150E
  8
0
 10
130.49999999999969
 20
-252.04510623177521
 30
0.0
 11
131.9999999999998
 21
-250.54510623177521
 31
0.0
  0
LINE
  5
1150F
  8
0
 10
130.49999999999969
 20
-252.2451062317752
 30
0.0
 11
130.49999999999969
 21
-252.04510623177521
 31
0.0
  0
LINE
  5
11510
  8
0
 10
131.9999999999998
 20
-250.54510623177521
 30
0.0
 11
131.9999999999998
 21
-249.24510620569811
 31
0.0
  0
LINE
  5
11514
  8
0
 10
134.99999999999969
 20
-249.24510620569819
 30
0.0
 11
134.99999999999969
 21
-250.54510623177529
 31
0.0
  0
LINE
  5
11518
  8
0
 10
131.9999999999998
 20
-250.0765864883291
 30
0.0
 11
134.99999999999969
 21
-250.0765864883291
 31
0.0
  0
LINE
  5
11519
  8
3
 10
132.270499999999
 20
-250.0765864883291
 30
0.0
 11
132.270499999999
 21
-249.24510620569819
 31
0.0
  0
LINE
  5
1151B
  8
3
 10
132.270499999999
 20
-250.0765864883291
 30
0.0
 11
131.9999999999998
 21
-250.54510623177521
 31
0.0
  0
LINE
  5
1151C
  8
3
 10
134.72950000000051
 20
-250.0765864883291
 30
0.0
 11
134.99999999999969
 21
-250.54510623177521
 31
0.0
  0
LINE
  5
1151D
  8
3
 10
134.72950000000051
 20
-250.0765864883291
 30
0.0
 11
134.72950000000051
 21
-249.24510620569819
 31
0.0
  0
LINE
  5
11520
  8
0
 10
319.50000092387188
 20
-250.74510612374181
 30
0.0
 11
319.50000092387188
 21
-248.74510626157749
 31
0.0
  0
LINE
  5
11521
  8
0
 10
318.99999991059292
 20
-251.24510620569819
 30
0.0
 11
319.50000092387188
 21
-250.74510612374181
 31
0.0
  0
LINE
  5
11522
  8
0
 10
319.50000092387188
 20
-248.74510626157749
 30
0.0
 11
318.99999991059292
 21
-248.2451061796211
 31
0.0
  0
LINE
  5
11524
  8
0
 10
285.49999907612789
 20
-248.74510626157749
 30
0.0
 11
285.49999907612789
 21
-250.74510612374181
 31
0.0
  0
LINE
  5
11526
  8
0
 10
285.49999907612789
 20
-250.74510612374181
 30
0.0
 11
286.00000008940691
 21
-251.24510620569819
 31
0.0
  0
LINE
  5
11528
  8
0
 10
286.00000008940691
 20
-248.2451061796211
 30
0.0
 11
318.99999991059292
 21
-248.2451061796211
 31
0.0
  0
LINE
  5
11529
  8
0
 10
286.00000008940691
 20
-248.2451061796211
 30
0.0
 11
285.49999907612789
 21
-248.74510626157749
 31
0.0
  0
LINE
  5
1152B
  8
1
 10
288.49999999999989
 20
-246.2451061796211
 30
0.0
 11
288.49999999999989
 21
-256.24510620569822
 31
0.0
  0
LINE
  5
1152C
  8
0
 10
289.99999999999989
 20
-252.54510623177521
 30
0.0
 11
286.99999999999989
 21
-252.54510623177521
 31
0.0
  0
LINE
  5
1152D
  8
0
 10
291.49999999999989
 20
-254.04510623177521
 30
0.0
 11
289.99999999999989
 21
-252.54510623177521
 31
0.0
  0
LINE
  5
1152F
  8
0
 10
291.49999999999989
 20
-254.04510623177521
 30
0.0
 11
291.49999999999989
 21
-254.2451062317752
 31
0.0
  0
LINE
  5
11530
  8
0
 10
285.49999999999989
 20
-254.04510623177521
 30
0.0
 11
291.49999999999989
 21
-254.04510623177521
 31
0.0
  0
LINE
  5
11531
  8
0
 10
285.49999999999989
 20
-254.04510623177521
 30
0.0
 11
286.99999999999989
 21
-252.54510623177521
 31
0.0
  0
LINE
  5
11532
  8
0
 10
285.49999999999989
 20
-254.2451062317752
 30
0.0
 11
285.49999999999989
 21
-254.04510623177521
 31
0.0
  0
LINE
  5
11533
  8
0
 10
286.99999999999989
 20
-252.54510623177521
 30
0.0
 11
286.99999999999989
 21
-251.24510620569811
 31
0.0
  0
LINE
  5
11537
  8
0
 10
289.99999999999989
 20
-251.24510620569819
 30
0.0
 11
289.99999999999989
 21
-252.54510623177529
 31
0.0
  0
LINE
  5
1153B
  8
0
 10
286.99999999999989
 20
-252.0765864883291
 30
0.0
 11
289.99999999999989
 21
-252.0765864883291
 31
0.0
  0
LINE
  5
1153C
  8
3
 10
287.27049999999917
 20
-252.0765864883291
 30
0.0
 11
287.27049999999917
 21
-251.24510620569819
 31
0.0
  0
LINE
  5
1153E
  8
3
 10
287.27049999999917
 20
-252.0765864883291
 30
0.0
 11
286.99999999999989
 21
-252.54510623177521
 31
0.0
  0
LINE
  5
1153F
  8
3
 10
289.72950000000071
 20
-252.0765864883291
 30
0.0
 11
289.99999999999989
 21
-252.54510623177521
 31
0.0
  0
LINE
  5
11540
  8
3
 10
289.72950000000071
 20
-252.0765864883291
 30
0.0
 11
289.72950000000071
 21
-251.24510620569819
 31
0.0
  0
TEXT
  5
12AFE
  8
0
 62
     3
 10
155.08666666666659
 20
-173.04136863427681
 30
0.0
 40
3.2000000000000002
  1
3mmのプレートに固定する場合
 72
     1
 11
182.5
 21
-173.46803530094351
 31
0.0
 73
     1
  0
TEXT
  5
12AFF
  8
0
 62
     3
 10
293.43333333333328
 20
-268.545106205698
 30
0.0
 40
3.2000000000000002
  1
組付け状態
 72
     1
 11
302.5
 21
-268.545106205698
 31
0.0
  0
TEXT
  5
12B00
  8
0
 62
     3
 10
365.24666666666673
 20
-268.545106205698
 30
0.0
 40
3.2000000000000002
  1
取付け穴
 72
     1
 11
372.5
 21
-268.545106205698
 31
0.0
  0
TEXT
  5
12B01
  8
0
 62
     3
 10
123.78
 20
-180.04136863427681
 30
0.0
 40
3.2000000000000002
  1
For installation on plate of 3 mm thickness.
 72
     1
 11
182.5
 21
-180.46803530094351
 31
0.0
 73
     1
  0
TEXT
  5
12B02
  8
0
 62
     3
 10
277.54000000000002
 20
-275.545106205698
 30
0.0
 40
3.2000000000000002
  1
Installed condition
 72
     1
 11
302.5
 21
-275.545106205698
 31
0.0
  0
TEXT
  5
12B03
  8
0
 62
     3
 10
350.4733333333333
 20
-275.545106205698
 30
0.0
 40
3.2000000000000002
  1
Installation hole
 72
     1
 11
372.5
 21
-275.545106205698
 31
0.0
  0
TEXT
  5
12B04
  8
0
 62
     3
 10
295.68666666666661
 20
-173.04136863427681
 30
0.0
 40
3.2000000000000002
  1
3mmを超え6mm未満のプレートに固定する場合
 72
     1
 11
337.5
 21
-173.46803530094351
 31
0.0
 73
     1
  0
TEXT
  5
12B05
  8
0
 62
     3
 10
138.43333333333331
 20
-268.545106205698
 30
0.0
 40
3.2000000000000002
  1
組付け状態
 72
     1
 11
147.5
 21
-268.545106205698
 31
0.0
  0
TEXT
  5
12B06
  8
0
 62
     3
 10
210.2466666666667
 20
-268.545106205698
 30
0.0
 40
3.2000000000000002
  1
取付け穴
 72
     1
 11
217.5
 21
-268.545106205698
 31
0.0
  0
TEXT
  5
12B07
  8
0
 62
     3
 10
264.7000000000001
 20
-180.04136863427681
 30
0.0
 40
3.2000000000000002
  1
For installation on plate of over 3 to 6 mm thickness.
 72
     1
 11
337.5
 21
-180.46803530094351
 31
0.0
 73
     1
  0
TEXT
  5
12B08
  8
0
 62
     3
 10
122.54000000000001
 20
-275.545106205698
 30
0.0
 40
3.2000000000000002
  1
Installed condition
 72
     1
 11
147.5
 21
-275.545106205698
 31
0.0
  0
TEXT
  5
12B09
  8
0
 62
     3
 10
195.4733333333333
 20
-275.545106205698
 30
0.0
 40
3.2000000000000002
  1
Installation hole
 72
     1
 11
217.5
 21
-275.545106205698
 31
0.0
  0
LINE
  5
12BED
  8
1
 10
217.5
 20
-186.96660061535559
 30
0.0
 11
217.5
 21
-224.96660061535559
 31
0.0
  0
LINE
  5
12BEE
  8
1
 10
198.49999999999989
 20
-205.96660061535559
 30
0.0
 11
236.5
 21
-205.96660061535559
 31
0.0
  0
LINE
  5
12BEF
  8
0
 10
194.99999999999989
 20
-249.24510620569811
 30
0.0
 11
239.99999999999989
 21
-249.24510620569811
 31
0.0
  0
LINE
  5
12BF0
  8
0
 10
208.5
 20
-250.24510620569811
 30
0.0
 11
207.5
 21
-249.24510620569811
 31
0.0
  0
LINE
  5
12BF1
  8
0
 10
194.99999999999989
 20
-252.24510620569811
 30
0.0
 11
239.99999999999989
 21
-252.24510620569811
 31
0.0
  0
LINE
  5
12BF2
  8
0
 10
208.5
 20
-251.74510620569811
 30
0.0
 11
208.0
 21
-252.24510620569811
 31
0.0
  0
LINE
  5
12BF3
  8
1
 10
217.5
 20
-244.24510620569811
 30
0.0
 11
217.5
 21
-257.24510620569811
 31
0.0
  0
CIRCLE
  5
12BF4
  8
0
 10
217.5
 20
-205.96660061535559
 30
0.0
 40
9.0
  0
CIRCLE
  5
12BF5
  8
1
 10
217.5
 20
-205.96660061535559
 30
0.0
 40
14.0
  0
CIRCLE
  5
12BF6
  8
0
 10
203.5
 20
-205.96660061535559
 30
0.0
 40
1.7
  0
CIRCLE
  5
12BF7
  8
2
 10
203.5
 20
-205.96660061535559
 30
0.0
 40
3.5
  0
LINE
  5
12BF8
  8
1
 10
227.24999999999989
 20
-189.07910524155909
 30
0.0
 11
221.74999999999989
 21
-198.60538468318791
 31
0.0
  0
CIRCLE
  5
12BF9
  8
0
 10
224.49999999999989
 20
-193.84224496237351
 30
0.0
 40
1.7
  0
CIRCLE
  5
12BFA
  8
2
 10
224.49999999999989
 20
-193.84224496237351
 30
0.0
 40
3.5
  0
LINE
  5
12BFB
  8
1
 10
227.25
 20
-222.8540959891522
 30
0.0
 11
221.74999999999989
 21
-213.32781654752341
 31
0.0
  0
CIRCLE
  5
12BFC
  8
0
 10
224.5
 20
-218.09095626833769
 30
0.0
 40
1.6999999999999991
  0
CIRCLE
  5
12BFD
  8
2
 10
224.5
 20
-218.09095626833769
 30
0.0
 40
3.5
  0
LINE
  5
12BFE
  8
0
 10
208.5
 20
-250.24510620569811
 30
0.0
 11
208.5
 21
-251.74510620569811
 31
0.0
  0
LINE
  5
12BFF
  8
1
 10
203.5
 20
-247.24510620569811
 30
0.0
 11
203.5
 21
-254.24510620569811
 31
0.0
  0
LINE
  5
12C00
  8
0
 10
226.5
 20
-250.24510620569811
 30
0.0
 11
227.5
 21
-249.24510620569811
 31
0.0
  0
LINE
  5
12C01
  8
0
 10
226.49999999999989
 20
-251.74510620569811
 30
0.0
 11
226.99999999999989
 21
-252.24510620569811
 31
0.0
  0
LINE
  5
12C02
  8
0
 10
226.5
 20
-250.24510620569811
 30
0.0
 11
226.49999999999989
 21
-251.74510620569811
 31
0.0
  0
LINE
  5
12C03
  8
0
 10
208.5
 20
-250.24510620569811
 30
0.0
 11
226.5
 21
-250.24510620569831
 31
0.0
  0
LINE
  5
12C04
  8
0
 10
226.49999999999989
 20
-251.74510620569811
 30
0.0
 11
208.5
 21
-251.74510620569819
 31
0.0
  0
LINE
  5
12C37
  8
0
 10
201.80000000000001
 20
-249.24510620569811
 30
0.0
 11
201.80000000000001
 21
-250.44510620569801
 31
0.0
  0
LINE
  5
12C38
  8
0
 10
205.19999999999999
 20
-249.24510620569811
 30
0.0
 11
205.19999999999999
 21
-250.44510620569801
 31
0.0
  0
LINE
  5
12C39
  8
0
 10
201.80000000000001
 20
-250.44510620569801
 30
0.0
 11
200.0
 21
-252.24510620569811
 31
0.0
  0
LINE
  5
12C3A
  8
0
 10
205.19999999999999
 20
-250.44510620569801
 30
0.0
 11
207.0
 21
-252.24510620569811
 31
0.0
  0
LINE
  5
12C3B
  8
0
 10
201.80000000000001
 20
-250.44510620569801
 30
0.0
 11
205.19999999999999
 21
-250.44510620569801
 31
0.0
  0
LINE
  5
12CA7
  8
1
 10
372.5
 20
-183.46660061535559
 30
0.0
 11
372.5
 21
-228.46660061535559
 31
0.0
  0
LINE
  5
12CA8
  8
1
 10
350.0
 20
-205.96660061535559
 30
0.0
 11
395.0
 21
-205.96660061535559
 31
0.0
  0
LINE
  5
12CA9
  8
0
 10
355.0
 20
-251.24510620569811
 30
0.0
 11
390.0
 21
-251.24510620569811
 31
0.0
  0
LINE
  5
12CAA
  8
0
 10
350.0
 20
-249.24510620569811
 30
0.0
 11
395.0
 21
-249.24510620569811
 31
0.0
  0
LINE
  5
12CAB
  8
0
 10
390.0
 20
-249.74510620569799
 30
0.0
 11
390.5
 21
-249.24510620569799
 31
0.0
  0
LINE
  5
12CAC
  8
0
 10
355.0
 20
-249.74510620569799
 30
0.0
 11
354.5
 21
-249.24510620569799
 31
0.0
  0
LINE
  5
12CAD
  8
0
 10
363.5
 20
-252.24510620569811
 30
0.0
 11
362.5
 21
-251.24510620569811
 31
0.0
  0
LINE
  5
12CAE
  8
0
 10
350.0
 20
-254.24510620569811
 30
0.0
 11
395.0
 21
-254.24510620569811
 31
0.0
  0
LINE
  5
12CAF
  8
0
 10
363.5
 20
-253.74510620569811
 30
0.0
 11
363.0
 21
-254.24510620569811
 31
0.0
  0
LINE
  5
12CB0
  8
1
 10
372.5
 20
-244.24510620569799
 30
0.0
 11
372.5
 21
-259.24510620569811
 31
0.0
  0
CIRCLE
  5
12CB1
  8
0
 10
372.5
 20
-205.96660061535559
 30
0.0
 40
9.0
  0
CIRCLE
  5
12CB2
  8
1
 10
372.5
 20
-205.96660061535559
 30
0.0
 40
14.0
  0
CIRCLE
  5
12CB3
  8
0
 10
358.5
 20
-205.96660061535559
 30
0.0
 40
1.7
  0
CIRCLE
  5
12CB4
  8
2
 10
358.5
 20
-205.96660061535559
 30
0.0
 40
3.5
  0
LINE
  5
12CB5
  8
1
 10
382.25
 20
-189.07910524155909
 30
0.0
 11
376.75
 21
-198.60538468318791
 31
0.0
  0
CIRCLE
  5
12CB6
  8
0
 10
379.5
 20
-193.84224496237351
 30
0.0
 40
1.7
  0
CIRCLE
  5
12CB7
  8
2
 10
379.5
 20
-193.84224496237351
 30
0.0
 40
3.5
  0
LINE
  5
12CB8
  8
1
 10
382.25
 20
-222.8540959891522
 30
0.0
 11
376.75
 21
-213.32781654752341
 31
0.0
  0
CIRCLE
  5
12CB9
  8
0
 10
379.5
 20
-218.09095626833769
 30
0.0
 40
1.6999999999999991
  0
CIRCLE
  5
12CBA
  8
2
 10
379.5
 20
-218.09095626833769
 30
0.0
 40
3.5
  0
LINE
  5
12CBB
  8
0
 10
363.5
 20
-252.24510620569811
 30
0.0
 11
363.5
 21
-253.74510620569811
 31
0.0
  0
LINE
  5
12CBC
  8
1
 10
358.5
 20
-249.24510620569811
 30
0.0
 11
358.5
 21
-256.24510620569811
 31
0.0
  0
LINE
  5
12CBD
  8
0
 10
381.5
 20
-252.24510620569811
 30
0.0
 11
382.5
 21
-251.24510620569811
 31
0.0
  0
LINE
  5
12CBE
  8
0
 10
381.5
 20
-253.74510620569811
 30
0.0
 11
382.0
 21
-254.24510620569811
 31
0.0
  0
LINE
  5
12CBF
  8
0
 10
381.5
 20
-252.24510620569811
 30
0.0
 11
381.5
 21
-253.74510620569811
 31
0.0
  0
LINE
  5
12CC0
  8
0
 10
363.5
 20
-252.24510620569811
 30
0.0
 11
381.5
 21
-252.24510620569831
 31
0.0
  0
LINE
  5
12CC1
  8
0
 10
381.5
 20
-253.74510620569811
 30
0.0
 11
363.5
 21
-253.74510620569819
 31
0.0
  0
LINE
  5
12CC2
  8
0
 10
356.80000000000018
 20
-251.24510620569811
 30
0.0
 11
356.80000000000018
 21
-252.44510620569801
 31
0.0
  0
LINE
  5
12CC3
  8
0
 10
360.19999999999999
 20
-251.24510620569811
 30
0.0
 11
360.19999999999999
 21
-252.44510620569801
 31
0.0
  0
LINE
  5
12CC4
  8
0
 10
356.80000000000018
 20
-252.44510620569801
 30
0.0
 11
355.0
 21
-254.24510620569811
 31
0.0
  0
LINE
  5
12CC5
  8
0
 10
360.19999999999999
 20
-252.44510620569801
 30
0.0
 11
362.0
 21
-254.24510620569811
 31
0.0
  0
LINE
  5
12CC6
  8
0
 10
356.80000000000018
 20
-252.44510620569801
 30
0.0
 11
360.19999999999999
 21
-252.44510620569801
 31
0.0
  0
CIRCLE
  5
12CC7
  8
0
 10
372.5
 20
-205.96660061535559
 30
0.0
 40
17.5
  0
LINE
  5
12CC8
  8
0
 10
390.0
 20
-251.24510620569811
 30
0.0
 11
390.0
 21
-249.74510620569799
 31
0.0
  0
LINE
  5
12CC9
  8
0
 10
355.0
 20
-251.24510620569811
 30
0.0
 11
355.0
 21
-249.74510620569799
 31
0.0
  0
LINE
  5
12CCA
  8
0
 10
355.0
 20
-249.74510620569799
 30
0.0
 11
390.0
 21
-249.74510620569799
 31
0.0
  0
LINE
  5
12D12
  8
0
 10
124.9999999999998
 20
-249.24510620569819
 30
0.0
 11
169.99999999999969
 21
-249.24510620569819
 31
0.0
  0
LINE
  5
12D13
  8
0
 10
138.49999999999989
 20
-250.24510620569811
 30
0.0
 11
137.49999999999989
 21
-249.24510620569819
 31
0.0
  0
LINE
  5
12D14
  8
0
 10
124.9999999999998
 20
-252.24510620569811
 30
0.0
 11
169.99999999999969
 21
-252.24510620569811
 31
0.0
  0
LINE
  5
12D15
  8
0
 10
138.49999999999989
 20
-251.74510620569819
 30
0.0
 11
137.99999999999989
 21
-252.24510620569811
 31
0.0
  0
LINE
  5
12D17
  8
0
 10
138.49999999999989
 20
-249.24510620569819
 30
0.0
 11
138.49999999999989
 21
-251.74510620569819
 31
0.0
  0
LINE
  5
12D19
  8
0
 10
156.49999999999989
 20
-250.24510620569811
 30
0.0
 11
157.49999999999989
 21
-249.24510620569819
 31
0.0
  0
LINE
  5
12D1A
  8
0
 10
156.49999999999969
 20
-251.74510620569819
 30
0.0
 11
156.9999999999998
 21
-252.24510620569811
 31
0.0
  0
LINE
  5
12D1B
  8
0
 10
156.49999999999989
 20
-249.24510620569819
 30
0.0
 11
156.49999999999969
 21
-251.74510620569819
 31
0.0
  0
LINE
  5
12D1D
  8
0
 10
156.49999999999969
 20
-251.74510620569819
 30
0.0
 11
138.49999999999989
 21
-251.74510620569831
 31
0.0
  0
LINE
  5
12D1E
  8
0
 10
131.79999999999981
 20
-249.24510620569819
 30
0.0
 11
131.79999999999981
 21
-250.4451062056981
 31
0.0
  0
LINE
  5
12D1F
  8
0
 10
135.1999999999999
 20
-249.24510620569819
 30
0.0
 11
135.1999999999999
 21
-250.4451062056981
 31
0.0
  0
LINE
  5
12D20
  8
0
 10
131.79999999999981
 20
-250.4451062056981
 30
0.0
 11
129.99999999999989
 21
-252.24510620569811
 31
0.0
  0
LINE
  5
12D21
  8
0
 10
135.1999999999999
 20
-250.4451062056981
 30
0.0
 11
136.99999999999989
 21
-252.24510620569811
 31
0.0
  0
LINE
  5
12D22
  8
0
 10
131.79999999999981
 20
-250.4451062056981
 30
0.0
 11
131.9999999999998
 21
-250.4451062056981
 31
0.0
  0
LINE
  5
12D23
  8
0
 10
284.99999999999989
 20
-251.24510620569819
 30
0.0
 11
319.99999999999989
 21
-251.24510620569819
 31
0.0
  0
LINE
  5
12D24
  8
0
 10
279.99999999999989
 20
-249.24510620569819
 30
0.0
 11
285.49999907612789
 21
-249.24510620569819
 31
0.0
  0
LINE
  5
12D25
  8
0
 10
319.99999999999989
 20
-249.74510620569811
 30
0.0
 11
320.49999999999989
 21
-249.24510620569811
 31
0.0
  0
LINE
  5
12D26
  8
0
 10
284.99999999999989
 20
-249.74510620569811
 30
0.0
 11
284.49999999999989
 21
-249.24510620569811
 31
0.0
  0
LINE
  5
12D27
  8
0
 10
293.49999999999989
 20
-252.24510620569811
 30
0.0
 11
292.49999999999989
 21
-251.24510620569819
 31
0.0
  0
LINE
  5
12D28
  8
0
 10
279.99999999999989
 20
-254.24510620569819
 30
0.0
 11
324.99999999999989
 21
-254.24510620569819
 31
0.0
  0
LINE
  5
12D29
  8
0
 10
293.49999999999989
 20
-253.74510620569819
 30
0.0
 11
292.99999999999989
 21
-254.24510620569819
 31
0.0
  0
LINE
  5
12D2B
  8
0
 10
293.49999999999989
 20
-251.24510620569819
 30
0.0
 11
293.49999999999989
 21
-253.74510620569819
 31
0.0
  0
LINE
  5
12D2D
  8
0
 10
311.49999999999989
 20
-252.24510620569811
 30
0.0
 11
312.49999999999989
 21
-251.24510620569819
 31
0.0
  0
LINE
  5
12D2E
  8
0
 10
311.49999999999989
 20
-253.74510620569819
 30
0.0
 11
311.99999999999989
 21
-254.24510620569819
 31
0.0
  0
LINE
  5
12D2F
  8
0
 10
311.49999999999989
 20
-251.24510620569819
 30
0.0
 11
311.49999999999989
 21
-253.74510620569819
 31
0.0
  0
LINE
  5
12D31
  8
0
 10
311.49999999999989
 20
-253.74510620569819
 30
0.0
 11
293.49999999999989
 21
-253.74510620569831
 31
0.0
  0
LINE
  5
12D32
  8
0
 10
286.80000000000013
 20
-251.24510620569819
 30
0.0
 11
286.80000000000013
 21
-252.4451062056981
 31
0.0
  0
LINE
  5
12D33
  8
0
 10
290.19999999999987
 20
-251.24510620569819
 30
0.0
 11
290.19999999999987
 21
-252.4451062056981
 31
0.0
  0
LINE
  5
12D34
  8
0
 10
286.80000000000013
 20
-252.4451062056981
 30
0.0
 11
284.99999999999989
 21
-254.24510620569819
 31
0.0
  0
LINE
  5
12D35
  8
0
 10
290.19999999999987
 20
-252.4451062056981
 30
0.0
 11
291.99999999999989
 21
-254.24510620569819
 31
0.0
  0
LINE
  5
12D36
  8
0
 10
286.80000000000013
 20
-252.4451062056981
 30
0.0
 11
286.99999999999989
 21
-252.4451062056981
 31
0.0
  0
LINE
  5
12D37
  8
0
 10
319.99999999999989
 20
-251.24510620569819
 30
0.0
 11
319.99999999999989
 21
-249.74510620569811
 31
0.0
  0
LINE
  5
12D38
  8
0
 10
284.99999999999989
 20
-251.24510620569819
 30
0.0
 11
284.99999999999989
 21
-249.74510620569811
 31
0.0
  0
LINE
  5
12D39
  8
0
 10
284.99999999999989
 20
-249.74510620569811
 30
0.0
 11
285.49999907612789
 21
-249.74510620569811
 31
0.0
  0
LINE
  5
12D42
  8
0
 10
157.49937672167991
 20
-218.97282028606159
 30
0.0
 11
155.5828461796043
 21
-218.2752596776746
 31
0.0
  0
LINE
  5
12D43
  8
0
 10
139.41715382039521
 20
-218.2752596776746
 30
0.0
 11
137.50062327831961
 21
-218.97282028606159
 31
0.0
  0
LINE
  5
12D44
  8
0
 10
137.17231903225161
 20
-219.41649863531819
 30
0.0
 11
136.50000005960439
 21
-232.2451057474874
 31
0.0
  0
LINE
  5
12D45
  8
0
 10
158.4999999403951
 20
-232.2451057474874
 30
0.0
 11
157.82768096774791
 21
-219.41649863531819
 31
0.0
  0
ARC
  5
12D46
  8
0
 10
137.67163363215971
 20
-219.44266610539441
 30
0.0
 40
0.5000000000000096
 50
110.0000000000035
 51
177.00000000000091
  0
ARC
  5
12D47
  8
0
 10
157.32836636783969
 20
-219.44266610539441
 30
0.0
 40
0.5000000000000121
 50
2.9999999999990901
 51
69.999999999996461
  0
ARC
  5
12D48
  8
0
 10
155.4118365096455
 20
-218.74510628392929
 30
0.0
 40
0.5
 50
69.999999999996461
 51
90.0
  0
ARC
  5
12D49
  8
0
 10
139.58816349035391
 20
-218.7451062839292
 30
0.0
 40
0.5
 50
90.0
 51
110.0000000000035
  0
ARC
  5
12D4A
  8
0
 10
163.4999999999998
 20
-239.58409802056889
 30
0.0
 40
1.00000000000001
 50
0.0
 51
69.999999999996461
  0
ARC
  5
12D4B
  8
0
 10
131.49999999999969
 20
-239.58409802056889
 30
0.0
 40
1.00000000000001
 50
110.0000000000035
 51
180.0
  0
LINE
  5
12D4C
  8
0
 10
130.49999907612769
 20
-239.58409713616601
 30
0.0
 11
130.49999907612769
 21
-245.7451060976648
 31
0.0
  0
LINE
  5
12D4D
  8
0
 10
164.50000092387171
 20
-245.7451060976648
 30
0.0
 11
164.50000092387171
 21
-239.58409713616601
 31
0.0
  0
LINE
  5
12D4E
  8
0
 10
130.49999907612769
 20
-245.7451060976648
 30
0.0
 11
131.00000008940671
 21
-246.2451061796211
 31
0.0
  0
LINE
  5
12D4F
  8
0
 10
163.99999991059281
 20
-246.2451061796211
 30
0.0
 11
164.50000092387171
 21
-245.7451060976648
 31
0.0
  0
LINE
  5
12D50
  8
0
 10
163.84201966226081
 20
-238.64440569689501
 30
0.0
 11
157.25000020116539
 21
-236.24510640313849
 31
0.0
  0
LINE
  5
12D51
  8
0
 10
137.7499997988341
 20
-236.24510640313849
 30
0.0
 11
131.15798033773871
 21
-238.64440569689501
 31
0.0
  0
LINE
  5
12D54
  8
0
 10
138.50000038742991
 20
-250.7451064515673
 30
0.0
 11
139.49999962002011
 21
-251.74510614981881
 31
0.0
  0
ARC
  5
12D57
  8
0
 10
156.14999999999969
 20
-235.8451062839292
 30
0.0
 40
0.3999999999999915
 50
180.0
 51
270.0
  0
ARC
  5
12D58
  8
0
 10
138.8499999999996
 20
-235.8451062839292
 30
0.0
 40
0.4000000000000057
 50
270.0
 51
0.0
  0
LINE
  5
12D59
  8
0
 10
139.2500000447032
 20
-232.2451057474874
 30
0.0
 11
139.2500000447032
 21
-235.8451070826315
 31
0.0
  0
LINE
  5
12D5A
  8
0
 10
155.74999995529629
 20
-235.8451070826315
 30
0.0
 11
155.74999995529629
 21
-232.2451057474874
 31
0.0
  0
LINE
  5
12D5F
  8
0
 10
148.30485548824049
 20
-222.6342516582273
 30
0.0
 11
146.695144511759
 21
-222.6342516582273
 31
0.0
  0
LINE
  5
12D60
  8
0
 10
145.89018913917221
 20
-232.2451057474874
 30
0.0
 11
146.25030363909869
 21
-222.6342516582273
 31
0.0
  0
ARC
  5
12D61
  8
0
 10
146.47272407542891
 20
-227.09618811489511
 30
0.0
 40
4.467476669646774
 50
87.146258666947375
 51
92.853741333052611
  0
LINE
  5
12D62
  8
0
 10
148.74969636090071
 20
-222.6342516582273
 30
0.0
 11
149.10981086082731
 21
-232.2451057474874
 31
0.0
  0
ARC
  5
12D63
  8
0
 10
148.5272759245706
 20
-227.09618811489511
 30
0.0
 40
4.467476669646774
 50
87.146258666947375
 51
92.853741333052611
  0
LINE
  5
12D64
  8
0
 10
145.95904950052471
 20
-221.30321661045781
 30
0.0
 11
144.7882012370971
 21
-220.1314004700445
 31
0.0
  0
ARC
  5
12D65
  8
0
 10
144.11189241162691
 20
-222.40479074632179
 30
0.0
 40
2.150687073441846
 50
353.8753464902573
 51
30.810240640893891
  0
LINE
  5
12D66
  8
0
 10
150.21179876290239
 20
-220.1314004700445
 30
0.0
 11
149.04095049947469
 21
-221.30321661045781
 31
0.0
  0
ARC
  5
12D67
  8
0
 10
150.71152025167481
 20
-222.36615029675659
 30
0.0
 40
1.98005841288456
 50
147.5326198730119
 51
187.78179299584059
  0
ARC
  5
12D68
  8
0
 10
142.74130977388589
 20
-222.67291309168101
 30
0.0
 40
3.2632883826140922
 50
51.152616516027791
 51
93.719534584131409
  0
ARC
  5
12D69
  8
0
 10
152.1908597336577
 20
-222.4586162271159
 30
0.0
 40
3.0549329789585911
 50
84.750056970005446
 51
130.37779192983211
  0
LINE
  5
12D6A
  8
0
 10
136.50000005960439
 20
-232.2451057474874
 30
0.0
 11
158.4999999403951
 21
-232.24510574748749
 31
0.0
  0
LINE
  5
12D6B
  8
0
 10
139.58816327154611
 20
-218.2451071779989
 30
0.0
 11
155.41183672845341
 21
-218.2451071779989
 31
0.0
  0
LINE
  5
12D6D
  8
0
 10
137.74999979883421
 20
-236.24510640313849
 30
0.0
 11
157.25000020116539
 21
-236.24510640313849
 31
0.0
  0
LINE
  5
12D7A
  8
0
 10
138.50000038742991
 20
-250.7451064515673
 30
0.0
 11
156.49999961256961
 21
-250.7451064515673
 31
0.0
  0
LINE
  5
12D7C
  8
0
 10
142.52961197867961
 20
-219.41649863531819
 30
0.0
 11
137.17231903225161
 21
-219.41649863531819
 31
0.0
  0
LINE
  5
12D7D
  8
0
 10
157.82768096774791
 20
-219.41649863531819
 30
0.0
 11
152.47038802131991
 21
-219.41649863531819
 31
0.0
  0
LINE
  5
12D7E
  8
0
 10
131.15798033773871
 20
-238.64440569689509
 30
0.0
 11
163.84201966226081
 21
-238.64440569689501
 31
0.0
  0
LINE
  5
12D7F
  8
0
 10
164.50000092387171
 20
-239.58409713616601
 30
0.0
 11
130.49999907612769
 21
-239.58409713616601
 31
0.0
  0
LINE
  5
12D80
  8
1
 10
147.49999999999969
 20
-213.2451071779989
 30
0.0
 11
147.49999999999969
 21
-257.24510620569822
 31
0.0
  0
LINE
  5
12D95
  8
0
 10
312.49937672168011
 20
-220.97282028606159
 30
0.0
 11
310.58284617960442
 21
-220.2752596776746
 31
0.0
  0
LINE
  5
12D96
  8
0
 10
294.41715382039541
 20
-220.2752596776746
 30
0.0
 11
292.50062327831972
 21
-220.97282028606159
 31
0.0
  0
LINE
  5
12D97
  8
0
 10
292.17231903225172
 20
-221.41649863531819
 30
0.0
 11
291.50000005960447
 21
-234.2451057474874
 31
0.0
  0
LINE
  5
12D98
  8
0
 10
313.4999999403953
 20
-234.2451057474874
 30
0.0
 11
312.82768096774811
 21
-221.41649863531819
 31
0.0
  0
ARC
  5
12D99
  8
0
 10
292.6716336321598
 20
-221.44266610539441
 30
0.0
 40
0.5000000000000096
 50
110.0000000000035
 51
177.00000000000091
  0
ARC
  5
12D9A
  8
0
 10
312.32836636783992
 20
-221.44266610539441
 30
0.0
 40
0.5000000000000121
 50
2.9999999999991029
 51
69.999999999996476
  0
ARC
  5
12D9B
  8
0
 10
310.41183650964558
 20
-220.74510628392929
 30
0.0
 40
0.5
 50
69.999999999996476
 51
90.0
  0
ARC
  5
12D9C
  8
0
 10
294.58816349035408
 20
-220.7451062839292
 30
0.0
 40
0.5
 50
90.0
 51
110.0000000000035
  0
ARC
  5
12D9D
  8
0
 10
318.49999999999989
 20
-241.58409802056889
 30
0.0
 40
1.00000000000001
 50
0.0
 51
69.999999999996476
  0
ARC
  5
12D9E
  8
0
 10
286.49999999999989
 20
-241.58409802056889
 30
0.0
 40
1.00000000000001
 50
110.0000000000035
 51
180.0
  0
LINE
  5
12D9F
  8
0
 10
285.49999907612789
 20
-241.58409713616601
 30
0.0
 11
285.49999907612789
 21
-247.7451060976648
 31
0.0
  0
LINE
  5
12DA0
  8
0
 10
319.50000092387188
 20
-247.7451060976648
 30
0.0
 11
319.50000092387188
 21
-241.58409713616601
 31
0.0
  0
LINE
  5
12DA1
  8
0
 10
285.49999907612789
 20
-247.7451060976648
 30
0.0
 11
286.00000008940691
 21
-248.2451061796211
 31
0.0
  0
LINE
  5
12DA2
  8
0
 10
318.99999991059292
 20
-248.2451061796211
 30
0.0
 11
319.50000092387188
 21
-247.7451060976648
 31
0.0
  0
LINE
  5
12DA3
  8
0
 10
318.8420196622609
 20
-240.64440569689501
 30
0.0
 11
312.25000020116562
 21
-238.24510640313849
 31
0.0
  0
LINE
  5
12DA4
  8
0
 10
292.74999979883421
 20
-238.24510640313849
 30
0.0
 11
286.15798033773888
 21
-240.64440569689501
 31
0.0
  0
LINE
  5
12DA7
  8
0
 10
293.50000038743008
 20
-252.7451064515673
 30
0.0
 11
294.49999962002028
 21
-253.74510614981881
 31
0.0
  0
ARC
  5
12DAA
  8
0
 10
311.14999999999992
 20
-237.8451062839292
 30
0.0
 40
0.3999999999999915
 50
180.0
 51
270.0
  0
ARC
  5
12DAB
  8
0
 10
293.8499999999998
 20
-237.8451062839292
 30
0.0
 40
0.4000000000000057
 50
270.0
 51
0.0
  0
LINE
  5
12DAC
  8
0
 10
294.25000004470343
 20
-234.2451057474874
 30
0.0
 11
294.25000004470343
 21
-237.8451070826315
 31
0.0
  0
LINE
  5
12DAD
  8
0
 10
310.7499999552964
 20
-237.8451070826315
 30
0.0
 11
310.7499999552964
 21
-234.2451057474874
 31
0.0
  0
LINE
  5
12DB2
  8
0
 10
303.30485548824061
 20
-224.6342516582273
 30
0.0
 11
301.69514451175922
 21
-224.6342516582273
 31
0.0
  0
LINE
  5
12DB3
  8
0
 10
300.89018913917232
 20
-234.2451057474874
 30
0.0
 11
301.25030363909889
 21
-224.6342516582273
 31
0.0
  0
ARC
  5
12DB4
  8
0
 10
301.47272407542903
 20
-229.09618811489511
 30
0.0
 40
4.467476669646774
 50
87.146258666947375
 51
92.853741333052611
  0
LINE
  5
12DB5
  8
0
 10
303.74969636090088
 20
-224.6342516582273
 30
0.0
 11
304.10981086082751
 21
-234.2451057474874
 31
0.0
  0
ARC
  5
12DB6
  8
0
 10
303.5272759245708
 20
-229.09618811489511
 30
0.0
 40
4.467476669646774
 50
87.146258666947375
 51
92.853741333052611
  0
LINE
  5
12DB7
  8
0
 10
300.95904950052488
 20
-223.30321661045781
 30
0.0
 11
299.78820123709733
 21
-222.1314004700445
 31
0.0
  0
ARC
  5
12DB8
  8
0
 10
299.11189241162708
 20
-224.40479074632179
 30
0.0
 40
2.150687073441846
 50
353.87534649025719
 51
30.81024064089317
  0
LINE
  5
12DB9
  8
0
 10
305.2117987629025
 20
-222.1314004700445
 30
0.0
 11
304.04095049947489
 21
-223.30321661045781
 31
0.0
  0
ARC
  5
12DBA
  8
0
 10
305.71152025167498
 20
-224.36615029675659
 30
0.0
 40
1.98005841288456
 50
147.53261987301261
 51
187.78179299584039
  0
ARC
  5
12DBB
  8
0
 10
297.74130977388609
 20
-224.67291309168101
 30
0.0
 40
3.2632883826140922
 50
51.152616516027123
 51
93.719534584131409
  0
ARC
  5
12DBC
  8
0
 10
307.19085973365782
 20
-224.4586162271159
 30
0.0
 40
3.0549329789585911
 50
84.750056970005446
 51
130.37779192983299
  0
LINE
  5
12DBD
  8
0
 10
291.50000005960447
 20
-234.2451057474874
 30
0.0
 11
313.4999999403953
 21
-234.24510574748749
 31
0.0
  0
LINE
  5
12DBE
  8
0
 10
294.58816327154631
 20
-220.2451071779989
 30
0.0
 11
310.41183672845352
 21
-220.2451071779989
 31
0.0
  0
LINE
  5
12DC0
  8
0
 10
292.74999979883432
 20
-238.24510640313849
 30
0.0
 11
312.25000020116562
 21
-238.24510640313849
 31
0.0
  0
LINE
  5
12DCD
  8
0
 10
293.50000038743008
 20
-252.7451064515673
 30
0.0
 11
311.49999961256981
 21
-252.7451064515673
 31
0.0
  0
LINE
  5
12DCF
  8
0
 10
297.52961197867978
 20
-221.41649863531819
 30
0.0
 11
292.17231903225172
 21
-221.41649863531819
 31
0.0
  0
LINE
  5
12DD0
  8
0
 10
312.82768096774811
 20
-221.41649863531819
 30
0.0
 11
307.47038802131999
 21
-221.41649863531819
 31
0.0
  0
LINE
  5
12DD1
  8
0
 10
286.15798033773888
 20
-240.64440569689501
 30
0.0
 11
318.8420196622609
 21
-240.64440569689501
 31
0.0
  0
LINE
  5
12DD2
  8
0
 10
319.50000092387188
 20
-241.58409713616601
 30
0.0
 11
285.49999907612789
 21
-241.58409713616601
 31
0.0
  0
LINE
  5
12DD3
  8
1
 10
302.49999999999989
 20
-215.2451071779989
 30
0.0
 11
302.49999999999989
 21
-259.24510620569822
 31
0.0
  0
LINE
  5
12DE0
  8
0
 10
156.49999961256961
 20
-250.7451064515673
 30
0.0
 11
155.50000037997941
 21
-251.74510614981881
 31
0.0
  0
LINE
  5
12DE1
  8
0
 10
134.99999999999969
 20
-250.4451062056981
 30
0.0
 11
135.1999999999999
 21
-250.4451062056981
 31
0.0
  0
LINE
  5
12DF4
  8
0
 10
311.4999996125697
 20
-252.7451064515673
 30
0.0
 11
310.5000003799795
 21
-253.74510614981881
 31
0.0
  0
LINE
  5
12DF5
  8
0
 10
289.99999999999989
 20
-252.4451062056981
 30
0.0
 11
290.19999999999987
 21
-252.4451062056981
 31
0.0
  0
LINE
  5
12DF6
  8
0
 10
319.50000092387188
 20
-249.74510620569811
 30
0.0
 11
319.99999999999989
 21
-249.74510620569811
 31
0.0
  0
LINE
  5
12DF7
  8
0
 10
319.50000092387188
 20
-249.24510620569819
 30
0.0
 11
324.99999999999989
 21
-249.24510620569819
 31
0.0
  0
TEXT
  5
12E4E
  8
0
 62
     3
 10
111.0014673499269
 20
-153.84136863427679
 30
0.0
 40
3.2000000000000002
  1
スペーサー(ボルト付き)(QCASP)を使用する場合
  0
TEXT
  5
12E4F
  8
0
 62
     3
 10
111.0014673499269
 20
-160.84136863427679
 30
0.0
 40
3.2000000000000002
  1
To use with a spacer(QCASP)
 41
0.85
  0
ENDSEC
  0
EOF
