  0
SECTION
  2
HEADER
  9
$ACADVER
  1
AC1009
  9
$INSBASE
 10
0.0
 20
0.0
 30
0.0
  9
$EXTMIN
 10
0.0
 20
-99.9299908187005599
 30
0.0
  9
$EXTMAX
 10
480.0
 20
152.0
 30
0.0
  9
$LIMMIN
 10
0.0
 20
0.0
  9
$LIMMAX
 10
375.0
 20
270.0
  9
$ORTHOMODE
 70
     1
  9
$REGENMODE
 70
     1
  9
$FILLMODE
 70
     1
  9
$QTEXTMODE
 70
     0
  9
$MIRRTEXT
 70
     0
  9
$DRAGMODE
 70
     2
  9
$LTSCALE
 40
5.0
  9
$OSMODE
 70
    37
  9
$ATTMODE
 70
     1
  9
$TEXTSIZE
 40
6.0
  9
$TRACEWID
 40
0.05
  9
$TEXTSTYLE
  7
STANDARD
  9
$CLAYER
  8
0
  9
$CELTYPE
  6
BYLAYER
  9
$CECOLOR
 62
   256
  9
$DIMSCALE
 40
1.0
  9
$DIMASZ
 40
3.0
  9
$DIMEXO
 40
2.0
  9
$DIMDLI
 40
0.3799999999999999
  9
$DIMRND
 40
0.0
  9
$DIMDLE
 40
0.0
  9
$DIMEXE
 40
2.0
  9
$DIMTP
 40
0.0
  9
$DIMTM
 40
0.0
  9
$DIMTXT
 40
3.2000000000000002
  9
$DIMCEN
 40
0.09
  9
$DIMTSZ
 40
0.0
  9
$DIMTOL
 70
     0
  9
$DIMLIM
 70
     0
  9
$DIMTIH
 70
     0
  9
$DIMTOH
 70
     0
  9
$DIMSE1
 70
     0
  9
$DIMSE2
 70
     0
  9
$DIMTAD
 70
     1
  9
$DIMZIN
 70
     8
  9
$DIMBLK
  1

  9
$DIMASO
 70
     0
  9
$DIMSHO
 70
     0
  9
$DIMPOST
  1

  9
$DIMAPOST
  1

  9
$DIMALT
 70
     0
  9
$DIMALTD
 70
     2
  9
$DIMALTF
 40
25.3999999999999986
  9
$DIMLFAC
 40
1.0
  9
$DIMTOFL
 70
     0
  9
$DIMTVP
 40
0.0
  9
$DIMTIX
 70
     0
  9
$DIMSOXD
 70
     0
  9
$DIMSAH
 70
     0
  9
$DIMBLK1
  1

  9
$DIMBLK2
  1

  9
$DIMSTYLE
  2
STANDARD
  9
$DIMCLRD
 70
     0
  9
$DIMCLRE
 70
     0
  9
$DIMCLRT
 70
     0
  9
$DIMTFAC
 40
1.0
  9
$DIMGAP
 40
0.09
  9
$LUNITS
 70
     2
  9
$LUPREC
 70
     1
  9
$SKETCHINC
 40
0.1
  9
$FILLETRAD
 40
20.0
  9
$AUNITS
 70
     0
  9
$AUPREC
 70
     0
  9
$MENU
  1
E:\r13\win\SUPPORT\ACAD
  9
$ELEVATION
 40
0.0
  9
$PELEVATION
 40
0.0
  9
$THICKNESS
 40
0.0
  9
$LIMCHECK
 70
     0
  9
$BLIPMODE
 70
     0
  9
$CHAMFERA
 40
0.0
  9
$CHAMFERB
 40
0.0
  9
$SKPOLY
 70
     0
  9
$TDCREATE
 40
2449840.6320370370522141
  9
$TDUPDATE
 40
2460872.5815277779474854
  9
$TDINDWG
 40
0.7346269329
  9
$TDUSRTIMER
 40
0.7346269329
  9
$USRTIMER
 70
     1
  9
$ANGBASE
 50
0.0
  9
$ANGDIR
 70
     0
  9
$PDMODE
 70
     0
  9
$PDSIZE
 40
0.0
  9
$PLINEWID
 40
0.0
  9
$COORDS
 70
     1
  9
$SPLFRAME
 70
     0
  9
$SPLINETYPE
 70
     6
  9
$SPLINESEGS
 70
     8
  9
$ATTDIA
 70
     1
  9
$ATTREQ
 70
     1
  9
$HANDLING
 70
     1
  9
$HANDSEED
  5
E54F
  9
$SURFTAB1
 70
     6
  9
$SURFTAB2
 70
     6
  9
$SURFTYPE
 70
     6
  9
$SURFU
 70
     6
  9
$SURFV
 70
     6
  9
$UCSNAME
  2

  9
$UCSORG
 10
0.0
 20
0.0
 30
0.0
  9
$UCSXDIR
 10
1.0
 20
0.0
 30
0.0
  9
$UCSYDIR
 10
0.0
 20
1.0
 30
0.0
  9
$PUCSNAME
  2

  9
$PUCSORG
 10
0.0
 20
0.0
 30
0.0
  9
$PUCSXDIR
 10
1.0
 20
0.0
 30
0.0
  9
$PUCSYDIR
 10
0.0
 20
1.0
 30
0.0
  9
$USERI1
 70
     0
  9
$USERI2
 70
     1
  9
$USERI3
 70
     0
  9
$USERI4
 70
     0
  9
$USERI5
 70
     0
  9
$USERR1
 40
0.0
  9
$USERR2
 40
0.0
  9
$USERR3
 40
0.0
  9
$USERR4
 40
0.0
  9
$USERR5
 40
0.0
  9
$WORLDVIEW
 70
     1
  9
$SHADEDGE
 70
     3
  9
$SHADEDIF
 70
    70
  9
$TILEMODE
 70
     1
  9
$MAXACTVP
 70
    16
  9
$PLIMCHECK
 70
     0
  9
$PEXTMIN
 10
1.0000000000000000E+20
 20
1.0000000000000000E+20
 30
1.0000000000000000E+20
  9
$PEXTMAX
 10
-1.0000000000000000E+20
 20
-1.0000000000000000E+20
 30
-1.0000000000000000E+20
  9
$PLIMMIN
 10
0.0
 20
0.0
  9
$PLIMMAX
 10
12.0
 20
9.0
  9
$UNITMODE
 70
     0
  9
$VISRETAIN
 70
     0
  9
$PLINEGEN
 70
     0
  9
$PSLTSCALE
 70
     0
  0
ENDSEC
  0
SECTION
  2
TABLES
  0
TABLE
  2
VPORT
 70
     1
  0
VPORT
  2
*ACTIVE
 70
     0
 10
0.0
 20
0.0
 11
1.0
 21
1.0
 12
339.8340248962654755
 22
140.0
 13
0.0
 23
0.0
 14
10.0
 24
10.0
 15
10.0
 25
10.0
 16
0.0
 26
0.0
 36
1.0
 17
0.0
 27
0.0
 37
0.0
 40
280.0
 41
2.4273858921161819
 42
50.0
 43
0.0
 44
0.0
 50
0.0
 51
0.0
 71
     0
 72
   500
 73
     1
 74
     0
 75
     0
 76
     0
 77
     0
 78
     0
  0
ENDTAB
  0
TABLE
  2
LTYPE
 70
     5
  0
LTYPE
  2
CONTINUOUS
 70
     0
  3
Solid Line
 72
    65
 73
     0
 40
0.0
  0
LTYPE
  2
CENTER
 70
     0
  3
____ _ ____ _ ____ _ ____ _ ____ _ ____ _ ____
 72
    65
 73
     4
 40
2.0
 49
1.25
 49
-0.25
 49
0.25
 49
-0.25
  0
LTYPE
  2
PHANTOM2
 70
     0
  3
___ _ _ ___ _ _ ___ _ _ ___ _ _
 72
    65
 73
     6
 40
1.25
 49
0.625
 49
-0.125
 49
0.125
 49
-0.125
 49
0.125
 49
-0.125
  0
LTYPE
  2
PHANTOM
 70
     0
  3
_____ _ _ _____ _ _ _____ _ _ _____ _ _ ____
 72
    65
 73
     6
 40
2.5
 49
1.25
 49
-0.25
 49
0.25
 49
-0.25
 49
0.25
 49
-0.25
  0
LTYPE
  2
HIDDEN
 70
     0
  3
__ __ __ __ __ __ __ __ __ __ __ __ __ __ __ __
 72
    65
 73
     2
 40
0.375
 49
0.25
 49
-0.125
  0
ENDTAB
  0
TABLE
  2
LAYER
 70
     6
  0
LAYER
  2
0
 70
     0
 62
     7
  6
CONTINUOUS
  0
LAYER
  2
1
 70
     0
 62
     1
  6
CENTER
  0
LAYER
  2
3
 70
     0
 62
     3
  6
CONTINUOUS
  0
LAYER
  2
DEFPOINTS
 70
     0
 62
     7
  6
CONTINUOUS
  0
LAYER
  2
5
 70
     0
 62
     3
  6
PHANTOM
  0
LAYER
  2
2
 70
     0
 62
     2
  6
HIDDEN
  0
ENDTAB
  0
TABLE
  2
STYLE
 70
     2
  0
STYLE
  2
STANDARD
 70
     0
 40
0.0
 41
1.0
 50
0.0
 71
     0
 42
6.0
  3
TXT
  4
BIGFONT
  0
STYLE
  2
STANDARD1
 70
     0
 40
0.0
 41
1.0
 50
0.0
 71
     0
 42
3.0
  3
txt
  4

  0
ENDTAB
  0
TABLE
  2
VIEW
 70
     1
  0
VIEW
  2
ALL
 70
     0
 40
270.0
 10
213.2568907563025107
 20
135.0
 41
0.0
 11
0.0
 21
0.0
 31
1.0
 12
0.0
 22
0.0
 32
0.0
 42
0.0
 43
0.0
 44
0.0
 50
0.0
 71
     0
  0
ENDTAB
  0
TABLE
  2
UCS
 70
     0
  0
ENDTAB
  0
TABLE
  2
APPID
 70
    14
  0
APPID
  2
ACAD
 70
     0
  0
APPID
  2
ACAD_EXEMPT_FROM_CAD_STANDARDS
 70
     0
  0
APPID
  2
ACAD_MLEADERVER
 70
     0
  0
APPID
  2
ACAD_DSTYLE_DIMJAG
 70
     0
  0
APPID
  2
ACAD_DSTYLE_DIMTALN
 70
     0
  0
APPID
  2
ACAD_NAV_VCDISPLAY
 70
     0
  0
APPID
  2
ACADANNOTATIVE
 70
     0
  0
APPID
  2
ACAD_PSEXT
 70
     0
  0
APPID
  2
ACAECLAYERSTANDARD
 70
     0
  0
APPID
  2
ACCMTRANSPARENCY
 70
     0
  0
APPID
  2
ACAD_DSTYLE_DIMRADIAL_EXTENSION
 70
     0
  0
APPID
  2
ACAD_DSTYLE_DIMBREAK
 70
     0
  0
APPID
  2
GRADIENTCOLOR1ACI
 70
     0
  0
APPID
  2
GRADIENTCOLOR2ACI
 70
     0
  0
ENDTAB
  0
TABLE
  2
DIMSTYLE
 70
     1
  0
DIMSTYLE
  2
STANDARD
 70
     0
  3

  4

  5

  6

  7

 40
1.0
 41
0.18
 42
0.0625
 43
0.38
 44
0.18
 45
0.0
 46
0.0
 47
0.0
 48
0.0
140
0.18
141
0.09
142
0.0
143
25.3999999999999986
144
1.0
145
0.0
146
1.0
147
0.09
 71
     0
 72
     0
 73
     1
 74
     1
 75
     0
 76
     0
 77
     0
 78
     0
170
     0
171
     2
172
     0
173
     0
174
     0
175
     0
176
     0
177
     0
178
     0
  0
ENDTAB
  0
ENDSEC
  0
SECTION
  2
BLOCKS
  0
BLOCK
  8
0
  2
$MODEL_SPACE
 70
     0
 10
0.0
 20
0.0
 30
0.0
  3
$MODEL_SPACE
  1

  0
ENDBLK
  5
126
  8
0
  0
BLOCK
 67
     1
  8
0
  2
$PAPER_SPACE
 70
     0
 10
0.0
 20
0.0
 30
0.0
  3
$PAPER_SPACE
  1

  0
ENDBLK
  5
124
 67
     1
  8
0
  0
ENDSEC
  0
SECTION
  2
ENTITIES
  0
TEXT
  5
AC77
  8
0
 62
     3
 10
0.0
 20
0.0
 30
0.0
 40
10.0
  1
QCOWM0508-3-SUS
  7
STANDARD1
  0
LINE
  5
CF61
  8
0
 10
98.0000210378936458
 20
104.035225963399995
 30
0.0
 11
98.0000210378936458
 21
107.035225963399995
 31
0.0
  0
LINE
  5
CF62
  8
0
 10
82.0000210378936458
 20
107.035225963399995
 30
0.0
 11
82.0000210378936458
 21
104.035225963399995
 31
0.0
  0
ARC
  5
CF63
  8
0
 10
83.0000210378936458
 20
104.035225963399995
 30
0.0
 40
1.0
 50
180.0
 51
270.0
  0
ARC
  5
CF64
  8
0
 10
97.00002103789366
 20
104.035225963399995
 30
0.0
 40
1.0000000000000131
 50
270.0
 51
0.0
  0
ARC
  5
CF65
  8
0
 10
97.00002103789366
 20
107.035225963399995
 30
0.0
 40
1.0000000000000131
 50
0.0
 51
90.0
  0
ARC
  5
CF66
  8
0
 10
83.0000210378936458
 20
107.035225963399995
 30
0.0
 40
1.0
 50
90.0
 51
180.0
  0
LINE
  5
CF67
  8
0
 10
96.8500210378936686
 20
83.6999999999999886
 30
0.0
 11
96.8500210378936686
 21
93.2999999999999545
 31
0.0
  0
LINE
  5
CF68
  8
0
 10
83.1500210378936657
 20
93.2999999999999545
 30
0.0
 11
83.1500210378936657
 21
83.6999999999999886
 31
0.0
  0
LINE
  5
CF69
  8
0
 10
83.1500210378936657
 20
83.6999999999999886
 30
0.0
 11
83.3500210378936686
 21
83.4999999999999858
 31
0.0
  0
LINE
  5
CF6A
  8
0
 10
96.6500210378936941
 20
83.4999999999999858
 30
0.0
 11
96.8500210378936686
 21
83.6999999999999886
 31
0.0
  0
ARC
  5
CF6B
  8
0
 10
96.3500210378936828
 20
93.2999999999999545
 30
0.0
 40
0.5000000000000142
 50
0.0
 51
90.0
  0
ARC
  5
CF6C
  8
0
 10
83.6500210378936799
 20
93.2999999999999545
 30
0.0
 40
0.5000000000000142
 50
90.0
 51
180.0
  0
ARC
  5
CF6D
  8
0
 10
96.5000210378936458
 20
102.035225963399995
 30
0.0
 40
1.0
 50
90.0
 51
180.0
  0
ARC
  5
CF6E
  8
0
 10
83.5000210378936458
 20
102.035225963399995
 30
0.0
 40
1.0
 50
0.0
 51
90.0
  0
LINE
  5
CF6F
  8
0
 10
95.5000210378936458
 20
93.7999999999999545
 30
0.0
 11
95.5000210378936458
 21
102.035225963399995
 31
0.0
  0
LINE
  5
CF70
  8
0
 10
84.5000210378936458
 20
102.035225963399995
 30
0.0
 11
84.5000210378936458
 21
93.7999999999999545
 31
0.0
  0
LINE
  5
CF75
  8
0
 10
94.0000210378936458
 20
82.0
 30
0.0
 11
94.0000210378936458
 21
83.4999999999999858
 31
0.0
  0
LINE
  5
CF76
  8
0
 10
86.0000210378936458
 20
83.4999999999999858
 30
0.0
 11
86.0000210378936458
 21
82.0
 31
0.0
  0
LINE
  5
CF77
  8
0
 10
86.0000210378936458
 20
82.0
 30
0.0
 11
87.0000210378936458
 21
81.0
 31
0.0
  0
LINE
  5
CF78
  8
0
 10
93.0000210378936458
 20
81.0
 30
0.0
 11
94.0000210378936458
 21
82.0
 31
0.0
  0
LINE
  5
CF79
  8
0
 10
97.00002103789366
 20
103.035225963399995
 30
0.0
 11
83.0000210378936458
 21
103.035225963399995
 31
0.0
  0
LINE
  5
CF7B
  8
0
 10
83.0000210378936458
 20
108.035225963399995
 30
0.0
 11
97.00002103789366
 21
108.035225963399995
 31
0.0
  0
LINE
  5
CF7C
  8
0
 10
83.1500210378936657
 20
83.6999999999999886
 30
0.0
 11
96.8500210378936686
 21
83.6999999999999886
 31
0.0
  0
LINE
  5
CF7D
  8
0
 10
96.6500210378936941
 20
83.4999999999999858
 30
0.0
 11
83.3500210378936686
 21
83.4999999999999858
 31
0.0
  0
LINE
  5
CF7F
  8
0
 10
83.6500210378936799
 20
93.7999999999999545
 30
0.0
 11
96.3500210378936828
 21
93.7999999999999545
 31
0.0
  0
LINE
  5
CF83
  8
0
 10
86.0000210378936458
 20
82.0
 30
0.0
 11
94.0000210378936032
 21
82.0
 31
0.0
  0
LINE
  5
CF84
  8
0
 10
93.0000210378936174
 20
81.0
 30
0.0
 11
87.0000210378936458
 21
81.0
 31
0.0
  0
LINE
  5
CF87
  8
0
 10
82.0000210378936458
 20
104.035225963399995
 30
0.0
 11
98.0000210378936174
 21
104.035225963399995
 31
0.0
  0
LINE
  5
CF88
  8
0
 10
98.0000210378936458
 20
107.035225963399995
 30
0.0
 11
82.0000210378936458
 21
107.035225963399995
 31
0.0
  0
LINE
  5
CF89
  8
0
 10
96.8500210378936544
 20
93.2999999999999545
 30
0.0
 11
83.1500210378936657
 21
93.2999999999999545
 31
0.0
  0
CIRCLE
  5
CF8E
  8
0
 10
90.0000210378936458
 20
141.0
 30
0.0
 40
4.9999999999999707
  0
CIRCLE
  5
CF91
  8
0
 10
90.0000210378936458
 20
141.0
 30
0.0
 40
3.499999999999972
  0
LINE
  5
CF92
  8
0
 10
89.133995634093651
 20
142.5
 30
0.0
 11
88.2679702302936562
 21
141.0
 31
0.0
  0
LINE
  5
CF93
  8
0
 10
88.2679702302936562
 20
141.0
 30
0.0
 11
89.133995634093651
 21
139.5
 31
0.0
  0
LINE
  5
CF94
  8
0
 10
89.133995634093651
 20
139.5
 30
0.0
 11
90.8660464416936691
 21
139.5
 31
0.0
  0
LINE
  5
CF95
  8
0
 10
90.8660464416936691
 20
139.5
 30
0.0
 11
91.7320718454936639
 21
141.0
 31
0.0
  0
LINE
  5
CF96
  8
0
 10
91.7320718454936639
 20
141.0
 30
0.0
 11
90.8660464416936691
 21
142.5
 31
0.0
  0
LINE
  5
CF97
  8
0
 10
90.8660464416936691
 20
142.5
 30
0.0
 11
89.133995634093651
 21
142.5
 31
0.0
  0
CIRCLE
  5
CF98
  8
0
 10
90.0000210378936458
 20
141.0
 30
0.0
 40
8.0
  0
CIRCLE
  5
CFE8
  8
0
 10
90.0000210378936458
 20
48.0
 30
0.0
 40
4.0
  0
CIRCLE
  5
CFE9
  8
0
 10
90.0000210378936458
 20
48.0
 30
0.0
 40
2.5
  0
CIRCLE
  5
CFEB
  8
0
 10
90.0000210378936458
 20
48.0
 30
0.0
 40
6.8499999999999988
  0
CIRCLE
  5
CFEC
  8
0
 10
90.0000210378936458
 20
48.0
 30
0.0
 40
1.900000000000005
  0
CIRCLE
  5
CFEE
  8
0
 10
90.0000210378936458
 20
48.0
 30
0.0
 40
7.9999999999999849
  0
LINE
  5
D00D
  8
3
 10
93.3235210378937268
 20
81.3235000000000667
 30
0.0
 11
93.3235210378937552
 21
83.4999999999999432
 31
0.0
  0
LINE
  5
D00E
  8
3
 10
86.6765210378934938
 20
81.3235000000001946
 30
0.0
 11
86.6765210378935365
 21
83.4999999999999432
 31
0.0
  0
CIRCLE
  5
D013
  8
3
 10
90.0000210378936458
 20
48.0
 30
0.0
 40
3.3235000000000801
  0
LINE
  5
D01A
  8
1
 10
90.0000210378936458
 20
37.0
 30
0.0
 11
90.0000210378936458
 21
59.0
 31
0.0
  0
LINE
  5
D01B
  8
1
 10
79.0000210378936458
 20
141.0
 30
0.0
 11
101.0000210378936032
 21
141.0
 31
0.0
  0
LINE
  5
D01C
  8
1
 10
79.0000210378936458
 20
48.0
 30
0.0
 11
101.0000210378936032
 21
48.0
 31
0.0
  0
LINE
  5
D021
  8
1
 10
90.0000210378936458
 20
78.0
 30
0.0
 11
90.0000210378936032
 21
111.035225963399995
 31
0.0
  0
LINE
  5
D022
  8
1
 10
90.0000210378936458
 20
130.0
 30
0.0
 11
90.0000210378936458
 21
152.0
 31
0.0
  0
LINE
  5
D029
  8
0
 10
238.000021037893589
 20
100.7352259633999978
 30
0.0
 11
238.000021037893589
 21
103.7352259633999978
 31
0.0
  0
LINE
  5
D02A
  8
0
 10
222.0000210378937027
 20
103.7352259633999978
 30
0.0
 11
222.0000210378937027
 21
100.7352259633999978
 31
0.0
  0
ARC
  5
D02B
  8
0
 10
223.000021037893589
 20
100.7352259633999978
 30
0.0
 40
1.0
 50
180.0
 51
270.0
  0
ARC
  5
D02C
  8
0
 10
237.0000210378937027
 20
100.7352259633999978
 30
0.0
 40
1.0000000000000131
 50
270.0
 51
0.0
  0
ARC
  5
D02D
  8
0
 10
237.0000210378937027
 20
103.7352259633999978
 30
0.0
 40
1.0000000000000131
 50
0.0
 51
90.0
  0
ARC
  5
D02E
  8
0
 10
223.000021037893589
 20
103.7352259633999978
 30
0.0
 40
1.0
 50
90.0
 51
180.0
  0
LINE
  5
D02F
  8
0
 10
236.8500210378936117
 20
83.6999999999999886
 30
0.0
 11
236.8500210378936117
 21
93.2999999999999545
 31
0.0
  0
LINE
  5
D030
  8
0
 10
223.1500210378937084
 20
93.2999999999999545
 30
0.0
 11
223.1500210378937084
 21
83.6999999999999886
 31
0.0
  0
LINE
  5
D031
  8
0
 10
223.1500210378937084
 20
83.6999999999999886
 30
0.0
 11
223.350021037893697
 21
83.4999999999999858
 31
0.0
  0
LINE
  5
D032
  8
0
 10
236.6500210378937084
 20
83.4999999999999858
 30
0.0
 11
236.8500210378936117
 21
83.6999999999999886
 31
0.0
  0
ARC
  5
D033
  8
0
 10
236.350021037893697
 20
93.2999999999999545
 30
0.0
 40
0.5000000000000142
 50
0.0
 51
90.0
  0
ARC
  5
D034
  8
0
 10
223.6500210378937084
 20
93.2999999999999545
 30
0.0
 40
0.5000000000000142
 50
90.0
 51
180.0
  0
ARC
  5
D035
  8
0
 10
236.5000210378937027
 20
98.7352259634000262
 30
0.0
 40
1.0
 50
90.0
 51
180.0
  0
ARC
  5
D036
  8
0
 10
223.500021037893589
 20
98.7352259634000262
 30
0.0
 40
1.0
 50
0.0
 51
90.0
  0
LINE
  5
D037
  8
0
 10
235.500021037893589
 20
93.7999999999999545
 30
0.0
 11
235.500021037893589
 21
98.7352259634000262
 31
0.0
  0
LINE
  5
D038
  8
0
 10
224.5000210378937027
 20
98.7352259634000262
 30
0.0
 11
224.5000210378937027
 21
93.7999999999999545
 31
0.0
  0
LINE
  5
D039
  8
0
 10
235.0000210378937027
 20
104.7352259633999978
 30
0.0
 11
235.0000210378937027
 21
107.5
 31
0.0
  0
LINE
  5
D03A
  8
0
 10
225.000021037893589
 20
107.5
 30
0.0
 11
225.000021037893589
 21
104.7352259633999978
 31
0.0
  0
ARC
  5
D03B
  8
0
 10
225.500021037893589
 20
107.5
 30
0.0
 40
0.5
 50
90.0
 51
180.0
  0
ARC
  5
D03C
  8
0
 10
234.5000210378937027
 20
107.5
 30
0.0
 40
0.5
 50
0.0
 51
90.0
  0
LINE
  5
D03D
  8
0
 10
234.000021037893589
 20
82.0
 30
0.0
 11
234.000021037893589
 21
83.4999999999999858
 31
0.0
  0
LINE
  5
D03E
  8
0
 10
226.0000210378937027
 20
83.4999999999999858
 30
0.0
 11
226.0000210378937027
 21
82.0
 31
0.0
  0
LINE
  5
D03F
  8
0
 10
226.0000210378937027
 20
82.0
 30
0.0
 11
227.000021037893589
 21
81.0
 31
0.0
  0
LINE
  5
D040
  8
0
 10
233.0000210378937027
 20
81.0
 30
0.0
 11
234.000021037893589
 21
82.0
 31
0.0
  0
LINE
  5
D041
  8
0
 10
237.0000210378937027
 20
99.7352259634000262
 30
0.0
 11
223.000021037893589
 21
99.7352259634000262
 31
0.0
  0
LINE
  5
D042
  8
0
 10
223.000021037893589
 20
104.7352259633999978
 30
0.0
 11
237.0000210378937027
 21
104.7352259633999978
 31
0.0
  0
LINE
  5
D043
  8
0
 10
223.1500210378937084
 20
83.6999999999999886
 30
0.0
 11
236.8500210378936117
 21
83.6999999999999886
 31
0.0
  0
LINE
  5
D044
  8
0
 10
236.6500210378937084
 20
83.4999999999999858
 30
0.0
 11
223.350021037893697
 21
83.4999999999999858
 31
0.0
  0
LINE
  5
D045
  8
0
 10
223.6500210378937084
 20
93.7999999999999545
 30
0.0
 11
236.350021037893697
 21
93.7999999999999545
 31
0.0
  0
LINE
  5
D046
  8
0
 10
225.500021037893589
 20
108.0
 30
0.0
 11
234.5000210378937027
 21
108.0
 31
0.0
  0
LINE
  5
D047
  8
0
 10
226.0000210378937027
 20
82.0
 30
0.0
 11
234.000021037893589
 21
82.0
 31
0.0
  0
LINE
  5
D048
  8
0
 10
233.000021037893589
 20
81.0
 30
0.0
 11
227.000021037893589
 21
81.0
 31
0.0
  0
LINE
  5
D049
  8
0
 10
222.0000210378937027
 20
100.7352259633999978
 30
0.0
 11
238.000021037893589
 21
100.7352259633999978
 31
0.0
  0
LINE
  5
D04A
  8
0
 10
238.000021037893589
 20
103.7352259633999978
 30
0.0
 11
222.0000210378937027
 21
103.7352259633999978
 31
0.0
  0
LINE
  5
D04B
  8
0
 10
236.8500210378936117
 20
93.2999999999999545
 30
0.0
 11
223.1500210378937084
 21
93.2999999999999545
 31
0.0
  0
CIRCLE
  5
D04C
  8
0
 10
230.000021037893589
 20
141.0
 30
0.0
 40
4.9999999999999707
  0
CIRCLE
  5
D04D
  8
0
 10
230.000021037893589
 20
141.0
 30
0.0
 40
3.499999999999972
  0
LINE
  5
D04E
  8
0
 10
229.1339956340935942
 20
142.5
 30
0.0
 11
228.267970230293713
 21
141.0
 31
0.0
  0
LINE
  5
D04F
  8
0
 10
228.267970230293713
 20
141.0
 30
0.0
 11
229.1339956340935942
 21
139.5
 31
0.0
  0
LINE
  5
D050
  8
0
 10
229.1339956340935942
 20
139.5
 30
0.0
 11
230.8660464416936975
 21
139.5
 31
0.0
  0
LINE
  5
D051
  8
0
 10
230.8660464416936975
 20
139.5
 30
0.0
 11
231.732071845493607
 21
141.0
 31
0.0
  0
LINE
  5
D052
  8
0
 10
231.732071845493607
 20
141.0
 30
0.0
 11
230.8660464416936975
 21
142.5
 31
0.0
  0
LINE
  5
D053
  8
0
 10
230.8660464416936975
 20
142.5
 30
0.0
 11
229.1339956340935942
 21
142.5
 31
0.0
  0
CIRCLE
  5
D054
  8
0
 10
230.000021037893589
 20
141.0
 30
0.0
 40
8.0
  0
CIRCLE
  5
D055
  8
0
 10
230.000021037893589
 20
48.0
 30
0.0
 40
4.0
  0
CIRCLE
  5
D056
  8
0
 10
230.000021037893589
 20
48.0
 30
0.0
 40
2.5
  0
CIRCLE
  5
D057
  8
0
 10
230.000021037893589
 20
48.0
 30
0.0
 40
6.8499999999999988
  0
CIRCLE
  5
D058
  8
0
 10
230.000021037893589
 20
48.0
 30
0.0
 40
1.900000000000005
  0
CIRCLE
  5
D059
  8
0
 10
230.000021037893589
 20
48.0
 30
0.0
 40
7.9999999999999849
  0
LINE
  5
D05A
  8
3
 10
233.3235210378936983
 20
81.3235000000000667
 30
0.0
 11
233.3235210378936983
 21
83.4999999999999432
 31
0.0
  0
LINE
  5
D05B
  8
3
 10
226.676521037893508
 20
81.3235000000001946
 30
0.0
 11
226.676521037893508
 21
83.4999999999999432
 31
0.0
  0
CIRCLE
  5
D05C
  8
3
 10
230.000021037893589
 20
48.0
 30
0.0
 40
3.3235000000000801
  0
LINE
  5
D05D
  8
1
 10
230.000021037893589
 20
37.0
 30
0.0
 11
230.000021037893589
 21
59.0
 31
0.0
  0
LINE
  5
D05E
  8
1
 10
230.000021037893589
 20
78.0
 30
0.0
 11
230.000021037893589
 21
111.0
 31
0.0
  0
LINE
  5
D05F
  8
1
 10
230.000021037893589
 20
130.0
 30
0.0
 11
230.000021037893589
 21
152.0
 31
0.0
  0
LINE
  5
D060
  8
1
 10
219.000021037893589
 20
141.0
 30
0.0
 11
241.0000210378937027
 21
141.0
 31
0.0
  0
LINE
  5
D061
  8
1
 10
219.000021037893589
 20
48.0
 30
0.0
 11
241.0000210378937027
 21
48.0
 31
0.0
  0
TEXT
  5
DF5C
  8
0
 62
     3
 10
170.0
 20
0.0
 30
0.0
 40
3.2000000000000002
  1
■ワンウェイクランパーミニの取付け方法(下図)
  0
TEXT
  5
DF5D
  8
0
 62
     3
 10
220.0866666666665026
 20
-19.168098188633909
 30
0.0
 40
3.2000000000000002
  1
3mmのプレートに固定する場合
 72
     1
 11
247.4999999999998863
 21
-19.5947648553005784
 31
0.0
 73
     1
  0
TEXT
  5
DF5F
  8
0
 62
     3
 10
203.433333333333195
 20
-86.9299908187006736
 30
0.0
 40
3.2000000000000002
  1
組付け状態
 72
     1
 11
212.4999999999998863
 21
-86.9299908187006736
 31
0.0
  0
POLYLINE
  5
DF60
  8
5
 66
     1
 10
0.0
 20
0.0
 30
0.0
 70
     1
  0
VERTEX
  5
E54A
  8
5
 10
170.0
 20
-10.0
 30
0.0
  0
VERTEX
  5
E54B
  8
5
 10
480.0
 20
-10.0
 30
0.0
  0
VERTEX
  5
E54C
  8
5
 10
480.0
 20
-99.9299908187005599
 30
0.0
  0
VERTEX
  5
E54D
  8
5
 10
170.0
 20
-99.9299908187005599
 30
0.0
  0
SEQEND
  5
E54E
  8
5
  0
TEXT
  5
DF61
  8
0
 62
     3
 10
275.2466666666667265
 20
-86.9299908187006736
 30
0.0
 40
3.2000000000000002
  1
取付け穴
 72
     1
 11
282.5
 21
-86.9299908187006736
 31
0.0
  0
TEXT
  5
DF62
  8
0
 62
     3
 10
358.4333333333332234
 20
-86.9299908187006736
 30
0.0
 40
3.2000000000000002
  1
組付け状態
 72
     1
 11
367.4999999999998863
 21
-86.9299908187006736
 31
0.0
  0
TEXT
  5
DF63
  8
0
 62
     3
 10
430.2466666666666129
 20
-86.9299908187006736
 30
0.0
 40
3.2000000000000002
  1
取付け穴
 72
     1
 11
437.5
 21
-86.9299908187006736
 31
0.0
  0
TEXT
  5
DF65
  8
0
 62
     3
 10
170.0
 20
-7.0
 30
0.0
 40
3.2000000000000002
  1
■Installation Instructions for Compact Snap-In Clamps (see diagram below)
  0
TEXT
  5
DF66
  8
0
 62
     3
 10
188.7799999999998022
 20
-26.1680981886339197
 30
0.0
 40
3.2000000000000002
  1
For installation on plate of 3 mm thickness.
 72
     1
 11
247.4999999999998863
 21
-26.5947648553005784
 31
0.0
 73
     1
  0
TEXT
  5
DF68
  8
0
 62
     3
 10
187.5399999999997931
 20
-93.9299908187006736
 30
0.0
 40
3.2000000000000002
  1
Installed condition
 72
     1
 11
212.4999999999998863
 21
-93.9299908187006736
 31
0.0
  0
TEXT
  5
DF69
  8
0
 62
     3
 10
260.4733333333333007
 20
-93.9299908187006736
 30
0.0
 40
3.2000000000000002
  1
Installation hole
 72
     1
 11
282.5
 21
-93.9299908187006736
 31
0.0
  0
TEXT
  5
DF6A
  8
0
 62
     3
 10
342.5399999999999068
 20
-93.9299908187006736
 30
0.0
 40
3.2000000000000002
  1
Installed condition
 72
     1
 11
367.4999999999998863
 21
-93.9299908187006736
 31
0.0
  0
TEXT
  5
DF6B
  8
0
 62
     3
 10
415.4733333333331871
 20
-93.9299908187006736
 30
0.0
 40
3.2000000000000002
  1
Installation hole
 72
     1
 11
437.5
 21
-93.9299908187006736
 31
0.0
  0
TEXT
  5
E389
  8
0
 62
     3
 10
375.0866666666664742
 20
-19.168098188633909
 30
0.0
 40
3.2000000000000002
  1
6mmのプレートに固定する場合
 72
     1
 11
402.4999999999997726
 21
-19.5947648553005784
 31
0.0
 73
     1
  0
TEXT
  5
E38A
  8
0
 62
     3
 10
343.7799999999999159
 20
-26.1680981886339197
 30
0.0
 40
3.2000000000000002
  1
For installation on plate of 6 mm thickness.
 72
     1
 11
402.4999999999997726
 21
-26.5947648553005784
 31
0.0
 73
     1
  0
LINE
  5
E393
  8
0
 10
220.4999999999996874
 20
-43.094764855300582
 30
0.0
 11
220.4999999999996874
 21
-40.094764855300582
 31
0.0
  0
LINE
  5
E394
  8
0
 10
204.4999999999996874
 20
-40.094764855300582
 30
0.0
 11
204.4999999999996874
 21
-43.094764855300582
 31
0.0
  0
ARC
  5
E395
  8
0
 10
205.4999999999996874
 20
-43.094764855300582
 30
0.0
 40
1.0
 50
180.0
 51
270.0
  0
ARC
  5
E396
  8
0
 10
219.4999999999996874
 20
-43.094764855300582
 30
0.0
 40
1.0000000000000131
 50
270.0
 51
0.0
  0
ARC
  5
E397
  8
0
 10
219.4999999999996874
 20
-40.094764855300582
 30
0.0
 40
1.0000000000000131
 50
0.0
 51
90.0
  0
ARC
  5
E398
  8
0
 10
205.4999999999996874
 20
-40.094764855300582
 30
0.0
 40
1.0
 50
90.0
 51
180.0
  0
LINE
  5
E399
  8
0
 10
219.3499999999997954
 20
-63.4299908187006096
 30
0.0
 11
219.3499999999997954
 21
-53.8299908187006508
 31
0.0
  0
LINE
  5
E39A
  8
0
 10
205.649999999999693
 20
-53.8299908187006508
 30
0.0
 11
205.649999999999693
 21
-63.4299908187006096
 31
0.0
  0
LINE
  5
E39B
  8
0
 10
205.649999999999693
 20
-63.4299908187006096
 30
0.0
 11
205.8499999999997101
 21
-63.6299908187006125
 31
0.0
  0
LINE
  5
E39C
  8
0
 10
219.149999999999693
 20
-63.6299908187006125
 30
0.0
 11
219.3499999999997954
 21
-63.4299908187006096
 31
0.0
  0
ARC
  5
E39D
  8
0
 10
218.8499999999997101
 20
-53.8299908187006508
 30
0.0
 40
0.5000000000000142
 50
0.0
 51
90.0
  0
ARC
  5
E39E
  8
0
 10
206.149999999999693
 20
-53.8299908187006508
 30
0.0
 40
0.5000000000000142
 50
90.0
 51
180.0
  0
ARC
  5
E39F
  8
0
 10
218.9999999999996874
 20
-45.094764855300582
 30
0.0
 40
1.0
 50
90.0
 51
180.0
  0
ARC
  5
E3A0
  8
0
 10
205.9999999999996874
 20
-45.094764855300582
 30
0.0
 40
1.0
 50
0.0
 51
90.0
  0
LINE
  5
E3A1
  8
0
 10
217.9999999999996874
 20
-53.3299908187006508
 30
0.0
 11
217.9999999999996874
 21
-45.094764855300582
 31
0.0
  0
LINE
  5
E3A2
  8
0
 10
206.9999999999996874
 20
-45.094764855300582
 30
0.0
 11
206.9999999999996874
 21
-53.3299908187006508
 31
0.0
  0
LINE
  5
E3A3
  8
0
 10
216.4999999999996874
 20
-65.1299908187006054
 30
0.0
 11
216.4999999999996874
 21
-63.6299908187006125
 31
0.0
  0
LINE
  5
E3A4
  8
0
 10
208.4999999999996874
 20
-63.6299908187006125
 30
0.0
 11
208.4999999999996874
 21
-65.1299908187006054
 31
0.0
  0
LINE
  5
E3A5
  8
0
 10
208.4999999999996874
 20
-65.1299908187006054
 30
0.0
 11
209.4999999999996874
 21
-66.1299908187006054
 31
0.0
  0
LINE
  5
E3A6
  8
0
 10
215.4999999999996874
 20
-66.1299908187006054
 30
0.0
 11
216.4999999999996874
 21
-65.1299908187006054
 31
0.0
  0
LINE
  5
E3A7
  8
0
 10
219.4999999999996874
 20
-44.094764855300582
 30
0.0
 11
205.4999999999996874
 21
-44.094764855300582
 31
0.0
  0
LINE
  5
E3A8
  8
0
 10
205.4999999999996874
 20
-39.094764855300582
 30
0.0
 11
219.4999999999996874
 21
-39.094764855300582
 31
0.0
  0
LINE
  5
E3A9
  8
0
 10
205.649999999999693
 20
-63.4299908187006096
 30
0.0
 11
219.3499999999997954
 21
-63.4299908187006096
 31
0.0
  0
LINE
  5
E3AA
  8
0
 10
219.149999999999693
 20
-63.6299908187006125
 30
0.0
 11
205.8499999999997101
 21
-63.6299908187006125
 31
0.0
  0
LINE
  5
E3AB
  8
0
 10
206.149999999999693
 20
-53.3299908187006508
 30
0.0
 11
218.8499999999997101
 21
-53.3299908187006508
 31
0.0
  0
LINE
  5
E3AC
  8
0
 10
208.4999999999996874
 20
-65.1299908187006054
 30
0.0
 11
216.4999999999996874
 21
-65.1299908187006054
 31
0.0
  0
LINE
  5
E3AD
  8
0
 10
215.4999999999996874
 20
-66.1299908187006054
 30
0.0
 11
209.4999999999996874
 21
-66.1299908187006054
 31
0.0
  0
LINE
  5
E3AE
  8
0
 10
204.4999999999996874
 20
-43.094764855300582
 30
0.0
 11
220.4999999999996874
 21
-43.094764855300582
 31
0.0
  0
LINE
  5
E3AF
  8
0
 10
220.4999999999996874
 20
-40.094764855300582
 30
0.0
 11
204.4999999999996874
 21
-40.094764855300582
 31
0.0
  0
LINE
  5
E3B0
  8
0
 10
219.3499999999997101
 20
-53.8299908187006508
 30
0.0
 11
205.649999999999693
 21
-53.8299908187006508
 31
0.0
  0
LINE
  5
E3B1
  8
3
 10
215.8234999999997967
 20
-65.8064908187005244
 30
0.0
 11
215.8234999999997967
 21
-63.6299908187006622
 31
0.0
  0
LINE
  5
E3B2
  8
3
 10
209.1764999999996064
 20
-65.8064908187004107
 30
0.0
 11
209.1764999999996064
 21
-63.6299908187006622
 31
0.0
  0
LINE
  5
E3B3
  8
1
 10
212.4999999999996874
 20
-69.1299908187006054
 30
0.0
 11
212.4999999999996874
 21
-36.0947648553006388
 31
0.0
  0
LINE
  5
E3DF
  8
0
 10
419.9999993825859974
 20
-63.6299908187006125
 30
0.0
 11
454.9999993825861111
 21
-63.6299908187006125
 31
0.0
  0
LINE
  5
E3E1
  8
1
 10
437.4999993825861111
 20
-61.6299908187005414
 30
0.0
 11
437.4999993825861111
 21
-71.6299908187005343
 31
0.0
  0
LINE
  5
E3E2
  8
0
 10
419.9999993825859974
 20
-69.6299908187006054
 30
0.0
 11
454.9999993825861111
 21
-69.6299908187006054
 31
0.0
  0
LINE
  5
E3EE
  8
0
 10
194.9999999999996874
 20
-63.6299908187006125
 30
0.0
 11
229.999999999999801
 21
-63.6299908187006125
 31
0.0
  0
LINE
  5
E3F1
  8
0
 10
194.9999999999996874
 20
-66.6299908187006054
 30
0.0
 11
229.999999999999801
 21
-66.6299908187006054
 31
0.0
  0
LINE
  5
E3F2
  8
3
 10
208.4999999999996874
 20
-65.1299908187005485
 30
0.0
 11
208.4999999999996874
 21
-66.5064908187011952
 31
0.0
  0
LINE
  5
E3F6
  8
3
 10
216.499999999999801
 20
-65.1299908187005485
 30
0.0
 11
216.499999999999801
 21
-66.5064908187003709
 31
0.0
  0
LINE
  5
E400
  8
0
 10
375.4999998472629272
 20
-43.094764855300582
 30
0.0
 11
375.4999998472629272
 21
-40.094764855300582
 31
0.0
  0
LINE
  5
E401
  8
0
 10
359.4999998472629272
 20
-40.094764855300582
 30
0.0
 11
359.4999998472629272
 21
-43.094764855300582
 31
0.0
  0
ARC
  5
E402
  8
0
 10
360.4999998472629272
 20
-43.094764855300582
 30
0.0
 40
1.0
 50
180.0
 51
270.0
  0
ARC
  5
E403
  8
0
 10
374.4999998472629272
 20
-43.094764855300582
 30
0.0
 40
1.0000000000000131
 50
270.0
 51
0.0
  0
ARC
  5
E404
  8
0
 10
374.4999998472629272
 20
-40.094764855300582
 30
0.0
 40
1.0000000000000131
 50
0.0
 51
90.0
  0
ARC
  5
E405
  8
0
 10
360.4999998472629272
 20
-40.094764855300582
 30
0.0
 40
1.0
 50
90.0
 51
180.0
  0
LINE
  5
E406
  8
0
 10
374.3499998472628931
 20
-63.4299908187006096
 30
0.0
 11
374.3499998472628931
 21
-53.8299908187006508
 31
0.0
  0
LINE
  5
E407
  8
0
 10
360.6499998472627908
 20
-53.8299908187006508
 30
0.0
 11
360.6499998472627908
 21
-63.4299908187006096
 31
0.0
  0
LINE
  5
E408
  8
0
 10
360.6499998472627908
 20
-63.4299908187006096
 30
0.0
 11
360.8499998472628931
 21
-63.6299908187006125
 31
0.0
  0
LINE
  5
E409
  8
0
 10
374.1499998472629045
 20
-63.6299908187006125
 30
0.0
 11
374.3499998472628931
 21
-63.4299908187006096
 31
0.0
  0
ARC
  5
E40A
  8
0
 10
373.8499998472628931
 20
-53.8299908187006508
 30
0.0
 40
0.5000000000000142
 50
0.0
 51
90.0
  0
ARC
  5
E40B
  8
0
 10
361.1499998472627908
 20
-53.8299908187006508
 30
0.0
 40
0.5000000000000142
 50
90.0
 51
180.0
  0
ARC
  5
E40C
  8
0
 10
373.9999998472629272
 20
-45.094764855300582
 30
0.0
 40
1.0
 50
90.0
 51
180.0
  0
ARC
  5
E40D
  8
0
 10
360.9999998472629272
 20
-45.094764855300582
 30
0.0
 40
1.0
 50
0.0
 51
90.0
  0
LINE
  5
E40E
  8
0
 10
372.9999998472629272
 20
-53.3299908187006508
 30
0.0
 11
372.9999998472629272
 21
-45.094764855300582
 31
0.0
  0
LINE
  5
E40F
  8
0
 10
361.9999998472629272
 20
-45.094764855300582
 30
0.0
 11
361.9999998472629272
 21
-53.3299908187006508
 31
0.0
  0
LINE
  5
E410
  8
0
 10
371.4999998472629272
 20
-65.1299908187006054
 30
0.0
 11
371.4999998472629272
 21
-63.6299908187006125
 31
0.0
  0
LINE
  5
E411
  8
0
 10
363.4999998472629272
 20
-63.6299908187006125
 30
0.0
 11
363.4999998472629272
 21
-65.1299908187006054
 31
0.0
  0
LINE
  5
E412
  8
0
 10
363.4999998472629272
 20
-65.1299908187006054
 30
0.0
 11
364.4999998472629272
 21
-66.1299908187006054
 31
0.0
  0
LINE
  5
E413
  8
0
 10
370.4999998472629272
 20
-66.1299908187006054
 30
0.0
 11
371.4999998472629272
 21
-65.1299908187006054
 31
0.0
  0
LINE
  5
E414
  8
0
 10
374.4999998472629272
 20
-44.094764855300582
 30
0.0
 11
360.4999998472629272
 21
-44.094764855300582
 31
0.0
  0
LINE
  5
E415
  8
0
 10
360.4999998472629272
 20
-39.094764855300582
 30
0.0
 11
374.4999998472629272
 21
-39.094764855300582
 31
0.0
  0
LINE
  5
E416
  8
0
 10
360.6499998472627908
 20
-63.4299908187006096
 30
0.0
 11
374.3499998472628931
 21
-63.4299908187006096
 31
0.0
  0
LINE
  5
E417
  8
0
 10
374.1499998472629045
 20
-63.6299908187006125
 30
0.0
 11
360.8499998472628931
 21
-63.6299908187006125
 31
0.0
  0
LINE
  5
E418
  8
0
 10
361.1499998472627908
 20
-53.3299908187006508
 30
0.0
 11
373.8499998472628931
 21
-53.3299908187006508
 31
0.0
  0
LINE
  5
E419
  8
0
 10
363.4999998472629272
 20
-65.1299908187006054
 30
0.0
 11
371.4999998472629272
 21
-65.1299908187006054
 31
0.0
  0
LINE
  5
E41A
  8
0
 10
370.4999998472629272
 20
-66.1299908187006054
 30
0.0
 11
364.4999998472629272
 21
-66.1299908187006054
 31
0.0
  0
LINE
  5
E41B
  8
0
 10
359.4999998472629272
 20
-43.094764855300582
 30
0.0
 11
375.4999998472629272
 21
-43.094764855300582
 31
0.0
  0
LINE
  5
E41C
  8
0
 10
375.4999998472629272
 20
-40.094764855300582
 30
0.0
 11
359.4999998472629272
 21
-40.094764855300582
 31
0.0
  0
LINE
  5
E41D
  8
0
 10
374.3499998472628931
 20
-53.8299908187006508
 30
0.0
 11
360.6499998472627908
 21
-53.8299908187006508
 31
0.0
  0
LINE
  5
E41E
  8
3
 10
370.8234998472628945
 20
-65.8064908187005244
 30
0.0
 11
370.8234998472628945
 21
-63.6299908187006622
 31
0.0
  0
LINE
  5
E41F
  8
3
 10
364.1764998472626758
 20
-65.8064908187004107
 30
0.0
 11
364.1764998472627894
 21
-63.6299908187006622
 31
0.0
  0
LINE
  5
E420
  8
1
 10
367.4999998472629272
 20
-71.6299908187006338
 30
0.0
 11
367.4999998472629272
 21
-36.0947648553006388
 31
0.0
  0
LINE
  5
E421
  8
0
 10
349.9999998472629272
 20
-63.6299908187006125
 30
0.0
 11
384.9999998472629272
 21
-63.6299908187006125
 31
0.0
  0
LINE
  5
E423
  8
0
 10
349.9999998472629272
 20
-69.6299908187006054
 30
0.0
 11
384.9999998472629272
 21
-69.6299908187006054
 31
0.0
  0
LINE
  5
E424
  8
3
 10
363.4999998472629272
 20
-65.1299908187006054
 30
0.0
 11
363.4999998472629272
 21
-69.506490818701252
 31
0.0
  0
LINE
  5
E427
  8
3
 10
371.4999998472629841
 20
-65.1299908187005485
 30
0.0
 11
371.4999998472629841
 21
-69.5064908187005841
 31
0.0
  0
LINE
  5
E42C
  8
0
 10
364.1764998472626758
 20
-68.829990818701134
 30
0.0
 11
364.1764998472627894
 21
-65.8064908187004534
 31
0.0
  0
LINE
  5
E42E
  8
0
 10
370.8234998472631219
 20
-68.8299908187011908
 30
0.0
 11
370.8234998472628945
 21
-65.8064908187004534
 31
0.0
  0
LINE
  5
E48C
  8
0
 10
264.9999995353230133
 20
-63.6299908187006125
 30
0.0
 11
299.9999995353228996
 21
-63.6299908187006125
 31
0.0
  0
LINE
  5
E48E
  8
0
 10
279.1764995353228187
 20
-64.4299908187005173
 30
0.0
 11
285.8234995353230943
 21
-64.4299908187005741
 31
0.0
  0
LINE
  5
E48F
  8
1
 10
282.4999995353230133
 20
-61.6299908187005414
 30
0.0
 11
282.4999995353230133
 21
-68.6299908187005485
 31
0.0
  0
LINE
  5
E490
  8
0
 10
264.9999995353230133
 20
-66.6299908187006054
 30
0.0
 11
299.9999995353228996
 21
-66.6299908187006054
 31
0.0
  0
LINE
  5
E491
  8
3
 10
278.4999995353228996
 20
-63.7534908186998521
 30
0.0
 11
278.4999995353228996
 21
-66.5064908187012236
 31
0.0
  0
LINE
  5
E492
  8
0
 10
279.1764995353228187
 20
-65.8299908187009208
 30
0.0
 11
279.176499535322705
 21
-64.4299908187005173
 31
0.0
  0
LINE
  5
E493
  8
3
 10
286.4999995353230133
 20
-63.7534908187006408
 30
0.0
 11
286.4999995353230133
 21
-66.5064908187003709
 31
0.0
  0
LINE
  5
E494
  8
0
 10
285.823499535323208
 20
-65.8299908187005087
 30
0.0
 11
285.8234995353230943
 21
-64.4299908187005741
 31
0.0
  0
LINE
  5
E495
  8
0
 10
279.1764995353228187
 20
-65.8299908187009208
 30
0.0
 11
285.8234995353229806
 21
-65.8299908187010914
 31
0.0
  0
LINE
  5
E4A0
  8
0
 10
285.8234995353230943
 20
-64.4299908187006025
 30
0.0
 11
286.6234995353231056
 21
-63.6299908187006125
 31
0.0
  0
LINE
  5
E4A1
  8
0
 10
279.1764995353223071
 20
-64.4299908186995935
 30
0.0
 11
278.3764995353225231
 21
-63.6299908186993619
 31
0.0
  0
LINE
  5
E4A2
  8
0
 10
285.8234995353230943
 20
-65.8299908187004945
 30
0.0
 11
286.6234995353231056
 21
-66.6299908187004917
 31
0.0
  0
LINE
  5
E4A3
  8
0
 10
279.1764995353223071
 20
-65.8299908187015035
 30
0.0
 11
278.3764995353225231
 21
-66.6299908187017422
 31
0.0
  0
LINE
  5
E4A7
  8
0
 10
216.4999999999996874
 20
-63.7534908187008327
 30
0.0
 11
216.6234999999998934
 21
-63.6299908187006125
 31
0.0
  0
LINE
  5
E4A8
  8
0
 10
208.4999999999996874
 20
-63.7534908186998805
 30
0.0
 11
208.3764999999991971
 21
-63.6299908186993619
 31
0.0
  0
LINE
  5
E4A9
  8
0
 10
215.8234999999999104
 20
-65.8299908187004945
 30
0.0
 11
216.6234999999998934
 21
-66.6299908187004917
 31
0.0
  0
LINE
  5
E4AA
  8
0
 10
209.1764999999990096
 20
-65.8299908187015035
 30
0.0
 11
208.3764999999991971
 21
-66.6299908187017422
 31
0.0
  0
LINE
  5
E4AB
  8
0
 10
209.1764999999996064
 20
-65.8299908187009208
 30
0.0
 11
209.1999999999999886
 21
-65.8299908187009208
 31
0.0
  0
LINE
  5
E4AC
  8
0
 10
215.7999999999991871
 20
-65.8299908187010914
 30
0.0
 11
215.8234999999997967
 21
-65.8299908187010914
 31
0.0
  0
LINE
  5
E4AD
  8
0
 10
215.8235000000005073
 20
-65.8299908187010914
 30
0.0
 11
215.8234999999997967
 21
-65.8064908187005244
 31
0.0
  0
LINE
  5
E4AE
  8
0
 10
209.1764999999996064
 20
-65.8299908187009208
 30
0.0
 11
209.1764999999996064
 21
-65.8064908187004534
 31
0.0
  0
LINE
  5
E4C2
  8
0
 10
434.1764993825859733
 20
-64.4299908187005173
 30
0.0
 11
440.823499382586192
 21
-64.4299908187005741
 31
0.0
  0
LINE
  5
E4C3
  8
3
 10
433.4999993825859974
 20
-63.7534908186998521
 30
0.0
 11
433.4999993825859974
 21
-69.5064908187013373
 31
0.0
  0
LINE
  5
E4C4
  8
0
 10
434.1764993825859733
 20
-68.8299908187010345
 30
0.0
 11
434.1764993825859165
 21
-64.4299908187005173
 31
0.0
  0
LINE
  5
E4C5
  8
3
 10
441.4999993825861111
 20
-63.7534908187006408
 30
0.0
 11
441.4999993825861111
 21
-69.5064908187004846
 31
0.0
  0
LINE
  5
E4C6
  8
0
 10
440.8234993825863057
 20
-68.8299908187006224
 30
0.0
 11
440.823499382586192
 21
-64.4299908187005741
 31
0.0
  0
LINE
  5
E4C7
  8
0
 10
434.1764993825859733
 20
-68.8299908187010345
 30
0.0
 11
440.8234993825860784
 21
-68.8299908187012051
 31
0.0
  0
LINE
  5
E4C8
  8
0
 10
440.823499382586192
 20
-64.4299908187006025
 30
0.0
 11
441.6234993825862034
 21
-63.6299908187006125
 31
0.0
  0
LINE
  5
E4C9
  8
0
 10
434.1764993825854049
 20
-64.4299908186995935
 30
0.0
 11
433.3764993825856209
 21
-63.6299908186993619
 31
0.0
  0
LINE
  5
E4CA
  8
0
 10
440.823499382586192
 20
-68.829990818700594
 30
0.0
 11
441.6234993825862034
 21
-69.6299908187006054
 31
0.0
  0
LINE
  5
E4CB
  8
0
 10
434.1764993825854049
 20
-68.8299908187016172
 30
0.0
 11
433.3764993825856209
 21
-69.6299908187018559
 31
0.0
  0
LINE
  5
E4CD
  8
0
 10
364.1764998472626758
 20
-68.8299908187010345
 30
0.0
 11
370.8234998472628945
 21
-68.8299908187012051
 31
0.0
  0
LINE
  5
E4CE
  8
0
 10
371.4999998472629272
 20
-63.7534908187006906
 30
0.0
 11
371.6234998472630195
 21
-63.6299908187006125
 31
0.0
  0
LINE
  5
E4CF
  8
0
 10
363.4999998472629272
 20
-63.753490818699909
 30
0.0
 11
363.3764998472623802
 21
-63.6299908186993619
 31
0.0
  0
LINE
  5
E4D0
  8
0
 10
370.8234998472630082
 20
-68.829990818700594
 30
0.0
 11
371.6234998472630195
 21
-69.6299908187006054
 31
0.0
  0
LINE
  5
E4D1
  8
0
 10
364.176499847262221
 20
-68.8299908187016172
 30
0.0
 11
363.3764998472623802
 21
-69.6299908187018559
 31
0.0
  0
ENDSEC
  0
EOF
