  0
SECTION
  2
HEADER
  9
$ACADVER
  1
AC1009
  9
$INSBASE
 10
0.0
 20
0.0
 30
0.0
  9
$EXTMIN
 10
0.0
 20
-100.0
 30
0.0
  9
$EXTMAX
 10
337.93333333333391
 20
205.28697651300971
 30
0.0
  9
$LIMMIN
 10
0.0
 20
0.0
  9
$LIMMAX
 10
187.5
 20
135.0
  9
$ORTHOMODE
 70
     1
  9
$REGENMODE
 70
     1
  9
$FILLMODE
 70
     1
  9
$QTEXTMODE
 70
     0
  9
$MIRRTEXT
 70
     0
  9
$DRAGMODE
 70
     2
  9
$LTSCALE
 40
5.0
  9
$OSMODE
 70
    37
  9
$ATTMODE
 70
     1
  9
$TEXTSIZE
 40
0.2
  9
$TRACEWID
 40
0.05
  9
$TEXTSTYLE
  7
STANDARD
  9
$CLAYER
  8
0
  9
$CELTYPE
  6
BYLAYER
  9
$CECOLOR
 62
   256
  9
$DIMSCALE
 40
0.5
  9
$DIMASZ
 40
3.0
  9
$DIMEXO
 40
2.0
  9
$DIMDLI
 40
0.3799999999999999
  9
$DIMRND
 40
0.0
  9
$DIMDLE
 40
0.0
  9
$DIMEXE
 40
2.0
  9
$DIMTP
 40
0.0
  9
$DIMTM
 40
0.0
  9
$DIMTXT
 40
3.2000000000000002
  9
$DIMCEN
 40
0.0
  9
$DIMTSZ
 40
0.0
  9
$DIMTOL
 70
     0
  9
$DIMLIM
 70
     0
  9
$DIMTIH
 70
     0
  9
$DIMTOH
 70
     0
  9
$DIMSE1
 70
     0
  9
$DIMSE2
 70
     0
  9
$DIMTAD
 70
     1
  9
$DIMZIN
 70
     8
  9
$DIMBLK
  1

  9
$DIMASO
 70
     0
  9
$DIMSHO
 70
     0
  9
$DIMPOST
  1

  9
$DIMAPOST
  1

  9
$DIMALT
 70
     0
  9
$DIMALTD
 70
     2
  9
$DIMALTF
 40
25.399999999999999
  9
$DIMLFAC
 40
1.0
  9
$DIMTOFL
 70
     0
  9
$DIMTVP
 40
1.6000000000000001
  9
$DIMTIX
 70
     0
  9
$DIMSOXD
 70
     0
  9
$DIMSAH
 70
     0
  9
$DIMBLK1
  1

  9
$DIMBLK2
  1

  9
$DIMSTYLE
  2
STANDARD
  9
$DIMCLRD
 70
     0
  9
$DIMCLRE
 70
     0
  9
$DIMCLRT
 70
     0
  9
$DIMTFAC
 40
1.0
  9
$DIMGAP
 40
1.0
  9
$LUNITS
 70
     2
  9
$LUPREC
 70
     1
  9
$SKETCHINC
 40
0.1
  9
$FILLETRAD
 40
0.4
  9
$AUNITS
 70
     0
  9
$AUPREC
 70
     1
  9
$MENU
  1
E:\r13\win\SUPPORT\ACAD
  9
$ELEVATION
 40
0.0
  9
$PELEVATION
 40
0.0
  9
$THICKNESS
 40
0.0
  9
$LIMCHECK
 70
     0
  9
$BLIPMODE
 70
     0
  9
$CHAMFERA
 40
0.5
  9
$CHAMFERB
 40
0.5
  9
$SKPOLY
 70
     0
  9
$TDCREATE
 40
2451824.6906229062
  9
$TDUPDATE
 40
2458148.4822061341
  9
$TDINDWG
 40
1.0012187268999999
  9
$TDUSRTIMER
 40
1.0012187268999999
  9
$USRTIMER
 70
     1
  9
$ANGBASE
 50
0.0
  9
$ANGDIR
 70
     0
  9
$PDMODE
 70
     0
  9
$PDSIZE
 40
0.0
  9
$PLINEWID
 40
0.0
  9
$COORDS
 70
     1
  9
$SPLFRAME
 70
     0
  9
$SPLINETYPE
 70
     6
  9
$SPLINESEGS
 70
     8
  9
$ATTDIA
 70
     0
  9
$ATTREQ
 70
     1
  9
$HANDLING
 70
     1
  9
$HANDSEED
  5
DEBF
  9
$SURFTAB1
 70
     6
  9
$SURFTAB2
 70
     6
  9
$SURFTYPE
 70
     6
  9
$SURFU
 70
     6
  9
$SURFV
 70
     6
  9
$UCSNAME
  2

  9
$UCSORG
 10
0.0
 20
0.0
 30
0.0
  9
$UCSXDIR
 10
1.0
 20
0.0
 30
0.0
  9
$UCSYDIR
 10
0.0
 20
1.0
 30
0.0
  9
$PUCSNAME
  2

  9
$PUCSORG
 10
0.0
 20
0.0
 30
0.0
  9
$PUCSXDIR
 10
1.0
 20
0.0
 30
0.0
  9
$PUCSYDIR
 10
0.0
 20
1.0
 30
0.0
  9
$USERI1
 70
     0
  9
$USERI2
 70
     1
  9
$USERI3
 70
     0
  9
$USERI4
 70
     0
  9
$USERI5
 70
     0
  9
$USERR1
 40
0.0
  9
$USERR2
 40
0.0
  9
$USERR3
 40
0.0
  9
$USERR4
 40
0.0
  9
$USERR5
 40
0.0
  9
$WORLDVIEW
 70
     1
  9
$SHADEDGE
 70
     3
  9
$SHADEDIF
 70
    70
  9
$TILEMODE
 70
     1
  9
$MAXACTVP
 70
    16
  9
$PLIMCHECK
 70
     0
  9
$PEXTMIN
 10
1.0000000000000000E+020
 20
1.0000000000000000E+020
 30
1.0000000000000000E+020
  9
$PEXTMAX
 10
-1.0000000000000000E+020
 20
-1.0000000000000000E+020
 30
-1.0000000000000000E+020
  9
$PLIMMIN
 10
0.0
 20
0.0
  9
$PLIMMAX
 10
12.0
 20
9.0
  9
$UNITMODE
 70
     0
  9
$VISRETAIN
 70
     0
  9
$PLINEGEN
 70
     0
  9
$PSLTSCALE
 70
     0
  0
ENDSEC
  0
SECTION
  2
TABLES
  0
TABLE
  2
VPORT
 70
     1
  0
VPORT
  2
*ACTIVE
 70
     0
 10
0.0
 20
0.0
 11
1.0
 21
1.0
 12
208.86752136752139
 22
115.0
 13
0.0
 23
0.0
 14
5.0
 24
5.0
 15
5.0
 25
5.0
 16
0.0
 26
0.0
 36
1.0
 17
0.0
 27
0.0
 37
0.0
 40
230.0
 41
1.816239316239316
 42
50.0
 43
0.0
 44
0.0
 50
0.0
 51
0.0
 71
     0
 72
   500
 73
     1
 74
     0
 75
     0
 76
     0
 77
     0
 78
     2
  0
ENDTAB
  0
TABLE
  2
LTYPE
 70
     4
  0
LTYPE
  2
CONTINUOUS
 70
     0
  3
Solid Line
 72
    65
 73
     0
 40
0.0
  0
LTYPE
  2
CENTER
 70
     0
  3
____ _ ____ _ ____ _ ____ _ ____ _ ____ _ ____
 72
    65
 73
     4
 40
2.0
 49
1.25
 49
-0.25
 49
0.25
 49
-0.25
  0
LTYPE
  2
PHANTOM2
 70
     0
  3
___ _ _ ___ _ _ ___ _ _ ___ _ _
 72
    65
 73
     6
 40
1.25
 49
0.625
 49
-0.125
 49
0.125
 49
-0.125
 49
0.125
 49
-0.125
  0
LTYPE
  2
PHANTOM
 70
     0
  3
_____ _ _ _____ _ _ _____ _ _ _____ _ _ ____
 72
    65
 73
     6
 40
2.5
 49
1.25
 49
-0.25
 49
0.25
 49
-0.25
 49
0.25
 49
-0.25
  0
ENDTAB
  0
TABLE
  2
LAYER
 70
     5
  0
LAYER
  2
0
 70
     0
 62
     7
  6
CONTINUOUS
  0
LAYER
  2
1
 70
     0
 62
     1
  6
CENTER
  0
LAYER
  2
3
 70
     0
 62
     3
  6
CONTINUOUS
  0
LAYER
  2
DEFPOINTS
 70
     0
 62
     7
  6
CONTINUOUS
  0
LAYER
  2
5
 70
     0
 62
     3
  6
PHANTOM
  0
ENDTAB
  0
TABLE
  2
STYLE
 70
     2
  0
STYLE
  2
STANDARD
 70
     0
 40
0.0
 41
1.0
 50
0.0
 71
     0
 42
0.2
  3
TXT
  4
BIGFONT
  0
STYLE
  2
STANDARD1
 70
     0
 40
0.0
 41
1.0
 50
0.0
 71
     0
 42
3.0
  3
txt
  4

  0
ENDTAB
  0
TABLE
  2
VIEW
 70
     0
  0
ENDTAB
  0
TABLE
  2
UCS
 70
     0
  0
ENDTAB
  0
TABLE
  2
APPID
 70
     8
  0
APPID
  2
ACAD
 70
     0
  0
APPID
  2
ACAD_MLEADERVER
 70
     0
  0
APPID
  2
ACAD_EXEMPT_FROM_CAD_STANDARDS
 70
     0
  0
APPID
  2
ACAD_DSTYLE_DIMJAG
 70
     0
  0
APPID
  2
ACAD_DSTYLE_DIMTALN
 70
     0
  0
APPID
  2
ACAD_NAV_VCDISPLAY
 70
     0
  0
APPID
  2
ACADANNOTATIVE
 70
     0
  0
APPID
  2
ACAD_PSEXT
 70
     0
  0
ENDTAB
  0
TABLE
  2
DIMSTYLE
 70
     1
  0
DIMSTYLE
  2
STANDARD
 70
     0
  3

  4

  5

  6

  7

 40
1.0
 41
0.18
 42
0.0625
 43
0.38
 44
0.18
 45
0.0
 46
0.0
 47
0.0
 48
0.0
140
0.18
141
0.09
142
0.0
143
25.399999999999999
144
1.0
145
0.0
146
1.0
147
0.09
 71
     0
 72
     0
 73
     1
 74
     1
 75
     0
 76
     0
 77
     0
 78
     0
170
     0
171
     2
172
     0
173
     0
174
     0
175
     0
176
     0
177
     0
178
     0
  0
ENDTAB
  0
ENDSEC
  0
SECTION
  2
BLOCKS
  0
BLOCK
  8
0
  2
$MODEL_SPACE
 70
     0
 10
0.0
 20
0.0
 30
0.0
  3
$MODEL_SPACE
  1

  0
ENDBLK
  5
9
  8
0
  0
BLOCK
 67
     1
  8
0
  2
$PAPER_SPACE
 70
     0
 10
0.0
 20
0.0
 30
0.0
  3
$PAPER_SPACE
  1

  0
ENDBLK
  5
E
 67
     1
  8
0
  0
ENDSEC
  0
SECTION
  2
ENTITIES
  0
TEXT
  5
56D2
  8
0
 62
     3
 10
147.0
 20
0.0
 30
0.0
 40
3.2000000000000002
  1
■ホールクランパーの取付け方法 (下図)
  0
TEXT
  5
5A7C
  8
0
 62
     3
 10
0.0
 20
0.0
 30
0.0
 40
10.0
  1
QCHC0612N-3-SUS
  7
STANDARD1
  0
TEXT
  5
5B0E
  8
0
 62
     3
 10
147.0
 20
-7.0
 30
0.0
 40
3.2000000000000002
  1
■Installation Instructions for Hole Holding Clamps (see diagram below)
  0
LINE
  5
B701
  8
3
 10
245.5000000000002
 20
-61.014583928922328
 30
0.0
 11
245.50000000000031
 21
-54.931583928922279
 31
0.0
  0
LINE
  5
B702
  8
3
 10
233.50000000000031
 20
-54.931583928922358
 30
0.0
 11
233.5000000000002
 21
-61.014583928922328
 31
0.0
  0
LINE
  5
B703
  8
0
 10
234.04150000000021
 20
-60.473083928922328
 30
0.0
 11
244.95850000000041
 21
-60.473083928922343
 31
0.0
  0
LINE
  5
B704
  8
1
 10
239.5000000000002
 20
-64.973083928922335
 30
0.0
 11
239.5000000000002
 21
-50.973083928922343
 31
0.0
  0
LINE
  5
B705
  8
0
 10
234.04150000000021
 20
-55.4730839289223
 30
0.0
 11
234.04150000000021
 21
-60.4730839289223
 31
0.0
  0
LINE
  5
B706
  8
0
 10
244.95850000000041
 20
-55.473083928922328
 30
0.0
 11
244.9585000000003
 21
-60.4730839289223
 31
0.0
  0
LINE
  5
B707
  8
0
 10
252.0000000000002
 20
-61.973083928922328
 30
0.0
 11
227.0000000000002
 21
-61.973083928922328
 31
0.0
  0
LINE
  5
B708
  8
0
 10
227.0000000000002
 20
-53.973083928922343
 30
0.0
 11
252.0000000000002
 21
-53.973083928922343
 31
0.0
  0
LINE
  5
B709
  8
0
 10
232.5415000000003
 20
-61.973083928922328
 30
0.0
 11
234.04150000000021
 21
-60.473083928922328
 31
0.0
  0
LINE
  5
B70A
  8
0
 10
232.54150000000021
 20
-53.973083928922307
 30
0.0
 11
234.04150000000021
 21
-55.4730839289223
 31
0.0
  0
LINE
  5
B70B
  8
0
 10
234.04150000000021
 20
-55.473083928922328
 30
0.0
 11
244.95850000000041
 21
-55.473083928922328
 31
0.0
  0
LINE
  5
B70C
  8
0
 10
246.45850000000021
 20
-61.973083928922328
 30
0.0
 11
244.95850000000021
 21
-60.473083928922328
 31
0.0
  0
LINE
  5
B70D
  8
0
 10
246.45850000000021
 20
-53.973083928922307
 30
0.0
 11
244.95850000000021
 21
-55.4730839289223
 31
0.0
  0
LINE
  5
B70E
  8
1
 10
294.50000000000023
 20
-67.973083928922335
 30
0.0
 11
294.50000000000023
 21
-58.973083928922343
 31
0.0
  0
LINE
  5
B70F
  8
0
 10
307.00000000000023
 20
-61.973083928922328
 30
0.0
 11
282.00000000000023
 21
-61.973083928922328
 31
0.0
  0
LINE
  5
B710
  8
0
 10
291.25000000000023
 20
-64.973083928922307
 30
0.0
 11
291.25000000000023
 21
-62.473083928922328
 31
0.0
  0
LINE
  5
B711
  8
0
 10
297.75000000000023
 20
-64.973083928922364
 30
0.0
 11
297.75000000000023
 21
-62.473083928922328
 31
0.0
  0
LINE
  5
B712
  8
0
 10
307.00000000000023
 20
-64.973083928922335
 30
0.0
 11
282.00000000000023
 21
-64.973083928922335
 31
0.0
  0
LINE
  5
B713
  8
0
 10
290.75000000000023
 20
-61.973083928922328
 30
0.0
 11
291.25000000000023
 21
-62.473083928922328
 31
0.0
  0
LINE
  5
B714
  8
0
 10
298.25000000000023
 20
-61.973083928922328
 30
0.0
 11
297.75000000000023
 21
-62.473083928922328
 31
0.0
  0
LINE
  5
B715
  8
0
 10
297.75000000000023
 20
-62.473083928922328
 30
0.0
 11
291.25000000000023
 21
-62.473083928922989
 31
0.0
  0
LINE
  5
B776
  8
0
 10
181.2500000000002
 20
-64.973083928922321
 30
0.0
 11
181.2500000000002
 21
-62.47308392892235
 31
0.0
  0
LINE
  5
B777
  8
0
 10
187.7500000000002
 20
-64.973083928922378
 30
0.0
 11
187.7500000000002
 21
-62.47308392892235
 31
0.0
  0
LINE
  5
B77E
  8
0
 10
197.0000000000002
 20
-61.97308392892235
 30
0.0
 11
187.6033331886207
 21
-61.97308392892235
 31
0.0
  0
LINE
  5
B77F
  8
0
 10
197.0000000000002
 20
-64.97308392892235
 30
0.0
 11
187.7500000000002
 21
-64.97308392892235
 31
0.0
  0
LINE
  5
B780
  8
0
 10
194.0000000000002
 20
-53.973083928922343
 30
0.0
 11
197.0000000000002
 21
-53.973083928922343
 31
0.0
  0
LINE
  5
B781
  8
0
 10
172.0000000000002
 20
-61.97308392892235
 30
0.0
 11
181.3966668113797
 21
-61.97308392892235
 31
0.0
  0
LINE
  5
B782
  8
0
 10
175.0000000000002
 20
-53.973083928922343
 30
0.0
 11
172.0000000000002
 21
-53.973083928922343
 31
0.0
  0
LINE
  5
B787
  8
0
 10
172.0000000000002
 20
-64.97308392892235
 30
0.0
 11
181.2500000000002
 21
-64.97308392892235
 31
0.0
  0
LINE
  5
B788
  8
0
 10
180.7500000000002
 20
-61.97308392892235
 30
0.0
 11
181.2500000000002
 21
-62.47308392892235
 31
0.0
  0
LINE
  5
B789
  8
0
 10
181.2500000000002
 20
-62.47308392892235
 30
0.0
 11
181.3905916449566
 21
-62.473083928922378
 31
0.0
  0
LINE
  5
B78A
  8
0
 10
188.2500000000002
 20
-61.97308392892235
 30
0.0
 11
187.7500000000002
 21
-62.47308392892235
 31
0.0
  0
LINE
  5
B78B
  8
0
 10
187.7500000000002
 20
-62.47308392892235
 30
0.0
 11
187.6094083550438
 21
-62.473083928922378
 31
0.0
  0
TEXT
  5
C116
  8
0
 62
     3
 10
175.43333333333331
 20
-78.899999999999963
 30
0.0
 40
3.2000000000000002
  1
組付け状態
 72
     1
 11
184.5
 21
-78.899999999999963
 31
0.0
  0
POLYLINE
  5
C117
  8
5
 66
     1
 10
0.0
 20
0.0
 30
0.0
 70
     1
  0
VERTEX
  5
DE6A
  8
5
 10
147.0
 20
-10.0
 30
0.0
  0
VERTEX
  5
DE6B
  8
5
 10
333.00000000000023
 20
-10.0
 30
0.0
  0
VERTEX
  5
DE6C
  8
5
 10
333.00000000000023
 20
-100.0
 30
0.0
  0
VERTEX
  5
DE6D
  8
5
 10
147.0
 20
-100.0
 30
0.0
  0
SEQEND
  5
DE6E
  8
5
  0
TEXT
  5
C118
  8
0
 62
     3
 10
222.53999999999999
 20
-78.899999999999963
 30
0.0
 40
3.2000000000000002
  1
プレートの取付け穴
 72
     1
 11
239.5
 21
-78.899999999999963
 31
0.0
  0
TEXT
  5
C119
  8
0
 62
     3
 10
279.56666666666689
 20
-78.899999999999963
 30
0.0
 40
3.2000000000000002
  1
ベースの取付け穴
 72
     1
 11
294.50000000000023
 21
-78.899999999999963
 31
0.0
  0
TEXT
  5
C11A
  8
0
 62
     3
 10
163.28399999999999
 20
-85.899999999999977
 30
0.0
 40
3.2000000000000002
  1
Installed condition
 41
0.85
 72
     1
 11
184.5
 21
-85.899999999999977
 31
0.0
  0
TEXT
  5
C11B
  8
0
 62
     3
 10
220.7773333333333
 20
-85.899999999999977
 30
0.0
 40
3.2000000000000002
  1
Installation hole
 41
0.85
 72
     1
 11
239.5
 21
-85.899999999999977
 31
0.0
  0
TEXT
  5
C11C
  8
0
 62
     3
 10
275.77733333333362
 20
-85.899999999999977
 30
0.0
 40
3.2000000000000002
  1
Installation hole
 41
0.85
 72
     1
 11
294.50000000000023
 21
-85.899999999999977
 31
0.0
  0
TEXT
  5
C11D
  8
0
 62
     3
 10
224.0413333333334
 20
-90.899999999999977
 30
0.0
 40
3.2000000000000002
  1
for sub plate
 41
0.85
 72
     1
 11
239.5
 21
-90.899999999999977
 31
0.0
  0
TEXT
  5
C11E
  8
0
 62
     3
 10
277.68133333333361
 20
-90.899999999999977
 30
0.0
 40
3.2000000000000002
  1
for base plate
 41
0.85
 72
     1
 11
294.50000000000023
 21
-90.899999999999977
 31
0.0
  0
LINE
  5
C12F
  8
0
 10
177.54150000000021
 20
-61.97308392892235
 30
0.0
 11
178.52075000000019
 21
-60.993833928922342
 31
0.0
  0
LINE
  5
C130
  8
0
 10
177.54150000000021
 20
-53.973083928922321
 30
0.0
 11
178.5000000000002
 21
-54.931583928922329
 31
0.0
  0
LINE
  5
C131
  8
0
 10
191.45850000000021
 20
-61.97308392892235
 30
0.0
 11
190.47925000000021
 21
-60.993833928922363
 31
0.0
  0
LINE
  5
C132
  8
0
 10
191.45850000000021
 20
-53.973083928922321
 30
0.0
 11
190.5000000000002
 21
-54.931583928922329
 31
0.0
  0
LINE
  5
D39C
  8
0
 10
55.502192746847889
 20
132.63338792324069
 30
0.0
 11
55.502192746847889
 21
130.0333886146546
 31
0.0
  0
LINE
  5
D39D
  8
0
 10
67.502192851156025
 20
130.0333886146546
 30
0.0
 11
67.502192851156025
 21
132.63338792324069
 31
0.0
  0
LINE
  5
D39E
  8
0
 10
55.502192746847889
 20
130.0333886146546
 30
0.0
 11
55.702192872762708
 21
129.8333870917559
 31
0.0
  0
LINE
  5
D39F
  8
0
 10
67.302192725241213
 20
129.8333870917559
 30
0.0
 11
67.502192851156025
 21
130.0333886146546
 31
0.0
  0
LINE
  5
D3A0
  8
0
 10
67.502192851156025
 20
132.63338792324069
 30
0.0
 11
67.302192725241213
 21
132.83338758349419
 31
0.0
  0
LINE
  5
D3A1
  8
0
 10
55.702192872762708
 20
132.83338758349419
 30
0.0
 11
55.502192746847889
 21
132.63338792324069
 31
0.0
  0
LINE
  5
D3A2
  8
0
 10
70.999999694526224
 20
115.5447127502412
 30
0.0
 11
70.499999612569823
 21
115.8333880566061
 31
0.0
  0
LINE
  5
D3A3
  8
0
 10
52.500000387430219
 20
115.8333880566061
 30
0.0
 11
52.000000305473833
 21
115.5447127502412
 31
0.0
  0
LINE
  5
D3A4
  8
0
 10
58.249999932944803
 20
148.7869786769152
 30
0.0
 11
58.249999932944803
 21
144.33338667452341
 31
0.0
  0
LINE
  5
D3A5
  8
0
 10
64.750000067055254
 20
144.33338667452341
 30
0.0
 11
64.750000067055254
 21
148.7869786769152
 31
0.0
  0
ARC
  5
D3A6
  8
0
 10
64.250000000000028
 20
148.78697770510249
 30
0.0
 40
0.5
 50
0.0
 51
89.999999999996746
  0
ARC
  5
D3A7
  8
0
 10
58.750000000000028
 20
148.78697770510249
 30
0.0
 40
0.5
 50
90.000000000003254
 51
180.0
  0
LINE
  5
D3A8
  8
0
 10
55.499999947845957
 20
109.8333877716214
 30
0.0
 11
56.000000029802351
 21
109.3333879224956
 31
0.0
  0
LINE
  5
D3A9
  8
0
 10
66.999999970197706
 20
109.3333879224956
 30
0.0
 11
67.500000052154093
 21
109.8333877716214
 31
0.0
  0
LINE
  5
D3AA
  8
0
 10
67.500000052154093
 20
109.8333877716214
 30
0.0
 11
67.500000052154093
 21
111.83338786661341
 31
0.0
  0
LINE
  5
D3AB
  8
0
 10
67.500000052154093
 20
115.8333880566061
 30
0.0
 11
67.500000052154093
 21
123.33338788896801
 31
0.0
  0
LINE
  5
D3AC
  8
0
 10
55.499999947845957
 20
123.33338788896801
 30
0.0
 11
55.499999947845957
 21
115.8333880566061
 31
0.0
  0
LINE
  5
D3AD
  8
0
 10
55.499999947845957
 20
111.83338786661911
 30
0.0
 11
55.499999947845957
 21
109.8333877716214
 31
0.0
  0
LINE
  5
D3AE
  8
0
 10
58.297187253832838
 20
109.3333879224956
 30
0.0
 11
58.219927759841113
 21
106.2822517678142
 31
0.0
  0
LINE
  5
D3AF
  8
0
 10
57.926308527588873
 20
104.56280305236579
 30
0.0
 11
58.434118913486628
 21
103.0494634732604
 31
0.0
  0
LINE
  5
D3B0
  8
0
 10
57.945723576471231
 20
105.3295446299017
 30
0.0
 11
57.926308527588873
 21
104.56280305236579
 31
0.0
  0
LINE
  5
D3B1
  8
0
 10
58.21180476434531
 20
106.2306769862771
 30
0.0
 11
57.945723576471231
 21
105.3295446299017
 31
0.0
  0
ARC
  5
D3B2
  8
0
 10
58.019991905529679
 20
106.2873145238637
 30
0.0
 40
0.1999999999999894
 50
343.549492614477
 51
358.54949261448252
  0
LINE
  5
D3B3
  8
0
 10
64.780072240158944
 20
106.2822517678142
 30
0.0
 11
64.702812746167211
 21
109.3333879224956
 31
0.0
  0
LINE
  5
D3B4
  8
0
 10
65.054276423528819
 20
105.3295446299017
 30
0.0
 11
64.78819523565474
 21
106.2306769862771
 31
0.0
  0
LINE
  5
D3B5
  8
0
 10
65.073691472411184
 20
104.56280305236579
 30
0.0
 11
65.054276423528819
 21
105.3295446299017
 31
0.0
  0
ARC
  5
D3B6
  8
0
 10
64.980008094472993
 20
106.28731452386459
 30
0.0
 40
0.2000000000000046
 50
181.4505073855353
 51
196.45050738553979
  0
LINE
  5
D3B7
  8
0
 10
64.565881086513428
 20
103.0494634732604
 30
0.0
 11
65.073691472411184
 21
104.56280305236579
 31
0.0
  0
ARC
  5
D3B8
  8
0
 10
72.500000000000028
 20
142.47600688796999
 30
0.0
 40
0.5
 50
0.0
 51
71.407177450567573
  0
ARC
  5
D3B9
  8
0
 10
50.500000000000057
 20
142.47600688796999
 30
0.0
 40
0.5
 50
108.59282254943579
 51
180.0
  0
LINE
  5
D3BA
  8
0
 10
73.00000002235177
 20
141.833387196064
 30
0.0
 11
73.00000002235177
 21
142.4760072231293
 31
0.0
  0
LINE
  5
D3BB
  8
0
 10
49.99999997764828
 20
142.4760072231293
 30
0.0
 11
49.99999997764828
 21
141.833387196064
 31
0.0
  0
ARC
  5
D3BC
  8
0
 10
72.500000000000028
 20
141.83338786661631
 30
0.0
 40
0.5
 50
270.00000000000648
 51
0.0
  0
ARC
  5
D3BD
  8
0
 10
50.500000000000028
 20
141.83338786661631
 30
0.0
 40
0.5
 50
180.0
 51
269.99999999999022
  0
ARC
  5
D3BE
  8
0
 10
61.500000000000028
 20
109.77661851448499
 30
0.0
 40
35.000000000000021
 50
99.128047323904624
 51
108.59282254942551
  0
ARC
  5
D3BF
  8
0
 10
61.500000000000028
 20
109.77661851448499
 30
0.0
 40
35.000000000000021
 50
71.407177450574451
 51
80.87195267609539
  0
ARC
  5
D3C0
  8
0
 10
69.500000000000014
 20
139.33338786661631
 30
0.0
 40
2.0
 50
89.999999999996746
 51
180.0
  0
ARC
  5
D3C1
  8
0
 10
53.500000000000028
 20
139.33338786661631
 30
0.0
 40
2.0
 50
0.0
 51
90.0
  0
LINE
  5
D3C2
  8
0
 10
67.500000052154093
 20
133.3333885967732
 30
0.0
 11
67.500000052154093
 21
139.33338771760469
 31
0.0
  0
LINE
  5
D3C3
  8
0
 10
55.499999947845957
 20
139.33338771760469
 30
0.0
 11
55.499999947845957
 21
133.3333885967732
 31
0.0
  0
LINE
  5
D3C4
  8
0
 10
55.499999947845957
 20
133.3333885967732
 30
0.0
 11
56.000000029802351
 21
132.83338758349419
 31
0.0
  0
LINE
  5
D3C5
  8
0
 10
66.999999970197706
 20
132.83338758349419
 30
0.0
 11
67.500000052154093
 21
133.3333885967732
 31
0.0
  0
LINE
  5
D3C9
  8
0
 10
56.50000011175873
 20
129.8333870917559
 30
0.0
 11
55.702192872762708
 21
129.8333870917559
 31
0.0
  0
LINE
  5
D3CA
  8
0
 10
55.702192872762708
 20
132.83338758349419
 30
0.0
 11
67.302192725241213
 21
132.83338758349419
 31
0.0
  0
LINE
  5
D3CD
  8
0
 10
61.500000000001393
 20
114.6962068714202
 30
0.0
 11
61.500000000000028
 21
111.83338786661631
 31
0.0
  0
ARC
  5
D3CE
  8
0
 10
66.249999847263808
 20
101.57314547383309
 30
0.0
 40
13.956261641063939
 50
70.101860871956873
 51
109.8981391280431
  0
LINE
  5
D3CF
  8
0
 10
70.999999694526224
 20
111.8333878666118
 30
0.0
 11
70.999999694526224
 21
115.54374650307
 31
0.0
  0
ARC
  5
D3D0
  8
0
 10
56.750000152737641
 20
101.57314501549951
 30
0.0
 40
13.95626207203509
 50
70.10186151236212
 51
109.89813848763779
  0
LINE
  5
D3D1
  8
0
 10
52.000000305473797
 20
111.8333878666208
 30
0.0
 11
52.000000305473833
 21
115.54418329335751
 31
0.0
  0
LINE
  5
D3D2
  8
0
 10
52.500000387430219
 20
115.8333880566061
 30
0.0
 11
70.499999612569823
 21
115.8333880566061
 31
0.0
  0
LINE
  5
D3D3
  8
0
 10
52.000000305473833
 20
111.8333878666208
 30
0.0
 11
70.999999694526252
 21
111.8333878666118
 31
0.0
  0
LINE
  5
D3D5
  8
0
 10
58.75000001490119
 20
149.28697596490389
 30
0.0
 11
64.249999985098853
 21
149.28697596490389
 31
0.0
  0
LINE
  5
D3D6
  8
0
 10
55.499999947845957
 20
109.8333877716214
 30
0.0
 11
67.500000052154093
 21
109.8333877716214
 31
0.0
  0
LINE
  5
D3D7
  8
0
 10
66.999999970197706
 20
109.3333879224956
 30
0.0
 11
56.000000029802351
 21
109.3333879224956
 31
0.0
  0
LINE
  5
D3D8
  8
0
 10
66.499999888241319
 20
129.6333874315024
 30
0.0
 11
56.50000011175873
 21
129.6333874315024
 31
0.0
  0
LINE
  5
D3D9
  8
0
 10
56.50000011175873
 20
129.6333874315024
 30
0.0
 11
56.50000011175873
 21
129.8333870917559
 31
0.0
  0
LINE
  5
D3DA
  8
0
 10
56.50000011175873
 20
129.8333870917559
 30
0.0
 11
67.302192725241213
 21
129.8333870917559
 31
0.0
  0
LINE
  5
D3DB
  8
0
 10
66.499999888241319
 20
129.8333870917559
 30
0.0
 11
66.499999888241319
 21
129.6333874315024
 31
0.0
  0
LINE
  5
D3DD
  8
0
 10
56.50000011175873
 20
129.6333874315024
 30
0.0
 11
56.50000011175873
 21
124.33338805288081
 31
0.0
  0
LINE
  5
D3DE
  8
0
 10
66.499999888241319
 20
124.33338805288081
 30
0.0
 11
66.499999888241319
 21
129.6333874315024
 31
0.0
  0
LINE
  5
D3E0
  8
0
 10
60.415061354637167
 20
104.08697777614
 30
0.0
 11
62.584938645362882
 21
104.08697777614
 31
0.0
  0
LINE
  5
D3E1
  8
0
 10
62.597599510103493
 20
103.5869781598449
 30
0.0
 11
60.402400489896557
 21
103.5869781598449
 31
0.0
  0
LINE
  5
D3E2
  8
0
 10
60.427722102962463
 20
104.5869778580964
 30
0.0
 11
62.572277897037587
 21
104.5869778580964
 31
0.0
  0
LINE
  5
D3E3
  8
0
 10
60.503686709329507
 20
107.58697788417339
 30
0.0
 11
62.496313290670543
 21
107.58697788417339
 31
0.0
  0
LINE
  5
D3E4
  8
0
 10
60.531647806987188
 20
108.6912188883871
 30
0.0
 11
62.468352193012862
 21
108.6912188883871
 31
0.0
  0
LINE
  5
D3E5
  8
0
 10
59.813180985860548
 20
106.24190827086569
 30
0.0
 11
59.891462024301319
 21
109.3333879224956
 31
0.0
  0
POLYLINE
  5
D3E6
  8
0
 66
     1
 10
0.0
 20
0.0
 30
0.0
 70
   128
  0
VERTEX
  5
DE6F
  8
0
 10
57.926308527588873
 20
104.56280305236579
 30
0.0
  0
VERTEX
  5
DE70
  8
0
 10
57.935041772201679
 20
104.56258186325439
 30
0.0
  0
VERTEX
  5
DE71
  8
0
 10
58.004626469686649
 20
104.56081980094319
 30
0.0
  0
VERTEX
  5
DE72
  8
0
 10
58.142301790416269
 20
104.55733339488511
 30
0.0
  0
VERTEX
  5
DE73
  8
0
 10
58.345110552385471
 20
104.5521980822087
 30
0.0
  0
VERTEX
  5
DE74
  8
0
 10
58.608697658404729
 20
104.54552375897769
 30
0.0
  0
VERTEX
  5
DE75
  8
0
 10
58.927402762696168
 20
104.53745384886859
 30
0.0
  0
VERTEX
  5
DE76
  8
0
 10
59.294381342828302
 20
104.5281611122191
 30
0.0
  0
SEQEND
  5
DE77
  8
0
  0
ARC
  5
D3E7
  8
0
 10
63.612700368443967
 20
106.805611281761
 30
0.0
 40
4.8820752228679041
 50
207.80683958951261
 51
228.707734900427
  0
LINE
  5
D3E8
  8
0
 10
60.391017748974292
 20
103.13744831085209
 30
0.0
 11
60.387537396512947
 21
103.0
 31
0.0
  0
POLYLINE
  5
D3E9
  8
0
 66
     1
 10
0.0
 20
0.0
 30
0.0
 70
   128
  0
VERTEX
  5
DE78
  8
0
 10
60.387537396512947
 20
103.0
 30
0.0
  0
VERTEX
  5
DE79
  8
0
 10
59.980367357842653
 20
103.01030974090099
 30
0.0
  0
VERTEX
  5
DE7A
  8
0
 10
59.603202437050669
 20
103.0198604539037
 30
0.0
  0
VERTEX
  5
DE7B
  8
0
 10
59.265824664384148
 20
103.02840347588069
 30
0.0
  0
VERTEX
  5
DE7C
  8
0
 10
58.976983815431623
 20
103.03571715205911
 30
0.0
  0
VERTEX
  5
DE7D
  8
0
 10
58.744171099737308
 20
103.04161242395639
 30
0.0
  0
VERTEX
  5
DE7E
  8
0
 10
58.573424514383099
 20
103.0459365546704
 30
0.0
  0
VERTEX
  5
DE7F
  8
0
 10
58.469172498211293
 20
103.04857592284679
 30
0.0
  0
VERTEX
  5
DE80
  8
0
 10
58.434118913486628
 20
103.0494634732604
 30
0.0
  0
SEQEND
  5
DE81
  8
0
  0
LINE
  5
D3EA
  8
0
 10
59.294381342828302
 20
104.5281611122191
 30
0.0
 11
59.31379639171066
 21
105.29490268975501
 31
0.0
  0
POLYLINE
  5
D3EB
  8
0
 66
     1
 10
0.0
 20
0.0
 30
0.0
 70
   128
  0
VERTEX
  5
DE82
  8
0
 10
57.945723576471231
 20
105.3295446299017
 30
0.0
  0
VERTEX
  5
DE83
  8
0
 10
57.954456821084051
 20
105.3293234407902
 30
0.0
  0
VERTEX
  5
DE84
  8
0
 10
58.024041751399658
 20
105.327561378479
 30
0.0
  0
VERTEX
  5
DE85
  8
0
 10
58.161716839298627
 20
105.324074972421
 30
0.0
  0
VERTEX
  5
DE86
  8
0
 10
58.364525601267843
 20
105.3189396597445
 30
0.0
  0
VERTEX
  5
DE87
  8
0
 10
58.628112940117738
 20
105.3122653365136
 30
0.0
  0
VERTEX
  5
DE88
  8
0
 10
58.946817811578541
 20
105.3041949607432
 30
0.0
  0
VERTEX
  5
DE89
  8
0
 10
59.31379639171066
 20
105.29490268975501
 30
0.0
  0
SEQEND
  5
DE8A
  8
0
  0
POLYLINE
  5
D3EC
  8
0
 66
     1
 10
0.0
 20
0.0
 30
0.0
 70
   128
  0
VERTEX
  5
DE8B
  8
0
 10
59.31379639171066
 20
105.29490268975501
 30
0.0
  0
VERTEX
  5
DE8C
  8
0
 10
59.415347339585452
 20
105.4970676749945
 30
0.0
  0
VERTEX
  5
DE8D
  8
0
 10
59.797394951805501
 20
106.1905276700855
 30
0.0
  0
SEQEND
  5
DE8E
  8
0
  0
ARC
  5
D3ED
  8
0
 10
59.70981195723656
 20
106.2455517569167
 30
0.0
 40
0.1034332203369854
 50
327.8608745323105
 51
357.98131036697401
  0
LINE
  5
D3EE
  8
0
 10
60.54790846630933
 20
109.3333879224956
 30
0.0
 11
60.391017748974292
 21
103.13744831085209
 31
0.0
  0
LINE
  5
D3EF
  8
0
 10
63.108537975698731
 20
109.3333879224956
 30
0.0
 11
63.186819014139502
 21
106.24190827086569
 31
0.0
  0
POLYLINE
  5
D3F0
  8
0
 66
     1
 10
0.0
 20
0.0
 30
0.0
 70
   128
  0
VERTEX
  5
DE8F
  8
0
 10
63.686203608289389
 20
105.29490268975501
 30
0.0
  0
VERTEX
  5
DE90
  8
0
 10
64.053182188421516
 20
105.3041949607432
 30
0.0
  0
VERTEX
  5
DE91
  8
0
 10
64.371887059882312
 20
105.3122653365136
 30
0.0
  0
VERTEX
  5
DE92
  8
0
 10
64.635474398732214
 20
105.3189396597445
 30
0.0
  0
VERTEX
  5
DE93
  8
0
 10
64.838283160701423
 20
105.324074972421
 30
0.0
  0
VERTEX
  5
DE94
  8
0
 10
64.975958248600392
 20
105.327561378479
 30
0.0
  0
VERTEX
  5
DE95
  8
0
 10
65.045543178916006
 20
105.3293234407902
 30
0.0
  0
VERTEX
  5
DE96
  8
0
 10
65.054276423528819
 20
105.3295446299017
 30
0.0
  0
SEQEND
  5
DE97
  8
0
  0
LINE
  5
D3F1
  8
0
 10
63.202605048194549
 20
106.1905276700855
 30
0.0
 11
63.686203608289389
 21
105.29490268975501
 31
0.0
  0
POLYLINE
  5
D3F2
  8
0
 66
     1
 10
0.0
 20
0.0
 30
0.0
 70
   128
  0
VERTEX
  5
DE98
  8
0
 10
63.705618657171748
 20
104.5281611122191
 30
0.0
  0
VERTEX
  5
DE99
  8
0
 10
64.072597237303881
 20
104.53745384886859
 30
0.0
  0
VERTEX
  5
DE9A
  8
0
 10
64.391302341595321
 20
104.54552375897769
 30
0.0
  0
VERTEX
  5
DE9B
  8
0
 10
64.654889447614579
 20
104.5521980822087
 30
0.0
  0
VERTEX
  5
DE9C
  8
0
 10
64.857698442414431
 20
104.55733339488511
 30
0.0
  0
VERTEX
  5
DE9D
  8
0
 10
64.995373530313401
 20
104.56081980094319
 30
0.0
  0
VERTEX
  5
DE9E
  8
0
 10
65.064958227798371
 20
104.56258186325439
 30
0.0
  0
VERTEX
  5
DE9F
  8
0
 10
65.073691472411184
 20
104.56280305236579
 30
0.0
  0
SEQEND
  5
DEA0
  8
0
  0
LINE
  5
D3F3
  8
0
 10
63.686203608289389
 20
105.29490268975501
 30
0.0
 11
63.705618657171748
 21
104.5281611122191
 31
0.0
  0
POLYLINE
  5
D3F4
  8
0
 66
     1
 10
0.0
 20
0.0
 30
0.0
 70
   128
  0
VERTEX
  5
DEA1
  8
0
 10
63.186819014139502
 20
106.24190827086569
 30
0.0
  0
VERTEX
  5
DEA2
  8
0
 10
63.19169169384989
 20
106.21412086486821
 30
0.0
  0
VERTEX
  5
DEA3
  8
0
 10
63.202605048194549
 20
106.1905276700855
 30
0.0
  0
SEQEND
  5
DEA4
  8
0
  0
ARC
  5
D3F5
  8
0
 10
59.491168579511189
 20
106.7237061826755
 30
0.0
 40
4.7520529893403163
 50
311.00297797454039
 51
332.48244753552319
  0
LINE
  5
D3F6
  8
0
 10
62.608982251025758
 20
103.13744831085209
 30
0.0
 11
62.452091533690719
 21
109.3333879224956
 31
0.0
  0
POLYLINE
  5
D3F7
  8
0
 66
     1
 10
0.0
 20
0.0
 30
0.0
 70
   128
  0
VERTEX
  5
DEA5
  8
0
 10
64.565881086513428
 20
103.0494634732604
 30
0.0
  0
VERTEX
  5
DEA6
  8
0
 10
64.530827501788764
 20
103.04857592284679
 30
0.0
  0
VERTEX
  5
DEA7
  8
0
 10
64.426575485616951
 20
103.0459365546704
 30
0.0
  0
VERTEX
  5
DEA8
  8
0
 10
64.255828900262742
 20
103.04161242395639
 30
0.0
  0
VERTEX
  5
DEA9
  8
0
 10
64.023016184568434
 20
103.03571715205911
 30
0.0
  0
VERTEX
  5
DEAA
  8
0
 10
63.734175335615902
 20
103.02840347588069
 30
0.0
  0
VERTEX
  5
DEAB
  8
0
 10
63.396797562949381
 20
103.0198604539037
 30
0.0
  0
VERTEX
  5
DEAC
  8
0
 10
63.019632642157397
 20
103.01030974090099
 30
0.0
  0
VERTEX
  5
DEAD
  8
0
 10
62.612462603487103
 20
103.0
 30
0.0
  0
SEQEND
  5
DEAE
  8
0
  0
LINE
  5
D3F8
  8
0
 10
62.612462603487103
 20
103.0
 30
0.0
 11
62.608982251025758
 21
103.13744831085209
 31
0.0
  0
LINE
  5
D3F9
  8
0
 10
72.500422863930055
 20
141.33338804543021
 30
0.0
 11
50.500000059604673
 21
141.33338804543021
 31
0.0
  0
LINE
  5
D3FB
  8
0
 10
67.052456603464904
 20
144.33338667452341
 30
0.0
 11
55.947550736367731
 21
144.33338667452341
 31
0.0
  0
ARC
  5
D3FD
  8
0
 10
61.500000000000028
 20
130.83338786661631
 30
0.0
 40
5.9999999999999751
 50
56.442690238077923
 51
123.5573097619191
  0
LINE
  5
D3FE
  8
0
 10
58.183375211432597
 20
135.83338807523251
 30
0.0
 11
58.183375211432597
 21
133.3333885967732
 31
0.0
  0
LINE
  5
D3FF
  8
0
 10
64.816624788567452
 20
133.3333885967732
 30
0.0
 11
67.500000052154093
 21
133.3333885967732
 31
0.0
  0
LINE
  5
D400
  8
0
 10
55.499999947845957
 20
133.3333885967732
 30
0.0
 11
58.183375211432597
 21
133.3333885967732
 31
0.0
  0
LINE
  5
D401
  8
0
 10
64.816624788567452
 20
133.3333885967732
 30
0.0
 11
64.816624788567452
 21
135.83338807523251
 31
0.0
  0
LINE
  5
D402
  8
0
 10
58.183375211432597
 20
135.83338807523251
 30
0.0
 11
64.816624788567452
 21
135.83338807523251
 31
0.0
  0
LINE
  5
D403
  8
0
 10
63.791287761181621
 20
132.83338758349419
 30
0.0
 11
64.816624788567452
 21
133.3333885967732
 31
0.0
  0
LINE
  5
D404
  8
0
 10
58.183375211432597
 20
133.3333885967732
 30
0.0
 11
59.208712238818428
 21
132.83338758349419
 31
0.0
  0
LINE
  5
D40D
  8
0
 10
50.340579986572287
 20
142.94991071522239
 30
0.0
 11
72.659421336450094
 21
142.94991071522239
 31
0.0
  0
LINE
  5
D410
  8
0
 10
67.500000000000028
 20
139.33338771760469
 30
0.0
 11
55.499999947845957
 21
139.33338771760469
 31
0.0
  0
LINE
  5
D412
  8
3
 10
58.183375209644652
 20
135.83338786661619
 30
0.0
 11
64.816624790355462
 21
133.33338786661619
 31
0.0
  0
LINE
  5
D413
  8
3
 10
64.816624790355462
 20
135.83338786661619
 30
0.0
 11
58.183375209644652
 21
133.33338786661619
 31
0.0
  0
LINE
  5
D430
  8
1
 10
61.500000000000028
 20
100.0
 30
0.0
 11
61.500000000000028
 21
152.2869759649038
 31
0.0
  0
ARC
  5
D4AD
  8
0
 10
61.500000000000028
 20
190.78697651300971
 30
0.0
 40
3.700000000000006
 50
98.806287726425268
 51
81.189808672153006
  0
LINE
  5
D4AE
  8
0
 10
62.06715600658211
 20
194.44866423171399
 30
0.0
 11
62.06715600658211
 21
194.83278706346101
 31
0.0
  0
LINE
  5
D4AF
  8
0
 10
60.93284399341794
 20
194.8165489887113
 30
0.0
 11
60.93284399341794
 21
194.44411774773539
 31
0.0
  0
CIRCLE
  5
D4B0
  8
0
 10
61.500000000000028
 20
190.78697651303349
 30
0.0
 40
3.25
  0
POLYLINE
  5
D4B1
  8
0
 66
     1
 10
0.0
 20
0.0
 30
0.0
 70
   128
  0
VERTEX
  5
DEAF
  8
0
 10
61.500000000000028
 20
194.6869764072114
 30
0.0
  0
VERTEX
  5
DEB0
  8
0
 10
61.001279089599869
 20
194.65495753709621
 30
0.0
  0
VERTEX
  5
DEB1
  8
0
 10
60.928793031256667
 20
194.64491927672569
 30
0.0
  0
SEQEND
  5
DEB2
  8
0
  0
POLYLINE
  5
D4B2
  8
0
 66
     1
 10
0.0
 20
0.0
 30
0.0
 70
   128
  0
VERTEX
  5
DEB3
  8
0
 10
62.069020106922864
 20
194.64524244565911
 30
0.0
  0
VERTEX
  5
DEB4
  8
0
 10
61.998720910400181
 20
194.65495753709621
 30
0.0
  0
VERTEX
  5
DEB5
  8
0
 10
61.500000000000028
 20
194.6869764072114
 30
0.0
  0
SEQEND
  5
DEB6
  8
0
  0
CIRCLE
  5
D4B5
  8
0
 10
61.500000000000028
 20
190.78697651300971
 30
0.0
 40
4.0999999999999943
  0
CIRCLE
  5
D4B6
  8
0
 10
61.500000000000028
 20
190.78697651300971
 30
0.0
 40
11.50000000000003
  0
CIRCLE
  5
D4B8
  8
0
 10
61.500000000000028
 20
190.78697651300971
 30
0.0
 40
11.15942028985509
  0
LINE
  5
D672
  8
0
 10
61.500000000000028
 20
50.53034488539712
 30
0.0
 11
52.000000000000021
 21
56.015172442698571
 31
0.0
  0
LINE
  5
D673
  8
0
 10
52.000000000000021
 20
56.015172442698571
 30
0.0
 11
52.000000000000021
 21
66.984827557301486
 31
0.0
  0
LINE
  5
D674
  8
0
 10
52.000000000000021
 20
66.984827557301486
 30
0.0
 11
61.500000000000028
 21
72.469655114602887
 31
0.0
  0
LINE
  5
D675
  8
0
 10
61.500000000000028
 20
72.469655114602887
 30
0.0
 11
71.000000000000028
 21
66.984827557301486
 31
0.0
  0
LINE
  5
D676
  8
0
 10
71.000000000000028
 20
66.984827557301486
 30
0.0
 11
71.000000000000028
 21
56.015172442698571
 31
0.0
  0
LINE
  5
D678
  8
0
 10
71.000000000000028
 20
56.015172442698571
 30
0.0
 11
61.500000000000028
 21
50.53034488539712
 31
0.0
  0
CIRCLE
  5
D679
  8
3
 10
61.500000000000028
 20
61.500000000000028
 30
0.0
 40
5.5
  0
ARC
  5
D67A
  8
0
 10
61.500000000000028
 20
61.500000000000028
 30
0.0
 40
3.499999999999988
 50
37.773281380511527
 51
142.2267186180851
  0
ARC
  5
D67B
  8
0
 10
61.500000000000028
 20
61.500000000000028
 30
0.0
 40
3.5000000000000009
 50
217.7732813779769
 51
322.22671861948839
  0
CIRCLE
  5
D67C
  8
0
 10
61.500000000000028
 20
61.500000000000028
 30
0.0
 40
6.0
  0
ARC
  5
D67D
  8
0
 10
61.500000000000028
 20
61.500000000005031
 30
0.0
 40
2.4000000000000048
 50
62.38512459296598
 51
117.614875404977
  0
CIRCLE
  5
D67E
  8
0
 10
61.500000000000028
 20
61.500000000005308
 30
0.0
 40
1.900000000000019
  0
LINE
  5
D67F
  8
0
 10
60.387537360195971
 20
64.097952551880979
 30
0.0
 11
60.387537360177618
 21
63.563738356650191
 31
0.0
  0
LINE
  5
D680
  8
0
 10
60.391017769476001
 20
64.150000000038133
 30
0.0
 11
60.387537360195971
 21
64.097952551880979
 31
0.0
  0
LINE
  5
D681
  8
0
 10
60.702586998829389
 20
64.150000000027461
 30
0.0
 11
60.391017769476001
 21
64.150000000038133
 31
0.0
  0
LINE
  5
D682
  8
0
 10
60.702586998829389
 20
64.150000000027461
 30
0.0
 11
60.702586998816088
 21
63.763654678957352
 31
0.0
  0
ARC
  5
D683
  8
0
 10
61.176821306705648
 20
61.500000000011063
 30
0.0
 40
3.2505507831055538
 50
125.3882619891186
 51
234.6117380069424
  0
LINE
  5
D684
  8
0
 10
59.29438129618606
 20
64.150000000075835
 30
0.0
 11
60.391017769476001
 21
64.150000000038133
 31
0.0
  0
ARC
  5
D685
  8
0
 10
61.138287986218209
 20
61.500000000012477
 30
0.0
 40
2.704252940135802
 50
106.118120219471
 51
253.88187977659291
  0
LINE
  5
D686
  8
0
 10
60.387537360017369
 20
58.902047448195532
 30
0.0
 11
60.391017769293882
 21
58.850000000038129
 31
0.0
  0
LINE
  5
D687
  8
0
 10
60.391017769293882
 20
58.850000000038129
 30
0.0
 11
59.294381296003763
 21
58.850000000075831
 31
0.0
  0
ARC
  5
D688
  8
0
 10
61.138131279145817
 20
61.500000000012477
 30
0.0
 40
2.195998004518668
 50
109.9866277982114
 51
250.01337219785171
  0
LINE
  5
D689
  8
0
 10
60.387537360035743
 20
59.43626164342632
 30
0.0
 11
60.387537360017369
 21
58.902047448195532
 31
0.0
  0
LINE
  5
D68B
  8
0
 10
60.70258699866045
 20
59.23634532110745
 30
0.0
 11
60.702586998647199
 21
58.85000000002745
 31
0.0
  0
LINE
  5
D68C
  8
0
 10
60.391017769293882
 20
58.850000000038129
 30
0.0
 11
60.702586998647199
 21
58.85000000002745
 31
0.0
  0
LINE
  5
D68D
  8
0
 10
62.612462639896613
 20
58.902047448157269
 30
0.0
 11
62.612462639896613
 21
59.436261643388058
 31
0.0
  0
LINE
  5
D68E
  8
0
 10
62.608982230618288
 20
58.849999999999987
 30
0.0
 11
62.612462639896613
 21
58.902047448157269
 31
0.0
  0
LINE
  5
D68F
  8
0
 10
62.297413001262179
 20
58.849999999999987
 30
0.0
 11
62.608982230618288
 21
58.849999999999987
 31
0.0
  0
LINE
  5
D690
  8
0
 10
62.297413001262179
 20
58.849999999999987
 30
0.0
 11
62.297413001262179
 21
59.236345321080222
 31
0.0
  0
ARC
  5
D691
  8
0
 10
61.861868720857409
 20
61.500000000000028
 30
0.0
 40
2.1959980045186689
 50
289.98662780017992
 51
70.013372199820154
  0
LINE
  5
D692
  8
0
 10
62.612462639896613
 20
63.563738356611942
 30
0.0
 11
62.612462639896613
 21
64.097952551842781
 31
0.0
  0
LINE
  5
D694
  8
0
 10
62.297413001262179
 20
63.763654678929782
 30
0.0
 11
62.297413001262179
 21
64.150000000000006
 31
0.0
  0
LINE
  5
D695
  8
0
 10
62.608982230618288
 20
64.150000000000006
 30
0.0
 11
62.297413001262179
 21
64.150000000000006
 31
0.0
  0
ARC
  5
D696
  8
0
 10
61.823178693297358
 20
61.500000000000092
 30
0.0
 40
3.2505507831055742
 50
305.38826199108809
 51
54.611738008911857
  0
LINE
  5
D697
  8
0
 10
63.705618703907959
 20
58.849999999999987
 30
0.0
 11
62.608982230618288
 21
58.849999999999987
 31
0.0
  0
ARC
  5
D698
  8
0
 10
61.861712013785031
 20
61.500000000000028
 30
0.0
 40
2.7042529401357829
 50
286.11812022144068
 51
73.881879778559238
  0
LINE
  5
D699
  8
0
 10
62.612462639896613
 20
64.097952551842781
 30
0.0
 11
62.608982230618288
 21
64.150000000000006
 31
0.0
  0
LINE
  5
D69A
  8
0
 10
62.608982230618288
 20
64.150000000000006
 30
0.0
 11
63.705618703908073
 21
64.150000000000006
 31
0.0
  0
ARC
  5
D69B
  8
0
 10
61.497662069819313
 20
61.60112923031042
 30
0.0
 40
2.901937754698376
 50
61.442050451699522
 51
118.5579495463241
  0
ARC
  5
D69C
  8
0
 10
61.505148032892777
 20
61.349234823521471
 30
0.0
 40
2.8626224254308821
 50
240.81594312131699
 51
299.18405687672077
  0
CIRCLE
  5
D69D
  8
0
 10
61.500000000000028
 20
61.500000000000028
 30
0.0
 40
11.00000000000003
  0
CIRCLE
  5
D69E
  8
0
 10
61.500000000000028
 20
61.500000000000028
 30
0.0
 40
11.50000000000003
  0
LINE
  5
D6A2
  8
0
 10
105.96965480217681
 20
130.03338612641761
 30
0.0
 11
106.16965480217669
 21
129.83338612641771
 31
0.0
  0
LINE
  5
D6A3
  8
0
 10
117.7696548021767
 20
129.83338612641771
 30
0.0
 11
117.96965480217681
 21
130.03338612641761
 31
0.0
  0
LINE
  5
D6A4
  8
0
 10
105.96965480217681
 20
132.63338612641769
 30
0.0
 11
105.96965480217681
 21
130.03338612641761
 31
0.0
  0
LINE
  5
D6A5
  8
0
 10
117.96965480217681
 20
130.03338612641761
 30
0.0
 11
117.96965480217681
 21
132.63338612641769
 31
0.0
  0
LINE
  5
D6A6
  8
0
 10
117.96965480217681
 20
132.63338612641769
 30
0.0
 11
117.7696548021767
 21
132.83338612641771
 31
0.0
  0
LINE
  5
D6A7
  8
0
 10
106.16965480217669
 20
132.83338612641771
 30
0.0
 11
105.96965480217681
 21
132.63338612641769
 31
0.0
  0
LINE
  5
D6A8
  8
0
 10
122.93930991677961
 20
114.696205215791
 30
0.0
 11
120.96965480217671
 21
115.83338612641769
 31
0.0
  0
LINE
  5
D6A9
  8
0
 10
102.96965480217681
 20
115.83338612641769
 30
0.0
 11
100.9999996875738
 21
114.696205215791
 31
0.0
  0
LINE
  5
D6AA
  8
0
 10
108.71965480220059
 20
148.78697596490599
 30
0.0
 11
108.7196548021977
 21
144.33338612641771
 31
0.0
  0
LINE
  5
D6AB
  8
0
 10
115.2196548021977
 20
144.33338612641771
 30
0.0
 11
115.21965480220059
 21
148.78697596490181
 31
0.0
  0
ARC
  5
D6AC
  8
0
 10
114.71965480220059
 20
148.7869759649021
 30
0.0
 40
0.5
 50
359.99999999996419
 51
89.99999999996092
  0
ARC
  5
D6AD
  8
0
 10
109.21965480220059
 20
148.78697596490559
 30
0.0
 40
0.5
 50
89.999999999967429
 51
179.99999999996251
  0
LINE
  5
D6AE
  8
0
 10
105.96965480217681
 20
109.83338612641769
 30
0.0
 11
106.46965480217681
 21
109.33338612641759
 31
0.0
  0
LINE
  5
D6AF
  8
0
 10
117.46965480217671
 20
109.33338612641759
 30
0.0
 11
117.96965480217681
 21
109.83338612641769
 31
0.0
  0
LINE
  5
D6B0
  8
0
 10
117.96965480217681
 20
109.83338612641769
 30
0.0
 11
117.96965480217681
 21
111.8333861264136
 31
0.0
  0
LINE
  5
D6B1
  8
0
 10
117.96965480217681
 20
115.83338612641469
 30
0.0
 11
117.96965480217681
 21
129.63338612641749
 31
0.0
  0
LINE
  5
D6B2
  8
0
 10
105.96965480217681
 20
129.63338612641749
 30
0.0
 11
105.96965480217681
 21
115.83338612641469
 31
0.0
  0
LINE
  5
D6B3
  8
0
 10
105.96965480217681
 20
111.8333861264136
 30
0.0
 11
105.96965480217681
 21
109.83338612641769
 31
0.0
  0
LINE
  5
D6B4
  8
0
 10
117.96965480217681
 20
129.63338612641749
 30
0.0
 11
117.7696548021767
 21
129.83338612641751
 31
0.0
  0
LINE
  5
D6B5
  8
0
 10
106.16965480217669
 20
129.83338612641751
 30
0.0
 11
105.96965480217681
 21
129.63338612641749
 31
0.0
  0
ARC
  5
D6B6
  8
0
 10
122.96965480217681
 20
141.83338612641759
 30
0.0
 40
0.5
 50
270.00000000001631
 51
0.0
  0
ARC
  5
D6B7
  8
0
 10
100.96965480217681
 20
141.83338612641759
 30
0.0
 40
0.5
 50
180.0
 51
269.99999999998039
  0
LINE
  5
D6B8
  8
0
 10
123.46965480217681
 20
141.83338612641759
 30
0.0
 11
123.46965480217681
 21
142.47600514777139
 31
0.0
  0
LINE
  5
D6B9
  8
0
 10
100.46965480217681
 20
142.47600514777139
 30
0.0
 11
100.46965480217681
 21
141.83338612641759
 31
0.0
  0
ARC
  5
D6BA
  8
0
 10
122.96965480217681
 20
142.47600514777139
 30
0.0
 40
0.5
 50
0.0
 51
71.407177450557271
  0
ARC
  5
D6BB
  8
0
 10
100.96965480217681
 20
142.47600514777139
 30
0.0
 40
0.5
 50
108.5928225494462
 51
180.0
  0
ARC
  5
D6BC
  8
0
 10
111.96965480217681
 20
109.7766167742864
 30
0.0
 40
35.000000000000021
 50
99.128047323904624
 51
108.59282254942551
  0
ARC
  5
D6BD
  8
0
 10
111.96965480217681
 20
109.7766167742864
 30
0.0
 40
35.000000000000021
 50
71.407177450574451
 51
80.87195267609539
  0
ARC
  5
D6BE
  8
0
 10
119.96965480217671
 20
139.33338612641771
 30
0.0
 40
2.0
 50
89.999999999996746
 51
180.0
  0
ARC
  5
D6BF
  8
0
 10
103.96965480217671
 20
139.33338612641771
 30
0.0
 40
2.0000000000000142
 50
0.0
 51
90.0
  0
LINE
  5
D6C0
  8
0
 10
117.96965480217681
 20
133.33338612641759
 30
0.0
 11
117.96965480217681
 21
139.33338612641771
 31
0.0
  0
LINE
  5
D6C1
  8
0
 10
105.96965480217681
 20
139.33338612641771
 30
0.0
 11
105.96965480217681
 21
136.83338612641771
 31
0.0
  0
LINE
  5
D6C2
  8
0
 10
117.46965480217681
 20
132.83338612641771
 30
0.0
 11
117.96965480217681
 21
133.33338612641759
 31
0.0
  0
LINE
  5
D6C4
  8
0
 10
117.7696548021767
 20
129.83338612641771
 30
0.0
 11
106.16965480217669
 21
129.83338612641771
 31
0.0
  0
LINE
  5
D6C8
  8
0
 10
106.16965480217669
 20
132.83338612641771
 30
0.0
 11
117.7696548021768
 21
132.83338612641759
 31
0.0
  0
ARC
  5
D6C9
  8
0
 10
111.96965480217671
 20
97.105717201258244
 30
0.0
 40
18.425759195284069
 50
72.682184823508962
 51
107.317815176491
  0
ARC
  5
D6CA
  8
0
 10
103.74241346622109
 20
110.5530162187646
 30
0.0
 40
4.9685861568856149
 50
56.499069126451758
 51
123.50093087345449
  0
ARC
  5
D6CB
  8
0
 10
120.1968961381323
 20
110.5530162187648
 30
0.0
 40
4.9685861568854097
 50
56.499069126545521
 51
123.50093087354919
  0
LINE
  5
D6CD
  8
0
 10
102.96965480217681
 20
115.83338612641769
 30
0.0
 11
120.9696548021915
 21
115.8333861264091
 31
0.0
  0
LINE
  5
D6CE
  8
0
 10
122.93930991677961
 20
114.696205215791
 30
0.0
 11
122.93930991677961
 21
111.83338612641769
 31
0.0
  0
LINE
  5
D6CF
  8
0
 10
117.45448235947821
 20
111.8333861264132
 30
0.0
 11
122.93930991677961
 21
111.83338612641769
 31
0.0
  0
LINE
  5
D6D0
  8
0
 10
117.45448235947821
 20
114.69620521578651
 30
0.0
 11
117.45448235947821
 21
111.8333861264132
 31
0.0
  0
LINE
  5
D6D1
  8
0
 10
106.48482724487531
 20
111.8333861264132
 30
0.0
 11
117.45448235947821
 21
111.8333861264132
 31
0.0
  0
LINE
  5
D6D2
  8
0
 10
106.48482724487531
 20
114.69620521578651
 30
0.0
 11
106.48482724487531
 21
111.8333861264132
 31
0.0
  0
LINE
  5
D6D3
  8
0
 10
100.9999996875738
 20
111.83338612641769
 30
0.0
 11
106.48482724487531
 21
111.8333861264132
 31
0.0
  0
LINE
  5
D6D4
  8
0
 10
100.9999996875738
 20
114.696205215791
 30
0.0
 11
100.9999996875738
 21
111.83338612641769
 31
0.0
  0
LINE
  5
D6D5
  8
0
 10
109.2196548160573
 20
149.28697596490559
 30
0.0
 11
114.71965480220091
 21
149.2869759649021
 31
0.0
  0
LINE
  5
D6D6
  8
0
 10
105.96965480217681
 20
109.83338612641769
 30
0.0
 11
117.96965480217681
 21
109.83338612641769
 31
0.0
  0
LINE
  5
D6D7
  8
0
 10
117.46965480217671
 20
109.33338612641759
 30
0.0
 11
106.46965480217681
 21
109.33338612641759
 31
0.0
  0
LINE
  5
D6D8
  8
0
 10
117.96965480217681
 20
129.63338612641749
 30
0.0
 11
115.2862795925321
 21
129.63338612641749
 31
0.0
  0
LINE
  5
D6D9
  8
0
 10
108.6530300118213
 20
129.63338612641749
 30
0.0
 11
105.96965480217681
 21
129.63338612641749
 31
0.0
  0
LINE
  5
D6DA
  8
0
 10
108.6530300118213
 20
124.33338612641749
 30
0.0
 11
108.6530300118213
 21
129.63338612641749
 31
0.0
  0
ARC
  5
D6DB
  8
0
 10
111.96965480217681
 20
129.33338612641751
 30
0.0
 40
5.9999999999999671
 50
236.44269023808079
 51
303.55730976192308
  0
LINE
  5
D6DC
  8
0
 10
115.2862795925321
 20
129.63338612641749
 30
0.0
 11
115.2862795925321
 21
124.33338612641749
 31
0.0
  0
LINE
  5
D6DD
  8
0
 10
115.2862795925321
 20
124.33338612641749
 30
0.0
 11
108.6530300118213
 21
124.33338612641749
 31
0.0
  0
LINE
  5
D6DE
  8
0
 10
115.2862795925321
 20
129.63338612641749
 30
0.0
 11
114.90904249351659
 21
129.83338612641751
 31
0.0
  0
LINE
  5
D6DF
  8
0
 10
109.0302671108369
 20
129.83338612641751
 30
0.0
 11
108.6530300118213
 21
129.63338612641749
 31
0.0
  0
ARC
  5
D6E0
  8
0
 10
111.9696548021988
 20
8.7570463149939712
 30
0.0
 40
95.807769030997804
 50
88.415022247042003
 51
91.584977752980805
  0
LINE
  5
D6E1
  8
0
 10
114.6196548021767
 20
109.33338612641759
 30
0.0
 11
114.6196548021767
 21
103.13744678958351
 31
0.0
  0
LINE
  5
D6E2
  8
0
 10
114.6196548021767
 20
103.13744678958351
 30
0.0
 11
114.5676073540195
 21
102.9999982242373
 31
0.0
  0
LINE
  5
D6E4
  8
0
 10
109.371702250334
 20
102.9999982242373
 30
0.0
 11
109.3196548021767
 21
103.13744678958351
 31
0.0
  0
LINE
  5
D6E5
  8
0
 10
109.3196548021767
 20
103.13744678958351
 30
0.0
 11
109.3196548021767
 21
109.33338612641769
 31
0.0
  0
ARC
  5
D6E8
  8
0
 10
111.96965480217671
 20
9.5237878427157057
 30
0.0
 40
95.807769030968316
 50
88.415022247032226
 51
91.584977752967774
  0
LINE
  5
D6EF
  8
0
 10
114.5676073540195
 20
102.9999982242373
 30
0.0
 11
114.0333931587887
 21
102.9999982242373
 31
0.0
  0
ARC
  5
D6F0
  8
0
 10
111.96965480217671
 20
51.597490869551507
 30
0.0
 40
51.443918769404462
 50
87.700889845604294
 51
92.299110154395706
  0
LINE
  5
D6F1
  8
0
 10
109.9059164455648
 20
102.9999982242373
 30
0.0
 11
109.371702250334
 21
102.9999982242373
 31
0.0
  0
LINE
  5
D6F2
  8
0
 10
122.96965479833371
 20
141.33338612641771
 30
0.0
 11
100.96965480217671
 21
141.33338612641771
 31
0.0
  0
LINE
  5
D6F3
  8
0
 10
117.5221039864204
 20
144.33338612641771
 30
0.0
 11
106.41720561793311
 21
144.33338612641771
 31
0.0
  0
LINE
  5
D6F4
  8
0
 10
106.96965480217671
 20
135.83338612641771
 30
0.0
 11
105.96965480217681
 21
136.83338612641771
 31
0.0
  0
LINE
  5
D6F5
  8
0
 10
106.96965480217671
 20
133.33338612641759
 30
0.0
 11
117.96965480217681
 21
133.33338612641759
 31
0.0
  0
LINE
  5
D6F6
  8
0
 10
106.96965480217671
 20
133.33338612641759
 30
0.0
 11
106.96965480217671
 21
135.83338612641771
 31
0.0
  0
LINE
  5
D6F7
  8
0
 10
106.96965480217671
 20
132.83338612641771
 30
0.0
 11
106.96965480217671
 21
133.33338612641759
 31
0.0
  0
ARC
  5
D6FA
  8
0
 10
111.96965480217671
 20
26.549309864078339
 30
0.0
 40
79.736644364963965
 50
88.095458097754275
 51
91.904541902242443
  0
LINE
  5
D6FD
  8
0
 10
100.8102345123216
 20
142.9499093270972
 30
0.0
 11
123.1290750920318
 21
142.9499093270972
 31
0.0
  0
LINE
  5
D6FE
  8
0
 10
117.96965480217681
 20
139.33338612641771
 30
0.0
 11
105.96965480217671
 21
139.33338612641771
 31
0.0
  0
LINE
  5
D6FF
  8
3
 10
108.6530300118213
 20
129.63338612641761
 30
0.0
 11
115.2862795925321
 21
124.33338612641759
 31
0.0
  0
LINE
  5
D700
  8
3
 10
115.2862795925321
 20
129.63338612641761
 30
0.0
 11
108.6530300118213
 21
124.33338612641759
 31
0.0
  0
LINE
  5
D70E
  8
1
 10
111.96965480217681
 20
100.0
 30
0.0
 11
111.96965480217681
 21
152.2869759649038
 31
0.0
  0
LINE
  5
D91F
  8
1
 10
61.500000000000028
 20
205.28697651300971
 30
0.0
 11
61.500000000000028
 21
176.28697651300971
 31
0.0
  0
LINE
  5
D920
  8
1
 10
76.000000000000028
 20
190.78697651300971
 30
0.0
 11
47.000000000000021
 21
190.78697651300971
 31
0.0
  0
LINE
  5
D923
  8
0
 10
67.500000000000028
 20
121.8333879224957
 30
0.0
 11
55.500000000000028
 21
121.8333879224956
 31
0.0
  0
LINE
  5
D924
  8
3
 10
56.041499999999978
 20
121.8333879224956
 30
0.0
 11
56.041499999999871
 21
115.8333879224958
 31
0.0
  0
LINE
  5
D925
  8
3
 10
56.041499999999978
 20
111.8333879224958
 30
0.0
 11
56.041499999999978
 21
109.3333879224958
 31
0.0
  0
LINE
  5
D926
  8
3
 10
66.958500000000072
 20
121.8333879224958
 30
0.0
 11
66.958500000000186
 21
115.8333879224956
 31
0.0
  0
LINE
  5
D927
  8
3
 10
66.958500000000299
 20
111.8333879224956
 30
0.0
 11
66.958500000000186
 21
109.3333879224956
 31
0.0
  0
LINE
  5
D928
  8
3
 10
66.958500000000186
 20
121.8333879224957
 30
0.0
 11
67.500000000000028
 21
122.771293434794
 31
0.0
  0
LINE
  5
D929
  8
3
 10
56.041499999999871
 20
121.8333879224958
 30
0.0
 11
55.500000000000028
 21
122.7712934347941
 31
0.0
  0
LINE
  5
D92A
  8
0
 10
55.499999947845957
 20
123.33338788896801
 30
0.0
 11
56.50000011175873
 21
124.33338805288081
 31
0.0
  0
LINE
  5
D92B
  8
0
 10
66.499999888241319
 20
124.33338805288081
 30
0.0
 11
67.500000052154093
 21
123.33338788896801
 31
0.0
  0
LINE
  5
D932
  8
0
 10
63.186818679696579
 20
106.24192147870561
 30
0.0
 11
64.780072240158944
 21
106.2822517678142
 31
0.0
  0
LINE
  5
D933
  8
0
 10
59.81318098586047
 20
106.24190827086269
 30
0.0
 11
58.219927763456269
 21
106.2822519105836
 31
0.0
  0
LINE
  5
D97E
  8
1
 10
61.500000000000028
 20
76.000000000005315
 30
0.0
 11
61.500000000000028
 21
47.000000000005308
 31
0.0
  0
LINE
  5
D97F
  8
1
 10
76.000000000000028
 20
61.500000000005308
 30
0.0
 11
47.000000000000021
 21
61.500000000005308
 31
0.0
  0
ARC
  5
D9BC
  8
0
 10
61.500000000000028
 20
61.500000000005031
 30
0.0
 40
2.4000000000000048
 50
242.38512459108409
 51
297.61487540703359
  0
LINE
  5
DA5E
  8
0
 10
117.96965480217671
 20
121.83338612641769
 30
0.0
 11
105.96965480217671
 21
121.83338612641759
 31
0.0
  0
LINE
  5
DA5F
  8
3
 10
106.5111548021767
 20
121.83338612641759
 30
0.0
 11
106.51115480217661
 21
115.83338612641781
 31
0.0
  0
LINE
  5
DA60
  8
3
 10
106.5111548021767
 20
111.83338612641781
 30
0.0
 11
106.5111548021767
 21
109.33338612641781
 31
0.0
  0
LINE
  5
DA61
  8
3
 10
117.42815480217681
 20
121.83338612641781
 30
0.0
 11
117.42815480217691
 21
115.83338612641759
 31
0.0
  0
LINE
  5
DA62
  8
3
 10
117.428154802177
 20
111.83338612641759
 30
0.0
 11
117.42815480217691
 21
109.33338612641759
 31
0.0
  0
LINE
  5
DA63
  8
3
 10
117.42815480217691
 20
121.83338612641769
 30
0.0
 11
117.96965480217671
 21
122.77129163871599
 31
0.0
  0
LINE
  5
DA64
  8
3
 10
106.51115480217661
 20
121.83338612641781
 30
0.0
 11
105.96965480217671
 21
122.77129163871621
 31
0.0
  0
ARC
  5
DC6A
  8
0
 10
187.83446872283679
 20
-64.534394566698651
 30
0.0
 40
0.2000000000000085
 50
180.69612853649971
 51
195.69612853650111
  0
ARC
  5
DC6E
  8
0
 10
181.16553127716361
 20
-64.534394566698651
 30
0.0
 40
0.1999999999999981
 50
344.30387146349881
 51
359.30387146350188
  0
LINE
  5
DC79
  8
0
 10
187.64192671710819
 20
-64.588501645995436
 30
0.0
 11
187.8961205113707
 21
-65.493059489944301
 31
0.0
  0
LINE
  5
DC81
  8
0
 10
181.35807328289221
 20
-64.588501645995436
 30
0.0
 11
181.1038794886297
 21
-65.493059489944301
 31
0.0
  0
POINT
  5
DC85
  8
0
 10
186.86953600988309
 20
-67.772687463598544
 30
0.0
  0
POINT
  5
DC87
  8
0
 10
182.30420492655841
 20
-67.773084346154889
 30
0.0
  0
POINT
  5
DC89
  8
0
 10
182.13046399011739
 20
-67.772687463598544
 30
0.0
  0
LINE
  5
DC92
  8
0
 10
181.2500000000002
 20
-23.750093008309388
 30
0.0
 11
181.2500000000002
 21
-26.473084346154909
 31
0.0
  0
LINE
  5
DC93
  8
0
 10
187.7500000000002
 20
-26.473084346154909
 30
0.0
 11
187.7500000000002
 21
-23.750093008309388
 31
0.0
  0
ARC
  5
DC94
  8
0
 10
187.2500000000002
 20
-23.750093008309388
 30
0.0
 40
0.5
 50
0.0
 51
89.999999999995111
  0
ARC
  5
DC95
  8
0
 10
181.7500000000002
 20
-23.750093008309388
 30
0.0
 40
0.5
 50
90.000000000004874
 51
180.0
  0
LINE
  5
DC9C
  8
0
 10
182.10000000000019
 20
-68.450093008309381
 30
0.0
 11
182.60000000000019
 21
-68.950093008309381
 31
0.0
  0
LINE
  5
DC9D
  8
0
 10
186.4000000000002
 20
-68.950093008309381
 30
0.0
 11
186.9000000000002
 21
-68.450093008309381
 31
0.0
  0
LINE
  5
DC9E
  8
0
 10
182.10000000000019
 20
-67.950093008309381
 30
0.0
 11
182.10000000000019
 21
-68.450093008309381
 31
0.0
  0
LINE
  5
DC9F
  8
0
 10
186.9000000000002
 20
-68.450093008309381
 30
0.0
 11
186.9000000000002
 21
-67.950093008309381
 31
0.0
  0
LINE
  5
DCA0
  8
0
 10
186.9000000000002
 20
-67.950093008309381
 30
0.0
 11
186.8844631581882
 21
-67.77250609377819
 31
0.0
  0
LINE
  5
DCA1
  8
0
 10
182.1155368418122
 20
-67.77250609377819
 30
0.0
 11
182.10000000000019
 21
-67.950093008309381
 31
0.0
  0
LINE
  5
DCA2
  8
0
 10
181.4027419778028
 20
-61.473084346154579
 30
0.0
 11
181.36551651573919
 21
-64.536824453911692
 31
0.0
  0
LINE
  5
DCA3
  8
0
 10
181.09456102548859
 20
-66.259990178926898
 30
0.0
 11
181.62225192739689
 21
-67.766512517880017
 31
0.0
  0
ARC
  5
DCA4
  8
0
 10
181.16553127716361
 20
-64.534394566698637
 30
0.0
 40
0.2000000000000123
 50
344.3038714635004
 51
359.30387146350188
  0
LINE
  5
DCA5
  8
0
 10
181.35807328289221
 20
-64.588501645995422
 30
0.0
 11
181.1038794886297
 21
-65.493059489944272
 31
0.0
  0
LINE
  5
DCA6
  8
0
 10
181.1038794886297
 20
-65.493059489944287
 30
0.0
 11
181.09456102548859
 21
-66.259990178926898
 31
0.0
  0
LINE
  5
DCA7
  8
0
 10
187.63448348426121
 20
-64.536824453911692
 30
0.0
 11
187.59725802219759
 21
-61.473084346154579
 31
0.0
  0
LINE
  5
DCA8
  8
0
 10
187.8961205113707
 20
-65.493059489944272
 30
0.0
 11
187.64192671710819
 21
-64.588501645995422
 31
0.0
  0
LINE
  5
DCA9
  8
0
 10
187.90543897451181
 20
-66.259990178926898
 30
0.0
 11
187.8961205113707
 21
-65.493059489944287
 31
0.0
  0
ARC
  5
DCAA
  8
0
 10
187.83446872283679
 20
-64.534394566698637
 30
0.0
 40
0.2000000000000085
 50
180.69612853649971
 51
195.69612853650111
  0
LINE
  5
DCAB
  8
0
 10
187.37774807260351
 20
-67.766512517880017
 30
0.0
 11
187.90543897451181
 21
-66.259990178926898
 31
0.0
  0
LINE
  5
DCC9
  8
0
 10
181.7500000000002
 20
-23.250093008309388
 30
0.0
 11
187.2500000000002
 21
-23.250093008309388
 31
0.0
  0
LINE
  5
DCD4
  8
0
 10
182.10000000000019
 20
-68.450093008309381
 30
0.0
 11
186.9000000000002
 21
-68.450093008309381
 31
0.0
  0
LINE
  5
DCD5
  8
0
 10
186.4000000000002
 20
-68.950093008309381
 30
0.0
 11
182.60000000000019
 21
-68.950093008309381
 31
0.0
  0
LINE
  5
DCD6
  8
0
 10
182.10000000000019
 20
-67.950093008309381
 30
0.0
 11
186.9000000000002
 21
-67.950093008309381
 31
0.0
  0
LINE
  5
DCD7
  8
0
 10
183.6106612435309
 20
-64.950093008308116
 30
0.0
 11
185.3893387564695
 21
-64.950093008308116
 31
0.0
  0
LINE
  5
DCD8
  8
0
 10
183.62407814281829
 20
-63.8458517124362
 30
0.0
 11
185.37592185718211
 21
-63.8458517124362
 31
0.0
  0
LINE
  5
DCD9
  8
0
 10
182.95916277357071
 20
-64.556187786383489
 30
0.0
 11
182.99662350656891
 21
-61.473084346154579
 31
0.0
  0
POLYLINE
  5
DCDA
  8
0
 66
     1
 10
0.0
 20
0.0
 30
0.0
 70
   128
  0
VERTEX
  5
DEB7
  8
0
 10
182.4722897105317
 20
-65.509686129610571
 30
0.0
  0
VERTEX
  5
DEB8
  8
0
 10
182.57117021010919
 20
-65.306201534381472
 30
0.0
  0
VERTEX
  5
DEB9
  8
0
 10
182.94405452518811
 20
-64.607771846057091
 30
0.0
  0
SEQEND
  5
DEBA
  8
0
  0
ARC
  5
DCDB
  8
0
 10
182.85575278636639
 20
-64.553904976890195
 30
0.0
 40
0.1034351810207442
 50
328.61548083478061
 51
358.73538221268018
  0
LINE
  5
DCDC
  8
0
 10
183.65290805608529
 20
-61.473084346154899
 30
0.0
 11
183.57782281141749
 21
-67.652770583395835
 31
0.0
  0
ARC
  5
DCDD
  8
0
 10
186.750923098198
 20
-63.942514836385968
 30
0.0
 40
4.8820654582037069
 50
208.56120281354791
 51
229.4621393573851
  0
LINE
  5
DCDE
  8
0
 10
182.46297124739061
 20
-66.276616818593183
 30
0.0
 11
182.4722897105317
 21
-65.509686129610571
 31
0.0
  0
LINE
  5
DCDF
  8
0
 10
181.09456102548859
 20
-66.259990178926898
 30
0.0
 11
182.46297124739061
 21
-66.276616818593183
 31
0.0
  0
LINE
  5
DCE0
  8
0
 10
183.5761523535856
 20
-67.790253058406648
 30
0.0
 11
181.62225192739689
 21
-67.766512517880031
 31
0.0
  0
LINE
  5
DCE1
  8
0
 10
183.57782281141749
 20
-67.652770583395835
 30
0.0
 11
183.5761523535856
 21
-67.790253058406648
 31
0.0
  0
LINE
  5
DCE2
  8
0
 10
181.1038794886297
 20
-65.493059489944272
 30
0.0
 11
182.4722897105317
 21
-65.509686129610571
 31
0.0
  0
LINE
  5
DCE3
  8
0
 10
186.00337649343149
 20
-61.473084346154579
 30
0.0
 11
186.0408372264296
 21
-64.556187786383489
 31
0.0
  0
LINE
  5
DCE4
  8
0
 10
186.5277102894687
 20
-65.509686129610571
 30
0.0
 11
187.8961205113707
 21
-65.493059489944272
 31
0.0
  0
LINE
  5
DCE5
  8
0
 10
186.05594547483531
 20
-64.607771845976984
 30
0.0
 11
186.5277102894687
 21
-65.509686129610571
 31
0.0
  0
LINE
  5
DCE6
  8
0
 10
186.53702875261001
 20
-66.276616818594405
 30
0.0
 11
187.90543897451181
 21
-66.259990178926898
 31
0.0
  0
LINE
  5
DCE7
  8
0
 10
186.5277102894687
 20
-65.509686129610571
 30
0.0
 11
186.53702875261001
 21
-66.276616818594405
 31
0.0
  0
POLYLINE
  5
DCE8
  8
0
 66
     1
 10
0.0
 20
0.0
 30
0.0
 70
   128
  0
VERTEX
  5
DEBB
  8
0
 10
186.0408372264296
 20
-64.556187786383489
 30
0.0
  0
VERTEX
  5
DEBC
  8
0
 10
186.04534363100061
 20
-64.58403701427703
 30
0.0
  0
VERTEX
  5
DEBD
  8
0
 10
186.05594547483531
 20
-64.607771845976984
 30
0.0
  0
SEQEND
  5
DEBE
  8
0
  0
ARC
  5
DCE9
  8
0
 10
182.35166749204589
 20
-64.025625665211393
 30
0.0
 40
4.7522847193785438
 50
310.24912457848779
 51
331.72753325052469
  0
LINE
  5
DCEA
  8
0
 10
185.42217718858291
 20
-67.652770583395835
 30
0.0
 11
185.3470919439151
 21
-61.473084346154899
 31
0.0
  0
LINE
  5
DCEB
  8
0
 10
187.37774807260351
 20
-67.766512517880031
 30
0.0
 11
185.4238476464148
 21
-67.790253058406634
 31
0.0
  0
LINE
  5
DCEC
  8
0
 10
185.4238476464148
 20
-67.790253058406634
 30
0.0
 11
185.42217718858291
 21
-67.652770583395835
 31
0.0
  0
LINE
  5
DCFA
  8
0
 10
181.36551651573919
 20
-64.536824453911677
 30
0.0
 11
182.95916277357071
 21
-64.556187786383489
 31
0.0
  0
LINE
  5
DCFC
  8
0
 10
186.0408372264296
 20
-64.556187786383489
 30
0.0
 11
187.63448348426121
 21
-64.536824453911677
 31
0.0
  0
LINE
  5
DD06
  8
0
 10
178.5021927468481
 20
-38.173083097437598
 30
0.0
 11
178.5021927468481
 21
-40.773082406023718
 31
0.0
  0
LINE
  5
DD07
  8
0
 10
190.5021928511562
 20
-40.773082406023718
 30
0.0
 11
190.5021928511562
 21
-38.173083097437598
 31
0.0
  0
LINE
  5
DD08
  8
0
 10
178.5021927468481
 20
-40.773082406023718
 30
0.0
 11
178.70219287276291
 21
-40.973083928922392
 31
0.0
  0
LINE
  5
DD09
  8
0
 10
190.30219272524141
 20
-40.973083928922392
 30
0.0
 11
190.5021928511562
 21
-40.773082406023718
 31
0.0
  0
LINE
  5
DD0A
  8
0
 10
190.5021928511562
 20
-38.173083097437598
 30
0.0
 11
190.30219272524141
 21
-37.97308343718408
 31
0.0
  0
LINE
  5
DD0B
  8
0
 10
178.70219287276291
 20
-37.97308343718408
 30
0.0
 11
178.5021927468481
 21
-38.173083097437598
 31
0.0
  0
LINE
  5
DD0C
  8
0
 10
193.99999969452639
 20
-50.261759045297417
 30
0.0
 11
193.49999961257001
 21
-49.97308373893253
 31
0.0
  0
LINE
  5
DD0D
  8
0
 10
175.50000038743039
 20
-49.97308373893253
 30
0.0
 11
175.000000305474
 21
-50.261759045297417
 31
0.0
  0
LINE
  5
DD12
  8
0
 10
178.49999994784611
 20
-60.973083249056913
 30
0.0
 11
179.00000002980249
 21
-61.473083098182649
 31
0.0
  0
LINE
  5
DD13
  8
0
 10
189.9999999701979
 20
-61.473083098182649
 30
0.0
 11
190.50000005215429
 21
-60.973083249056913
 31
0.0
  0
LINE
  5
DD14
  8
0
 10
190.50000005215429
 20
-60.973083249056913
 30
0.0
 11
190.50000005215429
 21
-53.973083928925178
 31
0.0
  0
LINE
  5
DD15
  8
0
 10
190.50000005215429
 20
-49.97308373893253
 30
0.0
 11
190.50000005215429
 21
-47.473083131710268
 31
0.0
  0
LINE
  5
DD16
  8
0
 10
178.49999994784611
 20
-47.473083131710268
 30
0.0
 11
178.49999994784611
 21
-49.97308373893253
 31
0.0
  0
LINE
  5
DD17
  8
0
 10
178.49999994784611
 20
-53.973083928919493
 30
0.0
 11
178.49999994784611
 21
-60.973083249056913
 31
0.0
  0
ARC
  5
DD22
  8
0
 10
195.5000000000002
 20
-28.3304641327083
 30
0.0
 40
0.5
 50
0.0
 51
71.407177450567602
  0
ARC
  5
DD23
  8
0
 10
173.50000000000031
 20
-28.3304641327083
 30
0.0
 40
0.5
 50
108.59282254943579
 51
180.0
  0
LINE
  5
DD24
  8
0
 10
196.000000022352
 20
-28.973083824614271
 30
0.0
 11
196.000000022352
 21
-28.33046379754899
 31
0.0
  0
LINE
  5
DD25
  8
0
 10
172.99999997764851
 20
-28.33046379754899
 30
0.0
 11
172.99999997764851
 21
-28.973083824614271
 31
0.0
  0
ARC
  5
DD26
  8
0
 10
195.5000000000002
 20
-28.97308315406201
 30
0.0
 40
0.5
 50
270.00000000000648
 51
0.0
  0
ARC
  5
DD27
  8
0
 10
173.5000000000002
 20
-28.97308315406201
 30
0.0
 40
0.5
 50
180.0
 51
269.99999999999022
  0
ARC
  5
DD28
  8
0
 10
184.5000000000002
 20
-61.029852506193258
 30
0.0
 40
35.000000000000021
 50
99.128047323904624
 51
108.59282254942551
  0
ARC
  5
DD29
  8
0
 10
184.5000000000002
 20
-61.029852506193258
 30
0.0
 40
35.000000000000021
 50
71.407177450574451
 51
80.87195267609539
  0
ARC
  5
DD2A
  8
0
 10
192.5000000000002
 20
-31.47308315406201
 30
0.0
 40
2.0
 50
89.999999999996746
 51
180.0
  0
ARC
  5
DD2B
  8
0
 10
176.5000000000002
 20
-31.47308315406201
 30
0.0
 40
2.0
 50
0.0
 51
90.0
  0
LINE
  5
DD2C
  8
0
 10
190.50000005215429
 20
-37.473082423905112
 30
0.0
 11
190.50000005215429
 21
-31.473083303073629
 31
0.0
  0
LINE
  5
DD2D
  8
0
 10
178.49999994784611
 20
-31.473083303073629
 30
0.0
 11
178.49999994784611
 21
-37.473082423905112
 31
0.0
  0
LINE
  5
DD2E
  8
0
 10
178.49999994784611
 20
-37.473082423905112
 30
0.0
 11
179.00000002980249
 21
-37.97308343718408
 31
0.0
  0
LINE
  5
DD2F
  8
0
 10
189.9999999701979
 20
-37.97308343718408
 30
0.0
 11
190.50000005215429
 21
-37.473082423905112
 31
0.0
  0
LINE
  5
DD30
  8
0
 10
179.50000011175891
 20
-40.973083928922392
 30
0.0
 11
178.70219287276291
 21
-40.973083928922392
 31
0.0
  0
LINE
  5
DD31
  8
0
 10
178.70219287276291
 20
-37.97308343718408
 30
0.0
 11
190.30219272524141
 21
-37.97308343718408
 31
0.0
  0
LINE
  5
DD32
  8
0
 10
184.50000000000159
 20
-51.110264924118439
 30
0.0
 11
184.5000000000002
 21
-53.973083928922343
 31
0.0
  0
ARC
  5
DD33
  8
0
 10
189.24999984726401
 20
-64.233326321705533
 30
0.0
 40
13.956261641063939
 50
70.101860871956873
 51
109.8981391280431
  0
LINE
  5
DD34
  8
0
 10
193.99999969452639
 20
-53.973083928926812
 30
0.0
 11
193.99999969452639
 21
-50.262725292468588
 31
0.0
  0
ARC
  5
DD35
  8
0
 10
179.75000015273781
 20
-64.233326780039079
 30
0.0
 40
13.95626207203509
 50
70.10186151236212
 51
109.89813848763779
  0
LINE
  5
DD36
  8
0
 10
175.000000305474
 20
-53.973083928917859
 30
0.0
 11
175.000000305474
 21
-50.262288502181093
 31
0.0
  0
LINE
  5
DD37
  8
0
 10
175.50000038743039
 20
-49.97308373893253
 30
0.0
 11
193.49999961257001
 21
-49.97308373893253
 31
0.0
  0
LINE
  5
DD38
  8
0
 10
175.000000305474
 20
-53.973083928917838
 30
0.0
 11
193.99999969452651
 21
-53.973083928926819
 31
0.0
  0
LINE
  5
DD3A
  8
0
 10
178.49999994784611
 20
-60.973083249056913
 30
0.0
 11
190.50000005215429
 21
-60.973083249056913
 31
0.0
  0
LINE
  5
DD3B
  8
0
 10
189.9999999701979
 20
-61.473083098182649
 30
0.0
 11
179.00000002980249
 21
-61.473083098182649
 31
0.0
  0
LINE
  5
DD3C
  8
0
 10
189.49999988824149
 20
-41.173083589175917
 30
0.0
 11
179.50000011175891
 21
-41.173083589175917
 31
0.0
  0
LINE
  5
DD3D
  8
0
 10
179.50000011175891
 20
-41.173083589175917
 30
0.0
 11
179.50000011175891
 21
-40.973083928922392
 31
0.0
  0
LINE
  5
DD3E
  8
0
 10
179.50000011175891
 20
-40.973083928922392
 30
0.0
 11
190.30219272524141
 21
-40.973083928922399
 31
0.0
  0
LINE
  5
DD3F
  8
0
 10
189.49999988824149
 20
-40.973083928922392
 30
0.0
 11
189.49999988824149
 21
-41.173083589175917
 31
0.0
  0
LINE
  5
DD40
  8
0
 10
179.50000011175891
 20
-41.173083589175917
 30
0.0
 11
179.50000011175891
 21
-46.473082967797488
 31
0.0
  0
LINE
  5
DD41
  8
0
 10
189.49999988824149
 20
-46.473082967797488
 30
0.0
 11
189.49999988824149
 21
-41.173083589175917
 31
0.0
  0
LINE
  5
DD5B
  8
0
 10
195.5004228639302
 20
-29.473082975248079
 30
0.0
 11
173.5000000596049
 21
-29.473082975248079
 31
0.0
  0
LINE
  5
DD5C
  8
0
 10
190.05245660346509
 20
-26.473084346154909
 30
0.0
 11
178.9475507363679
 21
-26.473084346154909
 31
0.0
  0
ARC
  5
DD5D
  8
0
 10
184.5000000000002
 20
-39.97308315406201
 30
0.0
 40
5.9999999999999751
 50
56.442690238076977
 51
123.5573097619192
  0
LINE
  5
DD5E
  8
0
 10
181.1833752114328
 20
-34.973082945445761
 30
0.0
 11
181.1833752114328
 21
-37.473082423905112
 31
0.0
  0
LINE
  5
DD5F
  8
0
 10
187.81662478856759
 20
-37.473082423905112
 30
0.0
 11
190.50000005215429
 21
-37.473082423905112
 31
0.0
  0
LINE
  5
DD60
  8
0
 10
178.49999994784611
 20
-37.473082423905112
 30
0.0
 11
181.1833752114328
 21
-37.473082423905112
 31
0.0
  0
LINE
  5
DD61
  8
0
 10
187.81662478856759
 20
-37.473082423905112
 30
0.0
 11
187.81662478856759
 21
-34.973082945445761
 31
0.0
  0
LINE
  5
DD62
  8
0
 10
181.1833752114328
 20
-34.973082945445761
 30
0.0
 11
187.81662478856759
 21
-34.973082945445761
 31
0.0
  0
LINE
  5
DD63
  8
0
 10
186.79128776118179
 20
-37.97308343718408
 30
0.0
 11
187.81662478856759
 21
-37.473082423905112
 31
0.0
  0
LINE
  5
DD64
  8
0
 10
181.1833752114328
 20
-37.473082423905112
 30
0.0
 11
182.20871223881861
 21
-37.97308343718408
 31
0.0
  0
LINE
  5
DD66
  8
0
 10
173.34057998657249
 20
-27.856560305455901
 30
0.0
 11
195.65942133645029
 21
-27.856560305455901
 31
0.0
  0
LINE
  5
DD67
  8
0
 10
190.5000000000002
 20
-31.473083303073629
 30
0.0
 11
178.49999994784611
 21
-31.473083303073629
 31
0.0
  0
LINE
  5
DD68
  8
3
 10
181.18337520964479
 20
-34.973083154062067
 30
0.0
 11
187.8166247903556
 21
-37.473083154062067
 31
0.0
  0
LINE
  5
DD69
  8
3
 10
187.8166247903556
 20
-34.973083154062067
 30
0.0
 11
181.18337520964479
 21
-37.473083154062067
 31
0.0
  0
LINE
  5
DD6A
  8
1
 10
184.5000000000002
 20
-71.950093008309381
 30
0.0
 11
184.5000000000002
 21
-20.250093008309388
 31
0.0
  0
LINE
  5
DD6B
  8
0
 10
190.5000000000002
 20
-48.973083098182627
 30
0.0
 11
178.5000000000002
 21
-48.973083098182649
 31
0.0
  0
LINE
  5
DD6C
  8
3
 10
179.04150000000021
 20
-48.973083098182649
 30
0.0
 11
179.0415000000001
 21
-49.973083873042839
 31
0.0
  0
LINE
  5
DD6D
  8
3
 10
179.04150000000021
 20
-53.97308387304281
 30
0.0
 11
179.04150000000021
 21
-61.473083098182506
 31
0.0
  0
LINE
  5
DD6E
  8
3
 10
189.9585000000003
 20
-48.973083098182542
 30
0.0
 11
189.95850000000041
 21
-49.973083873043002
 31
0.0
  0
LINE
  5
DD6F
  8
3
 10
189.9585000000005
 20
-53.973083873043009
 30
0.0
 11
189.95850000000041
 21
-61.473083098182677
 31
0.0
  0
LINE
  5
DD70
  8
3
 10
189.95850000000041
 20
-48.973083098182627
 30
0.0
 11
190.5000000000002
 21
-48.035177585884327
 31
0.0
  0
LINE
  5
DD71
  8
3
 10
179.0415000000001
 20
-48.973083098182457
 30
0.0
 11
178.5000000000002
 21
-48.035177585884163
 31
0.0
  0
LINE
  5
DD72
  8
0
 10
178.49999994784611
 20
-47.473083131710268
 30
0.0
 11
179.50000011175891
 21
-46.473082967797488
 31
0.0
  0
LINE
  5
DD73
  8
0
 10
189.49999988824149
 20
-46.473082967797488
 30
0.0
 11
190.50000005215429
 21
-47.473083131710268
 31
0.0
  0
ENDSEC
  0
EOF
