  0
SECTION
  2
HEADER
  9
$ACADVER
  1
AC1009
  9
$INSBASE
 10
0.0
 20
0.0
 30
0.0
  9
$EXTMIN
 10
0.0
 20
-152.3343189959819881
 30
0.0
  9
$EXTMAX
 10
468.8043734816064898
 20
167.5
 30
0.0
  9
$LIMMIN
 10
0.0
 20
0.0
  9
$LIMMAX
 10
187.5
 20
135.0
  9
$ORTHOMODE
 70
     1
  9
$REGENMODE
 70
     1
  9
$FILLMODE
 70
     1
  9
$QTEXTMODE
 70
     0
  9
$MIRRTEXT
 70
     0
  9
$DRAGMODE
 70
     2
  9
$LTSCALE
 40
2.0
  9
$OSMODE
 70
    37
  9
$ATTMODE
 70
     1
  9
$TEXTSIZE
 40
0.2
  9
$TRACEWID
 40
0.05
  9
$TEXTSTYLE
  7
STANDARD
  9
$CLAYER
  8
0
  9
$CELTYPE
  6
BYLAYER
  9
$CECOLOR
 62
   256
  9
$DIMSCALE
 40
0.5
  9
$DIMASZ
 40
3.0
  9
$DIMEXO
 40
2.0
  9
$DIMDLI
 40
0.3799999999999999
  9
$DIMRND
 40
0.0
  9
$DIMDLE
 40
0.0
  9
$DIMEXE
 40
2.0
  9
$DIMTP
 40
0.0
  9
$DIMTM
 40
0.0
  9
$DIMTXT
 40
3.2000000000000002
  9
$DIMCEN
 40
0.09
  9
$DIMTSZ
 40
0.0
  9
$DIMTOL
 70
     0
  9
$DIMLIM
 70
     0
  9
$DIMTIH
 70
     0
  9
$DIMTOH
 70
     0
  9
$DIMSE1
 70
     0
  9
$DIMSE2
 70
     0
  9
$DIMTAD
 70
     1
  9
$DIMZIN
 70
     8
  9
$DIMBLK
  1

  9
$DIMASO
 70
     0
  9
$DIMSHO
 70
     0
  9
$DIMPOST
  1

  9
$DIMAPOST
  1

  9
$DIMALT
 70
     0
  9
$DIMALTD
 70
     2
  9
$DIMALTF
 40
25.3999999999999986
  9
$DIMLFAC
 40
1.0
  9
$DIMTOFL
 70
     0
  9
$DIMTVP
 40
1.6000000000000001
  9
$DIMTIX
 70
     1
  9
$DIMSOXD
 70
     0
  9
$DIMSAH
 70
     0
  9
$DIMBLK1
  1

  9
$DIMBLK2
  1

  9
$DIMSTYLE
  2
STANDARD
  9
$DIMCLRD
 70
     0
  9
$DIMCLRE
 70
     0
  9
$DIMCLRT
 70
     0
  9
$DIMTFAC
 40
1.0
  9
$DIMGAP
 40
1.0
  9
$LUNITS
 70
     2
  9
$LUPREC
 70
     1
  9
$SKETCHINC
 40
0.1
  9
$FILLETRAD
 40
0.4
  9
$AUNITS
 70
     0
  9
$AUPREC
 70
     0
  9
$MENU
  1
E:\r13\win\SUPPORT\ACAD
  9
$ELEVATION
 40
0.0
  9
$PELEVATION
 40
0.0
  9
$THICKNESS
 40
0.0
  9
$LIMCHECK
 70
     0
  9
$BLIPMODE
 70
     0
  9
$CHAMFERA
 40
0.0
  9
$CHAMFERB
 40
0.0
  9
$SKPOLY
 70
     0
  9
$TDCREATE
 40
2451824.6906134258024395
  9
$TDUPDATE
 40
2460713.4709606477990746
  9
$TDINDWG
 40
0.5510543287
  9
$TDUSRTIMER
 40
0.5510543287
  9
$USRTIMER
 70
     1
  9
$ANGBASE
 50
0.0
  9
$ANGDIR
 70
     0
  9
$PDMODE
 70
     0
  9
$PDSIZE
 40
0.0
  9
$PLINEWID
 40
0.0
  9
$COORDS
 70
     1
  9
$SPLFRAME
 70
     0
  9
$SPLINETYPE
 70
     6
  9
$SPLINESEGS
 70
     8
  9
$ATTDIA
 70
     1
  9
$ATTREQ
 70
     1
  9
$HANDLING
 70
     1
  9
$HANDSEED
  5
91DA
  9
$SURFTAB1
 70
     6
  9
$SURFTAB2
 70
     6
  9
$SURFTYPE
 70
     6
  9
$SURFU
 70
     6
  9
$SURFV
 70
     6
  9
$UCSNAME
  2

  9
$UCSORG
 10
0.0
 20
0.0
 30
0.0
  9
$UCSXDIR
 10
1.0
 20
0.0
 30
0.0
  9
$UCSYDIR
 10
0.0
 20
1.0
 30
0.0
  9
$PUCSNAME
  2

  9
$PUCSORG
 10
0.0
 20
0.0
 30
0.0
  9
$PUCSXDIR
 10
1.0
 20
0.0
 30
0.0
  9
$PUCSYDIR
 10
0.0
 20
1.0
 30
0.0
  9
$USERI1
 70
     0
  9
$USERI2
 70
     1
  9
$USERI3
 70
     0
  9
$USERI4
 70
     0
  9
$USERI5
 70
     0
  9
$USERR1
 40
0.0
  9
$USERR2
 40
0.0
  9
$USERR3
 40
0.0
  9
$USERR4
 40
0.0
  9
$USERR5
 40
0.0
  9
$WORLDVIEW
 70
     1
  9
$SHADEDGE
 70
     3
  9
$SHADEDIF
 70
    70
  9
$TILEMODE
 70
     1
  9
$MAXACTVP
 70
    16
  9
$PLIMCHECK
 70
     0
  9
$PEXTMIN
 10
1.0000000000000000E+20
 20
1.0000000000000000E+20
 30
1.0000000000000000E+20
  9
$PEXTMAX
 10
-1.0000000000000000E+20
 20
-1.0000000000000000E+20
 30
-1.0000000000000000E+20
  9
$PLIMMIN
 10
0.0
 20
0.0
  9
$PLIMMAX
 10
12.0
 20
9.0
  9
$UNITMODE
 70
     0
  9
$VISRETAIN
 70
     0
  9
$PLINEGEN
 70
     0
  9
$PSLTSCALE
 70
     0
  0
ENDSEC
  0
SECTION
  2
TABLES
  0
TABLE
  2
VPORT
 70
     1
  0
VPORT
  2
*ACTIVE
 70
     0
 10
0.0
 20
0.0
 11
1.0
 21
1.0
 12
270.0800492610836727
 22
115.0
 13
0.0
 23
0.0
 14
5.0
 24
5.0
 15
5.0
 25
5.0
 16
0.0
 26
0.0
 36
1.0
 17
0.0
 27
0.0
 37
0.0
 40
230.0
 41
2.3485221674876842
 42
50.0
 43
0.0
 44
0.0
 50
0.0
 51
0.0
 71
     0
 72
   500
 73
     1
 74
     0
 75
     0
 76
     0
 77
     0
 78
     2
  0
ENDTAB
  0
TABLE
  2
LTYPE
 70
     5
  0
LTYPE
  2
CONTINUOUS
 70
     0
  3
Solid Line
 72
    65
 73
     0
 40
0.0
  0
LTYPE
  2
CENTER
 70
     0
  3
____ _ ____ _ ____ _ ____ _ ____ _ ____ _ ____
 72
    65
 73
     4
 40
2.0
 49
1.25
 49
-0.25
 49
0.25
 49
-0.25
  0
LTYPE
  2
PHANTOM2
 70
     0
  3
___ _ _ ___ _ _ ___ _ _ ___ _ _
 72
    65
 73
     6
 40
1.25
 49
0.625
 49
-0.125
 49
0.125
 49
-0.125
 49
0.125
 49
-0.125
  0
LTYPE
  2
PHANTOM
 70
     0
  3
_____ _ _ _____ _ _ _____ _ _ _____ _ _ ____
 72
    65
 73
     6
 40
2.5
 49
1.25
 49
-0.25
 49
0.25
 49
-0.25
 49
0.25
 49
-0.25
  0
LTYPE
  2
HIDDEN
 70
     0
  3
Hidden __ __ __ __ __ __ __ __ __ __ __ __ __ __
 72
    65
 73
     2
 40
1.905
 49
1.27
 49
-0.635
  0
ENDTAB
  0
TABLE
  2
LAYER
 70
     6
  0
LAYER
  2
0
 70
     0
 62
     7
  6
CONTINUOUS
  0
LAYER
  2
1
 70
     0
 62
     1
  6
CENTER
  0
LAYER
  2
3
 70
     0
 62
     3
  6
CONTINUOUS
  0
LAYER
  2
DEFPOINTS
 70
     0
 62
     7
  6
CONTINUOUS
  0
LAYER
  2
5
 70
     0
 62
     3
  6
PHANTOM
  0
LAYER
  2
2
 70
     0
 62
     2
  6
HIDDEN
  0
ENDTAB
  0
TABLE
  2
STYLE
 70
     2
  0
STYLE
  2
STANDARD
 70
     0
 40
0.0
 41
1.0
 50
0.0
 71
     0
 42
0.2
  3
TXT
  4
BIGFONT
  0
STYLE
  2
STANDARD1
 70
     0
 40
0.0
 41
1.0
 50
0.0
 71
     0
 42
3.0
  3
txt
  4

  0
ENDTAB
  0
TABLE
  2
VIEW
 70
     0
  0
ENDTAB
  0
TABLE
  2
UCS
 70
     0
  0
ENDTAB
  0
TABLE
  2
APPID
 70
   132
  0
APPID
  2
ACAD
 70
     0
  0
APPID
  2
ACAD_MLEADERVER
 70
     0
  0
APPID
  2
ACAD_EXEMPT_FROM_CAD_STANDARDS
 70
     0
  0
APPID
  2
ACAD_DSTYLE_DIMJAG
 70
     0
  0
APPID
  2
ACAD_DSTYLE_DIMTALN
 70
     0
  0
APPID
  2
ACAD_NAV_VCDISPLAY
 70
     0
  0
APPID
  2
ACADANNOTATIVE
 70
     0
  0
APPID
  2
ACAD_PSEXT
 70
     0
  0
APPID
  2
ACAECLAYERSTANDARD
 70
     0
  0
APPID
  2
ACCMTRANSPARENCY
 70
     0
  0
APPID
  2
ACAD_DSTYLE_DIMRADIAL_EXTENSION
 70
     0
  0
APPID
  2
_FTCNV
 70
     0
  0
APPID
  2
GENIUS_GENODEF_13
 70
     0
  0
APPID
  2
GENIUS_GENOENT_13
 70
     0
  0
APPID
  2
GENIUS_GENOBJ-N-CEN_13
 70
     0
  0
APPID
  2
GENIUS_GENOLIS_13
 70
     0
  0
APPID
  2
GENIUS_GENOREF_13
 70
     0
  0
APPID
  2
GENIUS_GENOBJ-N-CRS_13
 70
     0
  0
APPID
  2
GENIUS_GENOBJ-N-FIL_13
 70
     0
  0
APPID
  2
GENIUS_GENOBJ-N-REC_13
 70
     0
  0
APPID
  2
GENIUS_GENFIL_13
 70
     0
  0
APPID
  2
GENIUS_GENOBJ-N-CHA_13
 70
     0
  0
APPID
  2
ASM_BASE
 70
     0
  0
APPID
  2
_PHO
 70
     0
  0
APPID
  2
_CLP
 70
     0
  0
APPID
  2
MOJIGUMI_PARTS
 70
     0
  0
APPID
  2
_DBL
 70
     0
  0
APPID
  2
_PWH
 70
     0
  0
APPID
  2
_G9P
 70
     0
  0
APPID
  2
AME_SOL
 70
     0
  0
APPID
  2
HAKO_DEF
 70
     0
  0
APPID
  2
HAKO_TXT
 70
     0
  0
APPID
  2
HAKO_OVR
 70
     0
  0
APPID
  2
ASM_EXPLO_VER_2_00
 70
     0
  0
APPID
  2
ASM_CADM_VER_12_00
 70
     0
  0
APPID
  2
ASM_BASEFORO
 70
     0
  0
APPID
  2
ASM_BASETRAVI
 70
     0
  0
APPID
  2
ASM_BASETRAVI1
 70
     0
  0
APPID
  2
ASM_GRUPPI
 70
     0
  0
APPID
  2
ASM_CADM_ALBERO
 70
     0
  0
APPID
  2
ASM_GOLE
 70
     0
  0
APPID
  2
GENIUS_GENCFG_13
 70
     0
  0
APPID
  2
GENIUS_GENCFG0_13
 70
     0
  0
APPID
  2
GENIUS_GENCFG1_13
 70
     0
  0
APPID
  2
GENIUS_GENCFG2_13
 70
     0
  0
APPID
  2
GENIUS_GENCFG3_13
 70
     0
  0
APPID
  2
GENIUS_GENCFG4_13
 70
     0
  0
APPID
  2
GENIUS_GEVCFG0_13
 70
     0
  0
APPID
  2
GENIUS_GENHATCH_13
 70
     0
  0
APPID
  2
GENIUS_GEFCFG0_13
 70
     0
  0
APPID
  2
GENIUS_GENOBJ-N-HTC_13
 70
     0
  0
APPID
  2
DCO15
 70
     0
  0
APPID
  2
AVE_RENDER
 70
     0
  0
APPID
  2
AVE_ENTITY_MATERIAL
 70
     0
  0
APPID
  2
AVE_FINISH
 70
     0
  0
APPID
  2
AVE_MATERIAL
 70
     0
  0
APPID
  2
AVE_GLOBAL
 70
     0
  0
APPID
  2
_NUM
 70
     0
  0
APPID
  2
HAKO_FNM
 70
     0
  0
APPID
  2
_CALL_MAC$
 70
     0
  0
APPID
  2
ACA_CADIMENU
 70
     0
  0
APPID
  2
AUTOCAD_POSTSCRIPT_FIGURE
 70
     0
  0
APPID
  2
GEV_VCCNULL_SWITCH_OFF
 70
     0
  0
APPID
  2
GENIUS_GENDTOL_13
 70
     0
  0
APPID
  2
GENIUS_GEFWELD_13
 70
     0
  0
APPID
  2
GENIUS_GENOBJ-F-WELS_13
 70
     0
  0
APPID
  2
GEVID961514679
 70
     0
  0
APPID
  2
GEVDC
 70
     0
  0
APPID
  2
GEVPT
 70
     0
  0
APPID
  2
GEVIT
 70
     0
  0
APPID
  2
VCC
 70
     0
  0
APPID
  2
GENBH
 70
     0
  0
APPID
  2
GEVMK
 70
     0
  0
APPID
  2
GENIUS_GENBH_13
 70
     0
  0
APPID
  2
GENIUS_GENOBJ-NBEHI-BHF_13
 70
     0
  0
APPID
  2
GENIUS_GENOBJ-NBEHI-BHB_13
 70
     0
  0
APPID
  2
GENIUS_GENOBJ-F-DESC_13
 70
     0
  0
APPID
  2
GENIUS_GEFDESC_14
 70
     0
  0
APPID
  2
GENIUS_GENOBJ-F-PART_13
 70
     0
  0
APPID
  2
GENIUS_GEFSTDP_13
 70
     0
  0
APPID
  2
GENIUS_GEFPARTINS_13
 70
     0
  0
APPID
  2
GEVID961514680
 70
     0
  0
APPID
  2
GENIUS_GENTRA_14
 70
     0
  0
APPID
  2
GENIUS_GENINF13_13
 70
     0
  0
APPID
  2
GENIUS_GENOBJ-N-INFOPT_13
 70
     0
  0
APPID
  2
GENIUS_GENOBJ-N-RSSYM_13
 70
     0
  0
APPID
  2
GENIUS_GENSYMENT_13
 70
     0
  0
APPID
  2
GENIUS_GENSCSYM_13
 70
     0
  0
APPID
  2
GENIUS_GEFINFNAM_13
 70
     0
  0
APPID
  2
GENIUS_GENREC_14
 70
     0
  0
APPID
  2
GEVID962097543
 70
     0
  0
APPID
  2
GEVID962097544
 70
     0
  0
APPID
  2
GEVID962097545
 70
     0
  0
APPID
  2
GENIUS_DUMCFG0_13
 70
     0
  0
APPID
  2
GEVID962352965
 70
     0
  0
APPID
  2
GEVID962352966
 70
     0
  0
APPID
  2
GEVID962352968
 70
     0
  0
APPID
  2
GEVRADREF
 70
     0
  0
APPID
  2
GEVID963230099
 70
     0
  0
APPID
  2
GENIUS_GENOBJ-F-FEAT_13
 70
     0
  0
APPID
  2
GENIUS_GEFFEAT_14
 70
     0
  0
APPID
  2
GEVID963230100
 70
     0
  0
APPID
  2
GEVID963230101
 70
     0
  0
APPID
  2
GENIUS_GENHINW_13
 70
     0
  0
APPID
  2
GENIUS_FIRSTVISTXT_14
 70
     0
  0
APPID
  2
GENIUS_GENOBJ-N-LEADER_13
 70
     0
  0
APPID
  2
GEVID971698136
 70
     0
  0
APPID
  2
GEVID972029070
 70
     0
  0
APPID
  2
MCAD_NO_VIS
 70
     0
  0
APPID
  2
ACAD_TEMP_GRAPHIC
 70
     0
  0
APPID
  2
ACATTRIBSERVICES
 70
     0
  0
APPID
  2
GENIUS_GENDIMSH_14
 70
     0
  0
APPID
  2
CONTENTTABDATA
 70
     0
  0
APPID
  2
CONTENTCURRENTTAB
 70
     0
  0
APPID
  2
GENIUS_GENBLKED_14
 70
     0
  0
APPID
  2
GENIUS_GENOBJ_13
 70
     0
  0
APPID
  2
GENIUS_GENOBJ-N-TIT_13
 70
     0
  0
APPID
  2
GENIUS_GENTITLE_13
 70
     0
  0
APPID
  2
GENIUS_GENZVEED_13
 70
     0
  0
APPID
  2
GENIUS_GEFINERT_13
 70
     0
  0
APPID
  2
GENIUS_GENOBJ-F-INER_13
 70
     0
  0
APPID
  2
GENIUS_GENOBJ-N-ZOO_13
 70
     0
  0
APPID
  2
GENIUS_GENZOO_13
 70
     0
  0
APPID
  2
GENIUS_GENOBJ-F-TOL_13
 70
     0
  0
APPID
  2
GENIUS_GENOBJ-N-REV_13
 70
     0
  0
APPID
  2
GENIUS_GENREC_13
 70
     0
  0
APPID
  2
_KTH
 70
     0
  0
APPID
  2
GENIUS_GENOBJ-N-SEC_13
 70
     0
  0
APPID
  2
ACAD_DSTYLE_DIMBREAK
 70
     0
  0
APPID
  2
ACAD_DSTYLE_DIM_LINETYPE
 70
     0
  0
APPID
  2
GRADIENTCOLOR1ACI
 70
     0
  0
APPID
  2
GRADIENTCOLOR2ACI
 70
     0
  0
ENDTAB
  0
TABLE
  2
DIMSTYLE
 70
     2
  0
DIMSTYLE
  2
STANDARD
 70
     0
  3

  4

  5

  6

  7

 40
1.0
 41
0.18
 42
0.0625
 43
0.38
 44
0.18
 45
0.0
 46
0.0
 47
0.0
 48
0.0
140
0.18
141
0.09
142
0.0
143
25.3999999999999986
144
1.0
145
0.0
146
1.0
147
0.09
 71
     0
 72
     0
 73
     1
 74
     1
 75
     0
 76
     0
 77
     0
 78
     0
170
     0
171
     2
172
     0
173
     0
174
     0
175
     0
176
     0
177
     0
178
     0
  0
DIMSTYLE
  2
ISO-25
 70
     0
  3

  4

  5

  6

  7

 40
1.0
 41
2.5
 42
0.625
 43
3.75
 44
1.25
 45
0.0
 46
0.0
 47
0.0
 48
0.0
140
2.5
141
2.5
142
0.0
143
0.03937007874016
144
1.0
145
0.0
146
1.0
147
0.625
 71
     0
 72
     0
 73
     0
 74
     0
 75
     0
 76
     0
 77
     1
 78
     8
170
     0
171
     3
172
     1
173
     0
174
     0
175
     0
176
     0
177
     0
178
     0
  0
ENDTAB
  0
ENDSEC
  0
SECTION
  2
BLOCKS
  0
BLOCK
  8
0
  2
$MODEL_SPACE
 70
     0
 10
0.0
 20
0.0
 30
0.0
  3
$MODEL_SPACE
  1

  0
ENDBLK
  5
9
  8
0
  0
BLOCK
 67
     1
  8
0
  2
$PAPER_SPACE
 70
     0
 10
0.0
 20
0.0
 30
0.0
  3
$PAPER_SPACE
  1

  0
ENDBLK
  5
E
 67
     1
  8
0
  0
ENDSEC
  0
SECTION
  2
ENTITIES
  0
TEXT
  5
5FC0
  8
0
 62
     3
 10
0.0
 20
0.0
 30
0.0
 40
10.0
  1
QCBU0608-FL-SUS
  7
STANDARD1
  0
LINE
  5
705E
  8
0
 10
55.0714300479140206
 20
145.5
 30
0.0
 11
53.5794552658191208
 21
145.5
 31
0.0
  0
LINE
  5
705F
  8
0
 10
46.4205447341809077
 20
145.5
 30
0.0
 11
44.9285699520859723
 21
145.5
 31
0.0
  0
LINE
  5
7060
  8
0
 10
44.9285699520859723
 20
154.5
 30
0.0
 11
46.420544734180929
 21
154.5
 31
0.0
  0
LINE
  5
7061
  8
0
 10
53.5794552658190568
 20
154.5
 30
0.0
 11
55.0714300479140206
 21
154.5
 31
0.0
  0
CIRCLE
  5
7062
  8
0
 10
50.0
 20
150.0
 30
0.0
 40
5.0499999999999821
  0
CIRCLE
  5
7063
  8
0
 10
50.0
 20
150.0
 30
0.0
 40
5.75
  0
CIRCLE
  5
7064
  8
0
 10
50.0
 20
150.0
 30
0.0
 40
3.0499999999999821
  0
ARC
  5
7065
  8
0
 10
50.0
 20
150.0
 30
0.0
 40
6.5000000000000142
 50
316.1869385395983727
 51
43.8130614604037874
  0
ARC
  5
7066
  8
0
 10
50.0
 20
150.0
 30
0.0
 40
6.5000000000000338
 50
136.1869385395962126
 51
223.8130614604037021
  0
LINE
  5
7067
  8
0
 10
51.5
 20
155.75
 30
0.0
 11
48.5
 21
155.75
 31
0.0
  0
ARC
  5
7068
  8
0
 10
48.5
 20
150.0
 30
0.0
 40
5.7500000000000284
 50
90.0
 51
270.0
  0
CIRCLE
  5
7069
  8
0
 10
42.5
 20
144.5
 30
0.0
 40
1.000000000000014
  0
CIRCLE
  5
706A
  8
0
 10
57.5
 20
155.5
 30
0.0
 40
1.0
  0
CIRCLE
  5
706B
  8
0
 10
60.0
 20
150.0
 30
0.0
 40
2.0
  0
CIRCLE
  5
706C
  8
0
 10
50.0
 20
160.0
 30
0.0
 40
2.0
  0
LINE
  5
706D
  8
0
 10
48.5
 20
144.25
 30
0.0
 11
51.5
 21
144.25
 31
0.0
  0
ARC
  5
706E
  8
0
 10
51.5
 20
150.0
 30
0.0
 40
5.7500000000000284
 50
270.0
 51
90.0
  0
CIRCLE
  5
706F
  8
0
 10
50.0
 20
150.0
 30
0.0
 40
12.5
  0
CIRCLE
  5
7070
  8
0
 10
50.0
 20
140.0
 30
0.0
 40
2.0
  0
CIRCLE
  5
7071
  8
0
 10
40.0
 20
150.0
 30
0.0
 40
1.9999999999999849
  0
CIRCLE
  5
7072
  8
0
 10
50.0
 20
160.0
 30
0.0
 40
1.900000000000005
  0
LINE
  5
7073
  8
0
 10
50.0
 20
159.1339745962156087
 30
0.0
 11
50.75
 21
159.5669872981077901
 31
0.0
  0
LINE
  5
7074
  8
0
 10
50.75
 20
159.5669872981077901
 30
0.0
 11
50.75
 21
160.4330127018922099
 31
0.0
  0
LINE
  5
7075
  8
0
 10
50.75
 20
160.4330127018922099
 30
0.0
 11
50.0
 21
160.866025403784505
 31
0.0
  0
LINE
  5
7076
  8
0
 10
50.0
 20
160.866025403784505
 30
0.0
 11
49.25
 21
160.4330127018922099
 31
0.0
  0
LINE
  5
7077
  8
0
 10
49.25
 20
160.4330127018922099
 30
0.0
 11
49.25
 21
159.5669872981077901
 31
0.0
  0
LINE
  5
7078
  8
0
 10
49.25
 20
159.5669872981077901
 30
0.0
 11
50.0
 21
159.1339745962156087
 31
0.0
  0
CIRCLE
  5
7079
  8
0
 10
60.0
 20
150.0
 30
0.0
 40
1.900000000000005
  0
LINE
  5
707A
  8
0
 10
60.0
 20
149.1339745962156087
 30
0.0
 11
60.75
 21
149.5669872981077901
 31
0.0
  0
LINE
  5
707B
  8
0
 10
59.25
 20
149.5669872981077901
 30
0.0
 11
60.0
 21
149.1339745962156087
 31
0.0
  0
LINE
  5
707C
  8
0
 10
59.25
 20
150.4330127018922099
 30
0.0
 11
59.25
 21
149.5669872981077901
 31
0.0
  0
LINE
  5
707D
  8
0
 10
60.0
 20
150.866025403784505
 30
0.0
 11
59.25
 21
150.4330127018922099
 31
0.0
  0
LINE
  5
707E
  8
0
 10
60.75
 20
150.4330127018922099
 30
0.0
 11
60.0
 21
150.866025403784505
 31
0.0
  0
LINE
  5
707F
  8
0
 10
60.75
 20
149.5669872981077901
 30
0.0
 11
60.75
 21
150.4330127018922099
 31
0.0
  0
LINE
  5
7080
  8
0
 10
50.0
 20
139.1339745962156087
 30
0.0
 11
50.75
 21
139.5669872981077901
 31
0.0
  0
LINE
  5
7081
  8
0
 10
50.75
 20
139.5669872981077901
 30
0.0
 11
50.75
 21
140.4330127018922951
 31
0.0
  0
LINE
  5
7082
  8
0
 10
49.25
 20
140.4330127018922951
 30
0.0
 11
49.25
 21
139.5669872981077901
 31
0.0
  0
LINE
  5
7083
  8
0
 10
49.25
 20
139.5669872981077901
 30
0.0
 11
50.0
 21
139.1339745962156087
 31
0.0
  0
LINE
  5
7084
  8
0
 10
50.0
 20
140.866025403784505
 30
0.0
 11
49.25
 21
140.4330127018922951
 31
0.0
  0
CIRCLE
  5
7085
  8
0
 10
50.0
 20
140.0
 30
0.0
 40
1.900000000000005
  0
LINE
  5
7086
  8
0
 10
50.75
 20
140.4330127018922951
 30
0.0
 11
50.0
 21
140.866025403784505
 31
0.0
  0
LINE
  5
7087
  8
0
 10
40.75
 20
149.5669872981077901
 30
0.0
 11
40.75
 21
150.4330127018922099
 31
0.0
  0
LINE
  5
7088
  8
0
 10
40.75
 20
150.4330127018922099
 30
0.0
 11
40.0
 21
150.866025403784505
 31
0.0
  0
LINE
  5
7089
  8
0
 10
39.25
 20
150.4330127018922099
 30
0.0
 11
39.25
 21
149.5669872981077901
 31
0.0
  0
LINE
  5
708A
  8
0
 10
40.0
 20
150.866025403784505
 30
0.0
 11
39.25
 21
150.4330127018922099
 31
0.0
  0
CIRCLE
  5
708B
  8
0
 10
40.0
 20
150.0
 30
0.0
 40
1.899999999999991
  0
LINE
  5
708C
  8
0
 10
40.0
 20
149.1339745962156087
 30
0.0
 11
40.75
 21
149.5669872981077901
 31
0.0
  0
LINE
  5
708D
  8
0
 10
39.25
 20
149.5669872981077901
 30
0.0
 11
40.0
 21
149.1339745962156087
 31
0.0
  0
CIRCLE
  5
708E
  8
0
 10
42.5
 20
144.4999999999944009
 30
0.0
 40
0.7249999999999944
  0
CIRCLE
  5
708F
  8
0
 10
57.5000000000021885
 20
155.5000000000003979
 30
0.0
 40
0.7249999999999944
  0
LINE
  5
7090
  8
0
 10
43.5
 20
100.0
 30
0.0
 11
43.5
 21
89.9999999999999858
 31
0.0
  0
LINE
  5
7091
  8
0
 10
56.5
 20
89.9999999999999858
 30
0.0
 11
56.5
 21
100.0
 31
0.0
  0
LINE
  5
7092
  8
0
 10
62.5
 20
100.0
 30
0.0
 11
62.5
 21
105.0
 31
0.0
  0
LINE
  5
7093
  8
0
 10
37.5
 20
105.0
 30
0.0
 11
37.5
 21
100.0
 31
0.0
  0
LINE
  5
7094
  8
0
 10
49.0
 20
100.0
 30
0.0
 11
49.0
 21
97.5
 31
0.0
  0
LINE
  5
7095
  8
0
 10
51.0
 20
97.5
 30
0.0
 11
51.0
 21
100.0
 31
0.0
  0
LINE
  5
7096
  8
0
 10
39.0
 20
100.0
 30
0.0
 11
39.0
 21
97.5
 31
0.0
  0
LINE
  5
7097
  8
0
 10
41.0
 20
97.5
 30
0.0
 11
41.0
 21
100.0
 31
0.0
  0
LINE
  5
7098
  8
0
 10
59.0
 20
100.0
 30
0.0
 11
59.0
 21
97.5
 31
0.0
  0
LINE
  5
7099
  8
0
 10
61.0
 20
97.5
 30
0.0
 11
61.0
 21
100.0
 31
0.0
  0
LINE
  5
709A
  8
0
 10
43.5
 20
89.9999999999999858
 30
0.0
 11
56.5
 21
89.9999999999999858
 31
0.0
  0
LINE
  5
709C
  8
0
 10
37.5
 20
105.0
 30
0.0
 11
62.5
 21
105.0
 31
0.0
  0
LINE
  5
709D
  8
0
 10
37.5
 20
100.0
 30
0.0
 11
62.5
 21
100.0
 31
0.0
  0
LINE
  5
709E
  8
0
 10
49.0
 20
97.5
 30
0.0
 11
51.0
 21
97.5
 31
0.0
  0
LINE
  5
709F
  8
0
 10
39.0
 20
97.5
 30
0.0
 11
41.0
 21
97.5
 31
0.0
  0
LINE
  5
70A0
  8
0
 10
59.0
 20
97.5
 30
0.0
 11
61.0
 21
97.5
 31
0.0
  0
LINE
  5
70A1
  8
2
 10
46.9499999999999886
 20
103.0
 30
0.0
 11
53.0499999999999616
 21
102.9999999999999005
 31
0.0
  0
LINE
  5
70A2
  8
2
 10
45.0
 20
97.395706005619104
 30
0.0
 11
55.0
 21
97.395706005619104
 31
0.0
  0
LINE
  5
70A3
  8
2
 10
50.0
 20
100.7732050803784034
 30
0.0
 11
53.0500000000000114
 21
100.7732050803784034
 31
0.0
  0
LINE
  5
70A4
  8
2
 10
46.9499999999999886
 20
100.7732050803784034
 30
0.0
 11
50.0
 21
100.7732050803784034
 31
0.0
  0
LINE
  5
70A5
  8
2
 10
48.0
 20
102.5
 30
0.0
 11
52.0
 21
102.5
 31
0.0
  0
LINE
  5
70A6
  8
2
 10
48.0999999999999872
 20
104.5
 30
0.0
 11
51.8999999999999702
 21
104.5
 31
0.0
  0
LINE
  5
70A7
  8
2
 10
58.0
 20
102.5
 30
0.0
 11
62.0
 21
102.5
 31
0.0
  0
LINE
  5
70A8
  8
2
 10
38.0
 20
102.5
 30
0.0
 11
42.0
 21
102.5
 31
0.0
  0
LINE
  5
70A9
  8
2
 10
38.1000000000000227
 20
104.5
 30
0.0
 11
41.8999999999999986
 21
104.5
 31
0.0
  0
LINE
  5
70AA
  8
2
 10
58.0999999999999872
 20
104.5
 30
0.0
 11
61.9000000000000128
 21
104.5
 31
0.0
  0
LINE
  5
70AB
  8
2
 10
44.9499999999999886
 20
105.0
 30
0.0
 11
46.9499999999999886
 21
103.0
 31
0.0
  0
LINE
  5
70AC
  8
2
 10
53.0500000000000114
 20
103.0
 30
0.0
 11
55.0500000000000114
 21
105.0
 31
0.0
  0
LINE
  5
70AD
  8
2
 10
55.0
 20
97.395706005619104
 30
0.0
 11
53.0500000000000114
 21
100.7732050803784034
 31
0.0
  0
LINE
  5
70AE
  8
2
 10
46.9499999999999886
 20
100.7732050803784034
 30
0.0
 11
45.0
 21
97.395706005619104
 31
0.0
  0
LINE
  5
70AF
  8
2
 10
45.0
 20
97.395706005619104
 30
0.0
 11
45.0
 21
89.9999999999999858
 31
0.0
  0
LINE
  5
70B0
  8
2
 10
55.0
 20
89.9999999999999858
 30
0.0
 11
55.0
 21
97.395706005619104
 31
0.0
  0
LINE
  5
70B1
  8
2
 10
46.9499999999999886
 20
103.0
 30
0.0
 11
46.9499999999999886
 21
100.7732050803784034
 31
0.0
  0
LINE
  5
70B2
  8
2
 10
53.0500000000000114
 20
100.7732050803784034
 30
0.0
 11
53.0500000000000114
 21
103.0
 31
0.0
  0
LINE
  5
70B3
  8
2
 10
48.0
 20
105.0
 30
0.0
 11
48.0
 21
102.5
 31
0.0
  0
LINE
  5
70B4
  8
2
 10
52.0
 20
102.5
 30
0.0
 11
52.0
 21
105.0
 31
0.0
  0
LINE
  5
70B5
  8
2
 10
51.8999999999999702
 20
102.5
 30
0.0
 11
51.8999999999999702
 21
104.5
 31
0.0
  0
LINE
  5
70B6
  8
2
 10
48.0999999999999872
 20
104.5
 30
0.0
 11
48.0999999999999872
 21
102.5
 31
0.0
  0
LINE
  5
70B7
  8
2
 10
57.25
 20
100.0
 30
0.0
 11
57.25
 21
105.0
 31
0.0
  0
LINE
  5
70B8
  8
2
 10
42.75
 20
105.0
 30
0.0
 11
42.75
 21
100.0
 31
0.0
  0
LINE
  5
70B9
  8
2
 10
58.0
 20
105.0
 30
0.0
 11
58.0
 21
102.5
 31
0.0
  0
LINE
  5
70BA
  8
2
 10
62.0
 20
102.5
 30
0.0
 11
62.0
 21
105.0
 31
0.0
  0
LINE
  5
70BB
  8
2
 10
38.0
 20
105.0
 30
0.0
 11
38.0
 21
102.5
 31
0.0
  0
LINE
  5
70BC
  8
2
 10
42.0
 20
102.5
 30
0.0
 11
42.0
 21
105.0
 31
0.0
  0
LINE
  5
70BD
  8
2
 10
41.8999999999999986
 20
102.5
 30
0.0
 11
41.8999999999999986
 21
104.5
 31
0.0
  0
LINE
  5
70BE
  8
2
 10
38.1000000000000227
 20
104.5
 30
0.0
 11
38.1000000000000227
 21
102.5
 31
0.0
  0
LINE
  5
70BF
  8
2
 10
61.9000000000000128
 20
102.5
 30
0.0
 11
61.9000000000000128
 21
104.5
 31
0.0
  0
LINE
  5
70C0
  8
2
 10
58.0999999999999872
 20
104.5
 30
0.0
 11
58.0999999999999872
 21
102.5
 31
0.0
  0
LINE
  5
70C1
  8
0
 10
93.4999999999999716
 20
100.0
 30
0.0
 11
93.4999999999999716
 21
89.9999999999999858
 31
0.0
  0
LINE
  5
70C2
  8
0
 10
106.4999999999999005
 20
90.0000000000000142
 30
0.0
 11
106.4999999999999005
 21
100.0
 31
0.0
  0
LINE
  5
70C3
  8
0
 10
112.5
 20
100.0
 30
0.0
 11
112.5
 21
105.0
 31
0.0
  0
LINE
  5
70C4
  8
0
 10
87.4999999999999858
 20
105.0
 30
0.0
 11
87.4999999999999858
 21
100.0
 31
0.0
  0
LINE
  5
70C5
  8
0
 10
98.9999999999999858
 20
100.0
 30
0.0
 11
98.9999999999999858
 21
97.5
 31
0.0
  0
LINE
  5
70C6
  8
0
 10
101.0
 20
97.5
 30
0.0
 11
101.0
 21
100.0
 31
0.0
  0
LINE
  5
70C7
  8
0
 10
108.9999999999999005
 20
100.0
 30
0.0
 11
108.9999999999999005
 21
97.5
 31
0.0
  0
LINE
  5
70C8
  8
0
 10
110.9999999999999005
 20
97.5
 30
0.0
 11
110.9999999999999005
 21
100.0
 31
0.0
  0
LINE
  5
70C9
  8
0
 10
88.9999999999999574
 20
100.0
 30
0.0
 11
88.9999999999999574
 21
97.5
 31
0.0
  0
LINE
  5
70CA
  8
0
 10
90.9999999999999716
 20
97.5
 30
0.0
 11
90.9999999999999716
 21
100.0
 31
0.0
  0
LINE
  5
70CB
  8
0
 10
93.4999999999999716
 20
89.9999999999999858
 30
0.0
 11
106.4999999999999005
 21
90.0000000000000142
 31
0.0
  0
LINE
  5
70CC
  8
0
 10
99.9999999999999858
 20
105.0
 30
0.0
 11
112.5
 21
105.0
 31
0.0
  0
LINE
  5
70CD
  8
0
 10
87.4999999999999858
 20
105.0
 30
0.0
 11
99.9999999999999858
 21
105.0
 31
0.0
  0
LINE
  5
70CE
  8
0
 10
87.4999999999999858
 20
100.0
 30
0.0
 11
112.5
 21
100.0
 31
0.0
  0
LINE
  5
70CF
  8
0
 10
98.9999999999999858
 20
97.5
 30
0.0
 11
101.0
 21
97.5
 31
0.0
  0
LINE
  5
70D0
  8
0
 10
108.9999999999999005
 20
97.5
 30
0.0
 11
110.9999999999999005
 21
97.5
 31
0.0
  0
LINE
  5
70D1
  8
0
 10
88.9999999999999574
 20
97.5
 30
0.0
 11
90.9999999999999716
 21
97.5
 31
0.0
  0
LINE
  5
70D5
  8
2
 10
96.9499999999999034
 20
103.0
 30
0.0
 11
103.0499999999998977
 21
103.0
 31
0.0
  0
LINE
  5
70D6
  8
2
 10
94.9999999999999858
 20
97.395706005619104
 30
0.0
 11
105.0
 21
97.3957060056191324
 31
0.0
  0
LINE
  5
70D7
  8
2
 10
96.9499999999999034
 20
100.7732050803784034
 30
0.0
 11
103.0499999999998977
 21
100.7732050803784034
 31
0.0
  0
LINE
  5
70D8
  8
2
 10
97.9999999999999716
 20
102.5
 30
0.0
 11
102.0
 21
102.5
 31
0.0
  0
LINE
  5
70D9
  8
2
 10
98.0999999999999943
 20
104.5
 30
0.0
 11
101.8999999999999062
 21
104.5
 31
0.0
  0
LINE
  5
70DA
  8
2
 10
94.2499999999999716
 20
100.0
 30
0.0
 11
94.2499999999999716
 21
101.5317541634480989
 31
0.0
  0
LINE
  5
70DB
  8
2
 10
105.7499999999999005
 20
100.0
 30
0.0
 11
105.7499999999999005
 21
101.5317541634480989
 31
0.0
  0
LINE
  5
70DC
  8
2
 10
105.7499999999999005
 20
103.4682458365518016
 30
0.0
 11
105.7499999999999005
 21
105.0
 31
0.0
  0
LINE
  5
70DD
  8
2
 10
94.2499999999999716
 20
103.4682458365518016
 30
0.0
 11
94.2499999999999716
 21
105.0
 31
0.0
  0
CIRCLE
  5
70E1
  8
2
 10
105.4999999999999005
 20
102.5
 30
0.0
 40
1.0
  0
CIRCLE
  5
70E2
  8
2
 10
94.4999999999999716
 20
102.5
 30
0.0
 40
1.0
  0
LINE
  5
70E3
  8
2
 10
108.0
 20
102.5
 30
0.0
 11
111.9999999999999005
 21
102.5
 31
0.0
  0
LINE
  5
70E4
  8
2
 10
87.9999999999999716
 20
102.5
 30
0.0
 11
91.9999999999999716
 21
102.5
 31
0.0
  0
LINE
  5
70E5
  8
2
 10
108.0999999999999943
 20
104.5
 30
0.0
 11
111.8999999999999062
 21
104.5
 31
0.0
  0
LINE
  5
70E6
  8
2
 10
88.0999999999999659
 20
104.5
 30
0.0
 11
91.8999999999999631
 21
104.5
 31
0.0
  0
LINE
  5
70E7
  8
2
 10
94.9499999999999034
 20
105.0
 30
0.0
 11
96.9499999999999034
 21
103.0
 31
0.0
  0
LINE
  5
70E8
  8
2
 10
103.0499999999998977
 20
103.0
 30
0.0
 11
105.0499999999998977
 21
105.0
 31
0.0
  0
LINE
  5
70E9
  8
2
 10
94.9999999999999858
 20
97.395706005619104
 30
0.0
 11
94.9999999999999858
 21
89.9999999999999858
 31
0.0
  0
LINE
  5
70EA
  8
2
 10
105.0
 20
90.0000000000000142
 30
0.0
 11
105.0
 21
97.3957060056191324
 31
0.0
  0
LINE
  5
70EB
  8
2
 10
105.0
 20
97.3957060056191324
 30
0.0
 11
103.0499999999998977
 21
100.7732050803784034
 31
0.0
  0
LINE
  5
70EC
  8
2
 10
96.9499999999999602
 20
100.7732050803784034
 30
0.0
 11
94.9999999999999858
 21
97.395706005619104
 31
0.0
  0
LINE
  5
70ED
  8
2
 10
96.9499999999999034
 20
103.0
 30
0.0
 11
96.9499999999999034
 21
100.7732050803784034
 31
0.0
  0
LINE
  5
70EE
  8
2
 10
103.0499999999998977
 20
100.7732050803784034
 30
0.0
 11
103.0499999999998977
 21
103.0
 31
0.0
  0
LINE
  5
70EF
  8
2
 10
97.9999999999999716
 20
105.0
 30
0.0
 11
97.9999999999999716
 21
102.5
 31
0.0
  0
LINE
  5
70F0
  8
2
 10
102.0
 20
102.5
 30
0.0
 11
102.0
 21
105.0
 31
0.0
  0
LINE
  5
70F1
  8
2
 10
101.8999999999999062
 20
102.5
 30
0.0
 11
101.8999999999999062
 21
104.5
 31
0.0
  0
LINE
  5
70F2
  8
2
 10
98.0999999999999943
 20
104.5
 30
0.0
 11
98.0999999999999943
 21
102.5
 31
0.0
  0
LINE
  5
70F3
  8
2
 10
108.0
 20
105.0
 30
0.0
 11
108.0
 21
102.5
 31
0.0
  0
LINE
  5
70F4
  8
2
 10
111.9999999999999005
 20
102.5
 30
0.0
 11
111.9999999999999005
 21
105.0
 31
0.0
  0
LINE
  5
70F5
  8
2
 10
87.9999999999999716
 20
105.0
 30
0.0
 11
87.9999999999999716
 21
102.5
 31
0.0
  0
LINE
  5
70F6
  8
2
 10
91.9999999999999716
 20
102.5
 30
0.0
 11
91.9999999999999716
 21
105.0
 31
0.0
  0
LINE
  5
70F7
  8
2
 10
111.8999999999999062
 20
102.5
 30
0.0
 11
111.8999999999999062
 21
104.5
 31
0.0
  0
LINE
  5
70F8
  8
2
 10
108.0999999999999943
 20
104.5
 30
0.0
 11
108.0999999999999943
 21
102.5
 31
0.0
  0
LINE
  5
70F9
  8
2
 10
91.8999999999999631
 20
102.5
 30
0.0
 11
91.8999999999999631
 21
104.5
 31
0.0
  0
LINE
  5
70FA
  8
2
 10
88.0999999999999659
 20
104.5
 30
0.0
 11
88.0999999999999659
 21
102.5
 31
0.0
  0
LINE
  5
70FB
  8
0
 10
55.0714300479140206
 20
45.5000000000000284
 30
0.0
 11
54.6904157598233667
 21
45.5000000000000284
 31
0.0
  0
LINE
  5
70FC
  8
0
 10
45.3095842401766333
 20
45.5000000000000284
 30
0.0
 11
44.9285699520859723
 21
45.5000000000000284
 31
0.0
  0
LINE
  5
70FD
  8
0
 10
44.9285699520859723
 20
54.5000000000000213
 30
0.0
 11
45.3095842401764912
 21
54.5000000000000213
 31
0.0
  0
LINE
  5
70FE
  8
0
 10
54.6904157598234804
 20
54.5000000000000213
 30
0.0
 11
55.0714300479140206
 21
54.5000000000000213
 31
0.0
  0
CIRCLE
  5
70FF
  8
0
 10
50.0
 20
50.0
 30
0.0
 40
5.0000000000000142
  0
CIRCLE
  5
7100
  8
0
 10
50.0
 20
50.0
 30
0.0
 40
6.5000000000000142
  0
CIRCLE
  5
7101
  8
0
 10
50.0
 20
50.0000000000000426
 30
0.0
 40
3.0499999999999972
  0
CIRCLE
  5
7102
  8
0
 10
50.0
 20
40.0000000000000213
 30
0.0
 40
1.0
  0
CIRCLE
  5
7103
  8
0
 10
60.0
 20
50.0000000000000071
 30
0.0
 40
1.0
  0
CIRCLE
  5
7104
  8
0
 10
40.0
 20
50.0000000000000284
 30
0.0
 40
1.0
  0
CIRCLE
  5
7105
  8
0
 10
50.0
 20
60.0000000000000284
 30
0.0
 40
1.0
  0
CIRCLE
  5
7106
  8
0
 10
42.5
 20
55.5000000000056986
 30
0.0
 40
0.7250000000000086
  0
CIRCLE
  5
7107
  8
0
 10
57.5000000000021885
 20
44.4999999999996874
 30
0.0
 40
0.7250000000000086
  0
CIRCLE
  5
7108
  8
0
 10
50.0
 20
50.0000000000000284
 30
0.0
 40
12.5
  0
ARC
  5
7109
  8
0
 10
48.5
 20
50.0000000000000284
 30
0.0
 40
5.7499999999999991
 50
113.7141508053488934
 51
246.2858491946564072
  0
ARC
  5
710A
  8
0
 10
51.5
 20
50.0000000000000284
 30
0.0
 40
5.749999999999992
 50
293.7141508053452981
 51
66.2858491946511208
  0
LINE
  5
710B
  8
1
 10
32.5
 20
50.0000000000000284
 30
0.0
 11
67.5
 21
50.0000000000000284
 31
0.0
  0
LINE
  5
710C
  8
1
 10
50.0
 20
67.5000000000000284
 30
0.0
 11
50.0
 21
32.5000000000000284
 31
0.0
  0
CIRCLE
  5
710D
  8
1
 10
50.0
 20
50.0000000000000426
 30
0.0
 40
9.9999999999999858
  0
LINE
  5
710E
  8
1
 10
32.5
 20
150.0
 30
0.0
 11
67.5
 21
150.0
 31
0.0
  0
LINE
  5
710F
  8
1
 10
50.0
 20
167.5
 30
0.0
 11
50.0
 21
132.5
 31
0.0
  0
CIRCLE
  5
7110
  8
1
 10
50.0
 20
150.0
 30
0.0
 40
9.9999999999999858
  0
LINE
  5
7111
  8
1
 10
40.0
 20
94.4999999999999858
 30
0.0
 11
40.0
 21
107.5
 31
0.0
  0
LINE
  5
7112
  8
1
 10
50.0
 20
110.0
 30
0.0
 11
50.0000000000001066
 21
84.9999999999999574
 31
0.0
  0
LINE
  5
7113
  8
3
 10
40.7999999999999972
 20
97.5000000559001023
 30
0.0
 11
40.7999999999999972
 21
100.0000000559001023
 31
0.0
  0
LINE
  5
7114
  8
3
 10
39.2000000000000028
 20
97.5
 30
0.0
 11
39.2000000000000028
 21
100.0
 31
0.0
  0
LINE
  5
7115
  8
2
 10
41.0
 20
100.0
 30
0.0
 11
41.0
 21
102.5
 31
0.0
  0
LINE
  5
7116
  8
2
 10
39.0
 20
100.0
 30
0.0
 11
39.0
 21
102.5
 31
0.0
  0
LINE
  5
711B
  8
2
 10
51.0000000000000284
 20
100.0
 30
0.0
 11
51.0000000000000284
 21
102.5
 31
0.0
  0
LINE
  5
711C
  8
2
 10
49.0000000000000497
 20
100.0
 30
0.0
 11
49.0000000000000497
 21
102.5
 31
0.0
  0
LINE
  5
711D
  8
1
 10
60.0
 20
94.4999999999999858
 30
0.0
 11
60.0
 21
107.5
 31
0.0
  0
LINE
  5
711E
  8
2
 10
61.0
 20
100.0
 30
0.0
 11
61.0
 21
102.5
 31
0.0
  0
LINE
  5
711F
  8
2
 10
59.0
 20
100.0
 30
0.0
 11
59.0
 21
102.5
 31
0.0
  0
LINE
  5
7120
  8
2
 10
110.9999999999999005
 20
100.0
 30
0.0
 11
110.9999999999999005
 21
102.5
 31
0.0
  0
LINE
  5
7121
  8
2
 10
108.9999999999999005
 20
100.0
 30
0.0
 11
108.9999999999999005
 21
102.5
 31
0.0
  0
LINE
  5
7122
  8
2
 10
101.0
 20
100.0
 30
0.0
 11
101.0
 21
102.5
 31
0.0
  0
LINE
  5
7123
  8
2
 10
98.9999999999999858
 20
100.0
 30
0.0
 11
98.9999999999999858
 21
102.5
 31
0.0
  0
LINE
  5
7124
  8
2
 10
90.9999999999999716
 20
100.0
 30
0.0
 11
90.9999999999999716
 21
102.5
 31
0.0
  0
LINE
  5
7125
  8
2
 10
88.9999999999999574
 20
100.0
 30
0.0
 11
88.9999999999999574
 21
102.5
 31
0.0
  0
LINE
  5
7128
  8
1
 10
89.9999999999999858
 20
94.5000000000000142
 30
0.0
 11
89.9999999999999858
 21
107.5
 31
0.0
  0
LINE
  5
712B
  8
1
 10
109.9999999999999005
 20
94.5000000000000142
 30
0.0
 11
109.9999999999999005
 21
107.5
 31
0.0
  0
LINE
  5
712C
  8
1
 10
99.9999999999999147
 20
110.0
 30
0.0
 11
100.0
 21
84.9999999999999858
 31
0.0
  0
LINE
  5
712F
  8
2
 10
55.75
 20
100.0
 30
0.0
 11
55.75
 21
105.0
 31
0.0
  0
LINE
  5
7130
  8
2
 10
44.2499999999999929
 20
100.0
 30
0.0
 11
44.2499999999999929
 21
105.0
 31
0.0
  0
LINE
  5
7131
  8
1
 10
51.0
 20
156.0500000000000114
 30
0.0
 11
51.0
 21
143.9499999999999886
 31
0.0
  0
LINE
  5
7132
  8
1
 10
49.0
 20
156.0500000000000114
 30
0.0
 11
49.0
 21
143.9499999999999886
 31
0.0
  0
CIRCLE
  5
7133
  8
5
 10
51.0
 20
150.0
 30
0.0
 40
3.0499999999999821
  0
CIRCLE
  5
7134
  8
5
 10
49.0
 20
150.0
 30
0.0
 40
3.0499999999999821
  0
CIRCLE
  5
7135
  8
0
 10
105.4999999999999005
 20
102.5
 30
0.0
 40
1.25
  0
CIRCLE
  5
7136
  8
3
 10
60.0
 20
50.0000000000000071
 30
0.0
 40
0.7999999999999829
  0
CIRCLE
  5
7137
  8
3
 10
50.0
 20
60.0
 30
0.0
 40
0.7999999999999546
  0
CIRCLE
  5
7138
  8
3
 10
40.0
 20
50.0
 30
0.0
 40
0.8000000000000042
  0
CIRCLE
  5
7139
  8
3
 10
50.0
 20
40.0000000000000213
 30
0.0
 40
0.7999999999999546
  0
POLYLINE
  5
7150
  8
0
 66
     1
 10
0.0
 20
0.0
 30
0.0
 70
     1
  0
VERTEX
  5
91A9
  8
0
 10
38.7750278396781596
 20
103.75
 30
0.0
  0
VERTEX
  5
91AA
  8
0
 10
38.7183675519157333
 20
103.7445670285697048
 30
0.0
  0
VERTEX
  5
91AB
  8
0
 10
38.6636583932776929
 20
103.7281510558221953
 30
0.0
  0
VERTEX
  5
91AC
  8
0
 10
38.6109817039211833
 20
103.7005764940722941
 30
0.0
  0
VERTEX
  5
91AD
  8
0
 10
38.5604188240033707
 20
103.6616677556351931
 30
0.0
  0
VERTEX
  5
91AE
  8
0
 10
38.5125541770573179
 20
103.6116625457263041
 30
0.0
  0
VERTEX
  5
91AF
  8
0
 10
38.4679859094638701
 20
103.5509554994141013
 30
0.0
  0
VERTEX
  5
91B0
  8
0
 10
38.4268159456517608
 20
103.4796064237931006
 30
0.0
  0
VERTEX
  5
91B1
  8
0
 10
38.3891462100497378
 20
103.3976751259577043
 30
0.0
  0
VERTEX
  5
91B2
  8
0
 10
38.3260490868199781
 20
103.2062759911106014
 30
0.0
  0
VERTEX
  5
91B3
  8
0
 10
38.2800079150556769
 20
102.9815229078792953
 30
0.0
  0
VERTEX
  5
91B4
  8
0
 10
38.252775277134802
 20
102.7345022183883003
 30
0.0
  0
VERTEX
  5
91B5
  8
0
 10
38.2447611617944716
 20
102.476612936588694
 30
0.0
  0
VERTEX
  5
91B6
  8
0
 10
38.2562672211323687
 20
102.2198350050382061
 30
0.0
  0
VERTEX
  5
91B7
  8
0
 10
38.2870053658002689
 20
101.9756592769639951
 30
0.0
  0
VERTEX
  5
91B8
  8
0
 10
38.336321186962941
 20
101.7563251686910064
 30
0.0
  0
VERTEX
  5
91B9
  8
0
 10
38.4029541534901071
 20
101.570154306324099
 30
0.0
  0
VERTEX
  5
91BA
  8
0
 10
38.4422351749495306
 20
101.4918315936610043
 30
0.0
  0
VERTEX
  5
91BB
  8
0
 10
38.4850180575929386
 20
101.4241957657260969
 30
0.0
  0
VERTEX
  5
91BC
  8
0
 10
38.5309858746547675
 20
101.3674664107363981
 30
0.0
  0
VERTEX
  5
91BD
  8
0
 10
38.5798216993693828
 20
101.3218631169088013
 30
0.0
  0
VERTEX
  5
91BE
  8
0
 10
38.6313117348889818
 20
101.2874863940435972
 30
0.0
  0
VERTEX
  5
91BF
  8
0
 10
38.6851145825216705
 20
101.2642405245320987
 30
0.0
  0
VERTEX
  5
91C0
  8
0
 10
38.7407219127356015
 20
101.2520507554786064
 30
0.0
  0
VERTEX
  5
91C1
  8
0
 10
38.7976253959989492
 20
101.2508423339870944
 30
0.0
  0
VERTEX
  5
91C2
  8
0
 10
38.8556109873629225
 20
101.2605251183575064
 30
0.0
  0
VERTEX
  5
91C3
  8
0
 10
38.9143760213650012
 20
101.2808688819666969
 30
0.0
  0
VERTEX
  5
91C4
  8
0
 10
39.0316793760739031
 20
101.3523998257794005
 30
0.0
  0
VERTEX
  5
91C5
  8
0
 10
39.1458031309904371
 20
101.4642921480981954
 30
0.0
  0
VERTEX
  5
91C6
  8
0
 10
39.2519648293185028
 20
101.6142226955861929
 30
0.0
  0
VERTEX
  5
91C7
  8
0
 10
39.3448342504724522
 20
101.800605143652902
 30
0.0
  0
VERTEX
  5
91C8
  8
0
 10
39.4181895598327117
 20
102.0195228827383005
 30
0.0
  0
VERTEX
  5
91C9
  8
0
 10
39.4648831965254132
 20
102.2646953354140038
 30
0.0
  0
VERTEX
  5
91CA
  8
0
 10
39.4790625653151324
 20
102.5220451483414053
 30
0.0
  0
VERTEX
  5
91CB
  8
0
 10
39.4587473421492092
 20
102.7797849349252033
 30
0.0
  0
VERTEX
  5
91CC
  8
0
 10
39.4070652439020392
 20
103.0210084198533025
 30
0.0
  0
VERTEX
  5
91CD
  8
0
 10
39.3295964266037501
 20
103.2350552323809012
 30
0.0
  0
VERTEX
  5
91CE
  8
0
 10
39.2333494679249384
 20
103.4160229495973056
 30
0.0
  0
VERTEX
  5
91CF
  8
0
 10
39.1249878552663617
 20
103.5596489608570039
 30
0.0
  0
VERTEX
  5
91D0
  8
0
 10
39.0094671593352587
 20
103.6643745465757007
 30
0.0
  0
VERTEX
  5
91D1
  8
0
 10
38.8916593668921209
 20
103.7283712796670017
 30
0.0
  0
VERTEX
  5
91D2
  8
0
 10
38.8330417107462011
 20
103.7445650252946052
 30
0.0
  0
VERTEX
  5
91D3
  8
0
 10
38.7750278396781667
 20
103.75
 30
0.0
  0
SEQEND
  5
91D4
  8
0
  0
LINE
  5
8077
  8
2
 10
40.9999996982512585
 20
101.3000000000207024
 30
0.0
 11
38.9999993704257122
 21
101.3000000000207024
 31
0.0
  0
LINE
  5
8078
  8
2
 10
40.7999999999999972
 20
101.3000000000207024
 30
0.0
 11
40.7999999999999972
 21
100.0000000559001023
 31
0.0
  0
LINE
  5
8079
  8
2
 10
39.2000000000000028
 20
101.3000000000207024
 30
0.0
 11
39.2000000000000028
 21
100.0000000559001023
 31
0.0
  0
LINE
  5
807A
  8
2
 10
39.0
 20
101.6464101615341065
 30
0.0
 11
39.2000000000000028
 21
101.3000000000207024
 31
0.0
  0
LINE
  5
807B
  8
2
 10
41.0
 20
101.6464101615345044
 30
0.0
 11
40.7999999999999972
 21
101.3000000000207024
 31
0.0
  0
TEXT
  5
8724
  8
0
 62
     3
 10
148.8043734816064898
 20
0.0
 30
0.0
 40
3.2000000000000002
  1
■ケースの取付け方法 (下図)
  0
TEXT
  5
8725
  8
0
 62
     3
 10
148.8043734816064898
 20
-7.0
 30
0.0
 40
3.2000000000000002
  1
■Installation Instructions for Floating Receptacles (see diagram below)
  0
LINE
  5
8744
  8
0
 10
244.1793734816064898
 20
-103.426666666666506
 30
0.0
 11
288.1793734816064898
 21
-103.426666666666506
 31
0.0
  0
LINE
  5
8745
  8
0
 10
244.1793734816064898
 20
-112.426666666666506
 30
0.0
 11
288.1793734816064898
 21
-112.426666666666506
 31
0.0
  0
LINE
  5
8746
  8
0
 10
253.6793734816064898
 20
-108.926666666666506
 30
0.0
 11
278.6793734816064898
 21
-108.926666666666506
 31
0.0
  0
LINE
  5
8749
  8
1
 10
266.1793734816064898
 20
-100.426666666666506
 30
0.0
 11
266.1793734816064898
 21
-115.426666666666506
 31
0.0
  0
LINE
  5
874A
  8
0
 10
278.6793734816064898
 20
-103.926666666666506
 30
0.0
 11
278.6793734816064898
 21
-108.926666666666506
 31
0.0
  0
LINE
  5
874B
  8
0
 10
253.6793734816064898
 20
-103.926666666666506
 30
0.0
 11
253.6793734816064898
 21
-108.926666666666506
 31
0.0
  0
LINE
  5
874C
  8
0
 10
258.1793734816064898
 20
-111.926666666666506
 30
0.0
 11
258.1793734816064898
 21
-109.426666666666307
 31
0.0
  0
LINE
  5
874D
  8
0
 10
274.1793734816064898
 20
-111.9266666666666055
 30
0.0
 11
274.1793734816064898
 21
-109.4266666666664065
 31
0.0
  0
LINE
  5
874E
  8
0
 10
253.6793734816064898
 20
-103.926666666666506
 30
0.0
 11
253.1793734816064898
 21
-103.426666666666506
 31
0.0
  0
LINE
  5
874F
  8
0
 10
278.6793734816064898
 20
-103.9266666666667049
 30
0.0
 11
279.1793734816064898
 21
-103.4266666666667049
 31
0.0
  0
LINE
  5
8750
  8
0
 10
253.6793734816064898
 20
-103.926666666666506
 30
0.0
 11
278.6793734816064898
 21
-103.926666666666506
 31
0.0
  0
LINE
  5
8751
  8
0
 10
258.1793734816064898
 20
-111.926666666666506
 30
0.0
 11
257.6793734816064898
 21
-112.426666666666506
 31
0.0
  0
LINE
  5
8752
  8
0
 10
274.1793734816064898
 20
-111.926666666666506
 30
0.0
 11
274.6793734816064898
 21
-112.426666666666506
 31
0.0
  0
LINE
  5
8753
  8
0
 10
258.1793734816064898
 20
-111.9266666666666055
 30
0.0
 11
274.1793734816064898
 21
-111.9266666666666055
 31
0.0
  0
LINE
  5
8754
  8
0
 10
258.1793734816064898
 20
-109.426666666666506
 30
0.0
 11
257.6793734816064898
 21
-108.926666666666506
 31
0.0
  0
LINE
  5
8755
  8
0
 10
274.1793734816064898
 20
-109.426666666666506
 30
0.0
 11
274.6793734816064898
 21
-108.926666666666506
 31
0.0
  0
LINE
  5
8756
  8
0
 10
258.1793734816064898
 20
-109.426666666666307
 30
0.0
 11
274.1793734816064898
 21
-109.426666666666307
 31
0.0
  0
TEXT
  5
87F3
  8
0
 62
     3
 10
180.8627068149397985
 20
-81.1713629811608826
 30
0.0
 40
3.2000000000000002
  1
組付け状態
 72
     1
 11
189.9293734816064898
 21
-81.1713629811608826
 31
0.0
  0
POLYLINE
  5
87F4
  8
5
 66
     1
 10
0.0
 20
0.0
 30
0.0
 70
     1
  0
VERTEX
  5
91D5
  8
5
 10
148.8043734816064898
 20
-10.0
 30
0.0
  0
VERTEX
  5
91D6
  8
5
 10
468.8043734816064898
 20
-10.0
 30
0.0
  0
VERTEX
  5
91D7
  8
5
 10
468.8043734816064898
 20
-152.3343189959819881
 30
0.0
  0
VERTEX
  5
91D8
  8
5
 10
148.8043734816064898
 20
-152.3343189959819881
 30
0.0
  0
SEQEND
  5
91D9
  8
5
  0
TEXT
  5
87F5
  8
0
 62
     3
 10
258.9260401482732163
 20
-136.8238487065829929
 30
0.0
 40
3.2000000000000002
  1
取付け穴
 72
     1
 11
266.1793734816064898
 21
-136.8238487065829929
 31
0.0
  0
TEXT
  5
87F6
  8
0
 62
     3
 10
168.71337348160651
 20
-88.1713629811608683
 30
0.0
 40
3.2000000000000002
  1
Installed condition
 41
0.85
 72
     1
 11
189.9293734816064898
 21
-88.1713629811608683
 31
0.0
  0
TEXT
  5
87F7
  8
0
 62
     3
 10
247.4567068149397926
 20
-143.8238487065829929
 30
0.0
 40
3.2000000000000002
  1
Installation hole
 41
0.85
 72
     1
 11
266.1793734816064898
 21
-143.8238487065829929
 31
0.0
  0
TEXT
  5
87F8
  8
0
 62
     3
 10
358.4043734816065125
 20
-20.0000000000000107
 30
0.0
 40
3.2000000000000002
  1
16mm以上のベースに固定する場合
 72
     1
 11
388.8043734816064898
 21
-20.4266666666666801
 31
0.0
 73
     1
  0
TEXT
  5
87F9
  8
0
 62
     3
 10
423.4260401482731027
 20
-136.8238487065829929
 30
0.0
 40
3.2000000000000002
  1
取付け穴
 72
     1
 11
430.6793734816063761
 21
-136.8238487065829929
 31
0.0
  0
TEXT
  5
87FA
  8
0
 62
     3
 10
411.956706814939821
 20
-143.8238487065829929
 30
0.0
 40
3.2000000000000002
  1
Installation hole
 41
0.85
 72
     1
 11
430.6793734816063761
 21
-143.8238487065829929
 31
0.0
  0
TEXT
  5
87FB
  8
0
 62
     3
 10
345.3627068149398269
 20
-81.1713629811608826
 30
0.0
 40
3.2000000000000002
  1
組付け状態
 72
     1
 11
354.4293734816064898
 21
-81.1713629811608826
 31
0.0
  0
TEXT
  5
87FC
  8
0
 62
     3
 10
333.2133734816064816
 20
-88.1713629811608683
 30
0.0
 40
3.2000000000000002
  1
Installed condition
 41
0.85
 72
     1
 11
354.4293734816064898
 21
-88.1713629811608683
 31
0.0
  0
TEXT
  5
87FD
  8
0
 62
     3
 10
321.6577068149398997
 20
-27.0000000000000107
 30
0.0
 40
3.2000000000000002
  1
For installation on plate of over 16 mm thickness.
 72
     1
 11
388.8043734816064898
 21
-27.4266666666666801
 31
0.0
 73
     1
  0
TEXT
  5
88BC
  8
0
 62
     3
 10
189.0143734816064978
 20
-20.0000000000000107
 30
0.0
 40
3.2000000000000002
  1
9mm以上16mm未満のベースに固定する場合
 72
     1
 11
228.0543734816064898
 21
-20.4266666666666801
 31
0.0
 73
     1
  0
TEXT
  5
88BD
  8
0
 62
     3
 10
154.1877068149399008
 20
-27.0000000000000107
 30
0.0
 40
3.2000000000000002
  1
For installation on plate of over 9 to 16 mm thickness.
 72
     1
 11
228.0543734816064898
 21
-27.4266666666666801
 31
0.0
 73
     1
  0
LINE
  5
8D0F
  8
3
 10
275.1793734816064898
 20
-109.1266666666663951
 30
0.0
 11
275.1793734816064898
 21
-112.426666666666506
 31
0.0
  0
LINE
  5
8D10
  8
0
 10
275.3793734816064784
 20
-109.3266666666664975
 30
0.0
 11
275.3793734816064784
 21
-112.426666666666506
 31
0.0
  0
LINE
  5
8D11
  8
0
 10
276.9793734816066717
 20
-109.3266666666664975
 30
0.0
 11
276.9793734816066149
 21
-112.426666666666506
 31
0.0
  0
LINE
  5
8D12
  8
3
 10
277.1793734816064898
 20
-109.1266666666663951
 30
0.0
 11
277.1793734816064898
 21
-112.426666666666506
 31
0.0
  0
LINE
  5
8D19
  8
0
 10
276.9793734816066717
 20
-109.3266666666664975
 30
0.0
 11
275.3793734816064784
 21
-109.3266666666664975
 31
0.0
  0
LINE
  5
8D1A
  8
0
 10
275.3793734816064784
 20
-109.3266666666664975
 30
0.0
 11
274.9793734816066717
 21
-108.926666666666506
 31
0.0
  0
LINE
  5
8D1B
  8
1
 10
276.1793734816064898
 20
-107.926666666666506
 30
0.0
 11
276.1793734816064898
 21
-113.426666666666506
 31
0.0
  0
LINE
  5
8D1C
  8
0
 10
276.9793734816063875
 20
-109.3266666666664975
 30
0.0
 11
277.3793734816064784
 21
-108.926666666666506
 31
0.0
  0
LINE
  5
8D21
  8
3
 10
255.1793734816064898
 20
-109.1266666666663951
 30
0.0
 11
255.1793734816064898
 21
-112.426666666666506
 31
0.0
  0
LINE
  5
8D22
  8
0
 10
255.3793734816065069
 20
-109.3266666666664975
 30
0.0
 11
255.3793734816065069
 21
-112.426666666666506
 31
0.0
  0
LINE
  5
8D23
  8
0
 10
256.9793734816066717
 20
-109.3266666666664975
 30
0.0
 11
256.9793734816065012
 21
-112.426666666666506
 31
0.0
  0
LINE
  5
8D24
  8
3
 10
257.1793734816064898
 20
-109.1266666666663951
 30
0.0
 11
257.1793734816064898
 21
-112.426666666666506
 31
0.0
  0
LINE
  5
8D2B
  8
0
 10
256.9793734816066717
 20
-109.3266666666664975
 30
0.0
 11
255.3793734816065069
 21
-109.3266666666664975
 31
0.0
  0
LINE
  5
8D2C
  8
0
 10
255.3793734816065069
 20
-109.3266666666664975
 30
0.0
 11
254.9793734816067001
 21
-108.926666666666506
 31
0.0
  0
LINE
  5
8D2D
  8
1
 10
256.1793734816064898
 20
-107.926666666666506
 30
0.0
 11
256.1793734816064898
 21
-113.426666666666506
 31
0.0
  0
LINE
  5
8D2E
  8
0
 10
256.9793734816065012
 20
-109.3266666666664975
 30
0.0
 11
257.3793734816064784
 21
-108.926666666666506
 31
0.0
  0
LINE
  5
8D3B
  8
0
 10
408.6793734816064898
 20
-103.426666666666506
 30
0.0
 11
452.6793734816064898
 21
-103.426666666666506
 31
0.0
  0
LINE
  5
8D3C
  8
0
 10
408.6793734816064898
 20
-121.426666666666506
 30
0.0
 11
452.6793734816064898
 21
-121.426666666666506
 31
0.0
  0
LINE
  5
8D3D
  8
0
 10
418.1793734816063761
 20
-108.926666666666506
 30
0.0
 11
443.1793734816063761
 21
-108.926666666666506
 31
0.0
  0
LINE
  5
8D3E
  8
1
 10
430.6793734816063761
 20
-100.426666666666506
 30
0.0
 11
430.6793734816063761
 21
-124.426666666666506
 31
0.0
  0
LINE
  5
8D3F
  8
0
 10
443.1793734816063761
 20
-103.926666666666506
 30
0.0
 11
443.1793734816063761
 21
-108.926666666666506
 31
0.0
  0
LINE
  5
8D40
  8
0
 10
418.1793734816063761
 20
-103.926666666666506
 30
0.0
 11
418.1793734816063761
 21
-108.926666666666506
 31
0.0
  0
LINE
  5
8D41
  8
0
 10
422.6793734816063761
 20
-120.926666666666506
 30
0.0
 11
422.6793734816063761
 21
-109.426666666666307
 31
0.0
  0
LINE
  5
8D42
  8
0
 10
438.6793734816063761
 20
-120.9266666666666055
 30
0.0
 11
438.6793734816063761
 21
-109.4266666666664065
 31
0.0
  0
LINE
  5
8D43
  8
0
 10
418.1793734816063761
 20
-103.926666666666506
 30
0.0
 11
417.6793734816063761
 21
-103.426666666666506
 31
0.0
  0
LINE
  5
8D44
  8
0
 10
443.1793734816063761
 20
-103.9266666666667049
 30
0.0
 11
443.6793734816063761
 21
-103.4266666666667049
 31
0.0
  0
LINE
  5
8D45
  8
0
 10
418.1793734816063761
 20
-103.926666666666506
 30
0.0
 11
443.1793734816063761
 21
-103.926666666666506
 31
0.0
  0
LINE
  5
8D46
  8
0
 10
422.6793734816063761
 20
-120.926666666666506
 30
0.0
 11
422.1793734816063761
 21
-121.426666666666506
 31
0.0
  0
LINE
  5
8D47
  8
0
 10
438.6793734816063761
 20
-120.926666666666506
 30
0.0
 11
439.1793734816063761
 21
-121.426666666666506
 31
0.0
  0
LINE
  5
8D48
  8
0
 10
422.6793734816063761
 20
-120.9266666666666055
 30
0.0
 11
438.6793734816063761
 21
-120.9266666666666055
 31
0.0
  0
LINE
  5
8D49
  8
0
 10
422.6793734816063761
 20
-109.426666666666506
 30
0.0
 11
422.1793734816063761
 21
-108.926666666666506
 31
0.0
  0
LINE
  5
8D4A
  8
0
 10
438.6793734816063761
 20
-109.426666666666506
 30
0.0
 11
439.1793734816063761
 21
-108.926666666666506
 31
0.0
  0
LINE
  5
8D4B
  8
0
 10
422.6793734816063761
 20
-109.426666666666307
 30
0.0
 11
438.6793734816063761
 21
-109.426666666666307
 31
0.0
  0
LINE
  5
8D4C
  8
1
 10
430.6793734816063761
 20
-38.9266666666665131
 30
0.0
 11
430.6793734816063761
 21
-73.926666666666506
 31
0.0
  0
LINE
  5
8D4D
  8
1
 10
413.1793734816063761
 20
-56.4266666666664989
 30
0.0
 11
448.1793734816063761
 21
-56.4266666666664989
 31
0.0
  0
CIRCLE
  5
8D4E
  8
0
 10
430.6793734816063761
 20
-56.4266666666664989
 30
0.0
 40
8.0
  0
CIRCLE
  5
8D4F
  8
0
 10
430.6793734816063761
 20
-56.4266666666664989
 30
0.0
 40
12.5
  0
CIRCLE
  5
8D50
  8
1
 10
430.6793734816063761
 20
-56.4266666666664989
 30
0.0
 40
10.0
  0
CIRCLE
  5
8D52
  8
3
 10
430.6793734816063761
 20
-46.4266666666664989
 30
0.0
 40
1.0
  0
CIRCLE
  5
8D54
  8
3
 10
440.6793734816064898
 20
-56.4266666666664989
 30
0.0
 40
1.0
  0
CIRCLE
  5
8D56
  8
3
 10
430.6793734816063761
 20
-66.426666666666506
 30
0.0
 40
1.0
  0
CIRCLE
  5
8D57
  8
0
 10
420.6793734816064898
 20
-56.4266666666664989
 30
0.0
 40
0.7999999999999546
  0
CIRCLE
  5
8D58
  8
3
 10
420.6793734816064898
 20
-56.4266666666664989
 30
0.0
 40
1.0
  0
LINE
  5
8D59
  8
3
 10
439.6793734816063761
 20
-109.1266666666663951
 30
0.0
 11
439.6793734816063761
 21
-112.9266666666668044
 31
0.0
  0
LINE
  5
8D5A
  8
0
 10
439.8793734816064784
 20
-109.3266666666664975
 30
0.0
 11
439.8793734816064784
 21
-114.9266666666667049
 31
0.0
  0
LINE
  5
8D5B
  8
0
 10
441.4793734816066717
 20
-109.3266666666664975
 30
0.0
 11
441.4793734816063875
 21
-114.9266666666668044
 31
0.0
  0
LINE
  5
8D5C
  8
3
 10
441.6793734816064898
 20
-109.1266666666663951
 30
0.0
 11
441.6793734816064898
 21
-112.9266666666668044
 31
0.0
  0
LINE
  5
8D5D
  8
0
 10
441.6793734816064898
 20
-112.9266666666668044
 30
0.0
 11
439.6793734816063761
 21
-112.9266666666668044
 31
0.0
  0
LINE
  5
8D5E
  8
0
 10
441.4793734816063875
 20
-114.9266666666668044
 30
0.0
 11
439.8793734816064784
 21
-114.9266666666668044
 31
0.0
  0
LINE
  5
8D5F
  8
0
 10
441.4793734816063875
 20
-114.9266666666668044
 30
0.0
 11
440.6793734816064898
 21
-115.4073551618888018
 31
0.0
  0
LINE
  5
8D60
  8
0
 10
439.8793734816064784
 20
-114.9266666666668044
 30
0.0
 11
440.6793734816064898
 21
-115.4073551618888018
 31
0.0
  0
LINE
  5
8D61
  8
3
 10
439.6793734816063761
 20
-112.9266666666668044
 30
0.0
 11
439.8793734816064784
 21
-113.2730768281807059
 31
0.0
  0
LINE
  5
8D62
  8
3
 10
441.6793734816064898
 20
-112.9266666666668044
 30
0.0
 11
441.4793734816066717
 21
-113.2730768281803932
 31
0.0
  0
LINE
  5
8D63
  8
0
 10
441.4793734816066717
 20
-109.3266666666664975
 30
0.0
 11
439.8793734816064784
 21
-109.3266666666664975
 31
0.0
  0
LINE
  5
8D64
  8
0
 10
439.8793734816064784
 20
-109.3266666666664975
 30
0.0
 11
439.4793734816066149
 21
-108.926666666666506
 31
0.0
  0
LINE
  5
8D65
  8
1
 10
440.6793734816064898
 20
-107.926666666666506
 30
0.0
 11
440.6793734816064898
 21
-116.4073551618888018
 31
0.0
  0
LINE
  5
8D66
  8
0
 10
441.4793734816063875
 20
-109.3266666666664975
 30
0.0
 11
441.8793734816064784
 21
-108.926666666666506
 31
0.0
  0
LINE
  5
8D67
  8
3
 10
419.6793734816064898
 20
-109.1266666666663951
 30
0.0
 11
419.6793734816064898
 21
-112.9266666666668044
 31
0.0
  0
LINE
  5
8D68
  8
0
 10
419.8793734816064784
 20
-109.3266666666664975
 30
0.0
 11
419.8793734816064784
 21
-114.9266666666667049
 31
0.0
  0
LINE
  5
8D69
  8
0
 10
421.4793734816066149
 20
-109.3266666666664975
 30
0.0
 11
421.4793734816063875
 21
-114.9266666666668044
 31
0.0
  0
LINE
  5
8D6A
  8
3
 10
421.6793734816063761
 20
-109.1266666666663951
 30
0.0
 11
421.6793734816063761
 21
-112.9266666666668044
 31
0.0
  0
LINE
  5
8D6B
  8
0
 10
421.6793734816063761
 20
-112.9266666666668044
 30
0.0
 11
419.6793734816064898
 21
-112.9266666666668044
 31
0.0
  0
LINE
  5
8D6C
  8
0
 10
421.4793734816063875
 20
-114.9266666666668044
 30
0.0
 11
419.8793734816064784
 21
-114.9266666666668044
 31
0.0
  0
LINE
  5
8D6D
  8
0
 10
421.4793734816063875
 20
-114.9266666666668044
 30
0.0
 11
420.6793734816064898
 21
-115.4073551618888018
 31
0.0
  0
LINE
  5
8D6E
  8
0
 10
419.8793734816064784
 20
-114.9266666666668044
 30
0.0
 11
420.6793734816064898
 21
-115.4073551618888018
 31
0.0
  0
LINE
  5
8D6F
  8
3
 10
419.6793734816064898
 20
-112.9266666666668044
 30
0.0
 11
419.8793734816064784
 21
-113.2730768281807059
 31
0.0
  0
LINE
  5
8D70
  8
3
 10
421.6793734816063761
 20
-112.9266666666668044
 30
0.0
 11
421.4793734816066149
 21
-113.2730768281803932
 31
0.0
  0
LINE
  5
8D71
  8
0
 10
421.4793734816066149
 20
-109.3266666666664975
 30
0.0
 11
419.8793734816064784
 21
-109.3266666666664975
 31
0.0
  0
LINE
  5
8D72
  8
0
 10
419.8793734816064784
 20
-109.3266666666664975
 30
0.0
 11
419.4793734816066149
 21
-108.926666666666506
 31
0.0
  0
LINE
  5
8D73
  8
1
 10
420.6793734816064898
 20
-107.926666666666506
 30
0.0
 11
420.6793734816064898
 21
-116.4073551618888018
 31
0.0
  0
LINE
  5
8D74
  8
0
 10
421.4793734816063875
 20
-109.3266666666664975
 30
0.0
 11
421.8793734816064784
 21
-108.926666666666506
 31
0.0
  0
CIRCLE
  5
8D80
  8
0
 10
430.6793734816063761
 20
-46.4266666666664989
 30
0.0
 40
0.7999999999999546
  0
CIRCLE
  5
8D81
  8
0
 10
440.6793734816064898
 20
-56.4266666666664989
 30
0.0
 40
0.7999999999999546
  0
CIRCLE
  5
8D82
  8
0
 10
430.6793734816063761
 20
-66.426666666666506
 30
0.0
 40
0.7999999999999546
  0
LINE
  5
8D84
  8
1
 10
266.1793734816064898
 20
-38.9266666666665131
 30
0.0
 11
266.1793734816064898
 21
-73.926666666666506
 31
0.0
  0
LINE
  5
8D85
  8
1
 10
248.6793734816064898
 20
-56.4266666666664989
 30
0.0
 11
283.6793734816064898
 21
-56.4266666666664989
 31
0.0
  0
CIRCLE
  5
8D86
  8
0
 10
266.1793734816064898
 20
-56.4266666666664989
 30
0.0
 40
8.0
  0
CIRCLE
  5
8D87
  8
0
 10
266.1793734816064898
 20
-56.4266666666664989
 30
0.0
 40
12.5
  0
CIRCLE
  5
8D88
  8
1
 10
266.1793734816064898
 20
-56.4266666666664989
 30
0.0
 40
10.0
  0
CIRCLE
  5
8D89
  8
3
 10
266.1793734816064898
 20
-46.4266666666664989
 30
0.0
 40
1.0
  0
CIRCLE
  5
8D8A
  8
3
 10
276.1793734816064898
 20
-56.4266666666664989
 30
0.0
 40
1.0
  0
CIRCLE
  5
8D8B
  8
3
 10
266.1793734816064898
 20
-66.426666666666506
 30
0.0
 40
1.0
  0
CIRCLE
  5
8D8C
  8
0
 10
256.1793734816064898
 20
-56.4266666666664989
 30
0.0
 40
0.7999999999999546
  0
CIRCLE
  5
8D8D
  8
3
 10
256.1793734816064898
 20
-56.4266666666664989
 30
0.0
 40
1.0
  0
CIRCLE
  5
8D8E
  8
0
 10
266.1793734816064898
 20
-46.4266666666664989
 30
0.0
 40
0.7999999999999546
  0
CIRCLE
  5
8D8F
  8
0
 10
276.1793734816064898
 20
-56.4266666666664989
 30
0.0
 40
0.7999999999999546
  0
CIRCLE
  5
8D90
  8
0
 10
266.1793734816064898
 20
-66.426666666666506
 30
0.0
 40
0.7999999999999546
  0
LINE
  5
8D99
  8
3
 10
50.8000000000000469
 20
97.500000055900145
 30
0.0
 11
50.8000000000000469
 21
100.0000000559001023
 31
0.0
  0
LINE
  5
8D9A
  8
3
 10
49.2000000000000526
 20
97.5000000000000568
 30
0.0
 11
49.2000000000000526
 21
100.0
 31
0.0
  0
LINE
  5
8D9B
  8
2
 10
50.9999996982513011
 20
101.3000000000208018
 30
0.0
 11
48.9999993704257619
 21
101.3000000000208018
 31
0.0
  0
LINE
  5
8D9C
  8
2
 10
50.8000000000000469
 20
101.3000000000208018
 30
0.0
 11
50.8000000000000469
 21
100.0000000559001023
 31
0.0
  0
LINE
  5
8D9D
  8
2
 10
49.2000000000000526
 20
101.3000000000208018
 30
0.0
 11
49.2000000000000526
 21
100.0000000559001023
 31
0.0
  0
LINE
  5
8D9E
  8
2
 10
49.0000000000000497
 20
101.6464101615342059
 30
0.0
 11
49.2000000000000526
 21
101.3000000000208018
 31
0.0
  0
LINE
  5
8D9F
  8
2
 10
51.0000000000000426
 20
101.6464101615346038
 30
0.0
 11
50.8000000000000469
 21
101.3000000000208018
 31
0.0
  0
LINE
  5
8DA0
  8
3
 10
60.7999999999999972
 20
97.5000000559001023
 30
0.0
 11
60.7999999999999972
 21
100.0000000559001023
 31
0.0
  0
LINE
  5
8DA1
  8
3
 10
59.1999999999999886
 20
97.5
 30
0.0
 11
59.1999999999999886
 21
100.0
 31
0.0
  0
LINE
  5
8DA2
  8
2
 10
60.9999996982512585
 20
101.3000000000207024
 30
0.0
 11
58.9999993704257122
 21
101.3000000000207024
 31
0.0
  0
LINE
  5
8DA3
  8
2
 10
60.7999999999999972
 20
101.3000000000207024
 30
0.0
 11
60.7999999999999972
 21
100.0000000559001023
 31
0.0
  0
LINE
  5
8DA4
  8
2
 10
59.1999999999999886
 20
101.3000000000207024
 30
0.0
 11
59.1999999999999886
 21
100.0000000559001023
 31
0.0
  0
LINE
  5
8DA5
  8
2
 10
59.0
 20
101.6464101615341065
 30
0.0
 11
59.1999999999999886
 21
101.3000000000207024
 31
0.0
  0
LINE
  5
8DA6
  8
2
 10
61.0
 20
101.6464101615345044
 30
0.0
 11
60.7999999999999972
 21
101.3000000000207024
 31
0.0
  0
LINE
  5
8DA7
  8
3
 10
90.7999999999999829
 20
97.5000000559001023
 30
0.0
 11
90.7999999999999829
 21
100.0000000559001023
 31
0.0
  0
LINE
  5
8DA8
  8
3
 10
89.1999999999999602
 20
97.5
 30
0.0
 11
89.1999999999999602
 21
100.0
 31
0.0
  0
LINE
  5
8DA9
  8
2
 10
90.99999969825123
 20
101.3000000000207024
 30
0.0
 11
88.9999993704256838
 21
101.3000000000207024
 31
0.0
  0
LINE
  5
8DAA
  8
2
 10
90.7999999999999829
 20
101.3000000000207024
 30
0.0
 11
90.7999999999999829
 21
100.0000000559001023
 31
0.0
  0
LINE
  5
8DAB
  8
2
 10
89.1999999999999602
 20
101.3000000000207024
 30
0.0
 11
89.1999999999999602
 21
100.0000000559001023
 31
0.0
  0
LINE
  5
8DAC
  8
2
 10
88.9999999999999574
 20
101.6464101615341065
 30
0.0
 11
89.1999999999999602
 21
101.3000000000207024
 31
0.0
  0
LINE
  5
8DAD
  8
2
 10
90.9999999999999716
 20
101.6464101615345044
 30
0.0
 11
90.7999999999999829
 21
101.3000000000207024
 31
0.0
  0
LINE
  5
8DAE
  8
3
 10
100.7999999999998977
 20
97.5000000559003581
 30
0.0
 11
100.7999999999998977
 21
100.0000000559003013
 31
0.0
  0
LINE
  5
8DAF
  8
3
 10
99.1999999999999602
 20
97.5000000000002558
 30
0.0
 11
99.1999999999999602
 21
100.000000000000199
 31
0.0
  0
LINE
  5
8DB0
  8
2
 10
100.9999996982512016
 20
101.3000000000210008
 30
0.0
 11
98.9999993704256696
 21
101.3000000000210008
 31
0.0
  0
LINE
  5
8DB1
  8
2
 10
100.7999999999998977
 20
101.3000000000210008
 30
0.0
 11
100.7999999999998977
 21
100.0000000559003013
 31
0.0
  0
LINE
  5
8DB2
  8
2
 10
99.1999999999999602
 20
101.3000000000210008
 30
0.0
 11
99.1999999999999602
 21
100.0000000559003013
 31
0.0
  0
LINE
  5
8DB3
  8
2
 10
98.9999999999999574
 20
101.6464101615344049
 30
0.0
 11
99.1999999999999602
 21
101.3000000000210008
 31
0.0
  0
LINE
  5
8DB4
  8
2
 10
100.9999999999999005
 20
101.6464101615348028
 30
0.0
 11
100.7999999999998977
 21
101.3000000000210008
 31
0.0
  0
LINE
  5
8DB5
  8
3
 10
110.7999999999999972
 20
97.5000000559001023
 30
0.0
 11
110.7999999999999972
 21
100.0000000559001023
 31
0.0
  0
LINE
  5
8DB6
  8
3
 10
109.1999999999999034
 20
97.5
 30
0.0
 11
109.1999999999999034
 21
100.0
 31
0.0
  0
LINE
  5
8DB7
  8
2
 10
110.9999996982512016
 20
101.3000000000207024
 30
0.0
 11
108.999999370425698
 21
101.3000000000207024
 31
0.0
  0
LINE
  5
8DB8
  8
2
 10
110.7999999999999972
 20
101.3000000000207024
 30
0.0
 11
110.7999999999999972
 21
100.0000000559001023
 31
0.0
  0
LINE
  5
8DB9
  8
2
 10
109.1999999999999034
 20
101.3000000000207024
 30
0.0
 11
109.1999999999999034
 21
100.0000000559001023
 31
0.0
  0
LINE
  5
8DBA
  8
2
 10
108.9999999999999005
 20
101.6464101615341065
 30
0.0
 11
109.1999999999999034
 21
101.3000000000207024
 31
0.0
  0
LINE
  5
8DBB
  8
2
 10
110.9999999999999005
 20
101.6464101615345044
 30
0.0
 11
110.7999999999999972
 21
101.3000000000207024
 31
0.0
  0
LINE
  5
8DE9
  8
0
 10
167.9293734816064898
 20
-47.7741809412443672
 30
0.0
 11
211.9293734816064898
 21
-47.7741809412443672
 31
0.0
  0
LINE
  5
8DEA
  8
0
 10
167.9293734816064898
 20
-56.7741809412443672
 30
0.0
 11
183.4293734816064045
 21
-56.7741809412443672
 31
0.0
  0
LINE
  5
8DEC
  8
1
 10
189.9293734816064898
 20
-44.7741809412443672
 30
0.0
 11
189.9293734816064898
 21
-66.2741809412443814
 31
0.0
  0
LINE
  5
8DF1
  8
0
 10
177.4293734816064898
 20
-48.2741809412443601
 30
0.0
 11
176.9293734816064898
 21
-47.7741809412443672
 31
0.0
  0
LINE
  5
8DF2
  8
0
 10
202.4293734816064898
 20
-48.2741809412445875
 30
0.0
 11
202.9293734816064898
 21
-47.7741809412445875
 31
0.0
  0
LINE
  5
8DF4
  8
0
 10
181.9293734816064898
 20
-56.2741809412443601
 30
0.0
 11
181.4293734816064898
 21
-56.7741809412443672
 31
0.0
  0
LINE
  5
8DF5
  8
0
 10
197.9293734816064898
 20
-56.2741809412443601
 30
0.0
 11
198.4293734816064898
 21
-56.7741809412443672
 31
0.0
  0
LINE
  5
8DF7
  8
0
 10
181.9293734816064898
 20
-53.7741809412443601
 30
0.0
 11
181.4293734816064898
 21
-53.2741809412443601
 31
0.0
  0
LINE
  5
8DF8
  8
0
 10
197.9293734816064898
 20
-53.7741809412443601
 30
0.0
 11
198.4293734816064898
 21
-53.2741809412443601
 31
0.0
  0
LINE
  5
8DFA
  8
3
 10
198.9293734816064898
 20
-55.7741809412443814
 30
0.0
 11
198.9293734816064898
 21
-56.7741809412443672
 31
0.0
  0
LINE
  5
8DFB
  8
0
 10
199.1293734816065069
 20
-55.7741809412443814
 30
0.0
 11
199.1293734816065069
 21
-56.7741809412443672
 31
0.0
  0
LINE
  5
8DFC
  8
0
 10
200.7293734816065864
 20
-55.7741809412443885
 30
0.0
 11
200.7293734816065012
 21
-56.7741809412443672
 31
0.0
  0
LINE
  5
8DFD
  8
3
 10
200.9293734816064898
 20
-55.7741809412443814
 30
0.0
 11
200.9293734816064898
 21
-56.7741809412443672
 31
0.0
  0
LINE
  5
8DFF
  8
0
 10
198.9293734816064898
 20
-53.4741809412442706
 30
0.0
 11
198.7293734816067001
 21
-53.2741809412443601
 31
0.0
  0
LINE
  5
8E00
  8
1
 10
199.9293734816064898
 20
-52.2741809412443672
 30
0.0
 11
199.9293734816064898
 21
-57.7741809412443672
 31
0.0
  0
LINE
  5
8E01
  8
0
 10
200.9293734816064898
 20
-53.4741809412443985
 30
0.0
 11
201.1293734816065069
 21
-53.2741809412443601
 31
0.0
  0
LINE
  5
8E02
  8
3
 10
178.9293734816064898
 20
-55.7741809412443814
 30
0.0
 11
178.9293734816064898
 21
-56.7741809412443672
 31
0.0
  0
LINE
  5
8E03
  8
0
 10
179.1293734816065069
 20
-55.7741809412443814
 30
0.0
 11
179.1293734816065069
 21
-56.7741809412443672
 31
0.0
  0
LINE
  5
8E04
  8
0
 10
180.7293734816065864
 20
-55.7741809412443885
 30
0.0
 11
180.7293734816065012
 21
-56.7741809412443672
 31
0.0
  0
LINE
  5
8E05
  8
3
 10
180.9293734816064898
 20
-55.7741809412443814
 30
0.0
 11
180.9293734816064898
 21
-56.7741809412443672
 31
0.0
  0
LINE
  5
8E07
  8
0
 10
178.9293734816064898
 20
-53.4741809412442706
 30
0.0
 11
178.7293734816065864
 21
-53.2741809412443601
 31
0.0
  0
LINE
  5
8E08
  8
1
 10
179.9293734816064045
 20
-52.2741809412443672
 30
0.0
 11
179.9293734816064898
 21
-57.7741809412443672
 31
0.0
  0
LINE
  5
8E09
  8
0
 10
180.9293734816064898
 20
-53.4741809412443985
 30
0.0
 11
181.1293734816065069
 21
-53.2741809412443601
 31
0.0
  0
LINE
  5
8E0A
  8
0
 10
183.4293734816064045
 20
-53.2741809412443601
 30
0.0
 11
183.4293734816064045
 21
-63.2741809412443814
 31
0.0
  0
LINE
  5
8E0B
  8
0
 10
196.4293734816064898
 20
-63.2741809412443814
 30
0.0
 11
196.4293734816064898
 21
-53.2741809412443601
 31
0.0
  0
LINE
  5
8E0C
  8
0
 10
202.4293734816064898
 20
-53.2741809412443601
 30
0.0
 11
202.4293734816064898
 21
-48.2741809412443601
 31
0.0
  0
LINE
  5
8E0D
  8
0
 10
177.4293734816064898
 20
-48.2741809412443601
 30
0.0
 11
177.4293734816064898
 21
-53.2741809412443601
 31
0.0
  0
LINE
  5
8E10
  8
0
 10
178.9293734816064898
 20
-53.2741809412443601
 30
0.0
 11
178.9293734816064898
 21
-55.7741809412443814
 31
0.0
  0
LINE
  5
8E11
  8
0
 10
180.9293734816064898
 20
-55.7741809412443814
 30
0.0
 11
180.9293734816064898
 21
-53.2741809412443601
 31
0.0
  0
LINE
  5
8E12
  8
0
 10
198.9293734816064898
 20
-53.2741809412443601
 30
0.0
 11
198.9293734816064898
 21
-55.7741809412443814
 31
0.0
  0
LINE
  5
8E13
  8
0
 10
200.9293734816064898
 20
-55.7741809412443814
 30
0.0
 11
200.9293734816064898
 21
-53.2741809412443601
 31
0.0
  0
LINE
  5
8E14
  8
0
 10
183.4293734816064045
 20
-63.2741809412443814
 30
0.0
 11
196.4293734816064898
 21
-63.2741809412443814
 31
0.0
  0
LINE
  5
8E15
  8
0
 10
177.4293734816064898
 20
-48.2741809412443601
 30
0.0
 11
202.4293734816064898
 21
-48.2741809412443601
 31
0.0
  0
LINE
  5
8E16
  8
0
 10
177.4293734816064898
 20
-53.2741809412443601
 30
0.0
 11
202.4293734816064898
 21
-53.2741809412443601
 31
0.0
  0
LINE
  5
8E18
  8
0
 10
178.9293734816064898
 20
-55.7741809412443814
 30
0.0
 11
180.9293734816064898
 21
-55.7741809412443814
 31
0.0
  0
LINE
  5
8E19
  8
0
 10
198.9293734816064898
 20
-55.7741809412443814
 30
0.0
 11
200.9293734816064898
 21
-55.7741809412443814
 31
0.0
  0
LINE
  5
8E3C
  8
3
 10
180.7293734816065012
 20
-55.7741808853442791
 30
0.0
 11
180.7293734816065012
 21
-53.2741808853442578
 31
0.0
  0
LINE
  5
8E3D
  8
3
 10
179.1293734816065069
 20
-55.7741809412443814
 30
0.0
 11
179.1293734816065069
 21
-53.2741809412443601
 31
0.0
  0
LINE
  5
8E54
  8
3
 10
200.7293734816065012
 20
-55.7741808853442791
 30
0.0
 11
200.7293734816065012
 21
-53.2741808853442578
 31
0.0
  0
LINE
  5
8E55
  8
3
 10
199.1293734816063932
 20
-55.7741809412443814
 30
0.0
 11
199.1293734816063932
 21
-53.2741809412443601
 31
0.0
  0
LINE
  5
8E5C
  8
0
 10
181.9293734816064898
 20
-56.2741809412443601
 30
0.0
 11
181.9293734816064898
 21
-53.7741809412441896
 31
0.0
  0
LINE
  5
8E5D
  8
0
 10
197.9293734816064898
 20
-56.2741809412444809
 30
0.0
 11
197.9293734816064898
 21
-53.7741809412442606
 31
0.0
  0
LINE
  5
8E5E
  8
0
 10
181.9293734816064898
 20
-56.2741809412444809
 30
0.0
 11
183.4293734816064045
 21
-56.2741809412444809
 31
0.0
  0
LINE
  5
8E5F
  8
0
 10
181.9293734816064898
 20
-53.7741809412441896
 30
0.0
 11
183.4293734816064045
 21
-53.7741809412441825
 31
0.0
  0
LINE
  5
8E60
  8
0
 10
196.4293734816064898
 20
-56.7741809412443672
 30
0.0
 11
211.9293734816064898
 21
-56.7741809412443672
 31
0.0
  0
LINE
  5
8E61
  8
0
 10
196.4293734816064898
 20
-56.2741809412444809
 30
0.0
 11
197.9293734816064898
 21
-56.2741809412444809
 31
0.0
  0
LINE
  5
8E62
  8
0
 10
196.4293734816064898
 20
-53.7741809412441825
 30
0.0
 11
197.9293734816064898
 21
-53.7741809412441896
 31
0.0
  0
LINE
  5
8E67
  8
0
 10
332.4293734816064898
 20
-47.7741809412443672
 30
0.0
 11
376.4293734816064898
 21
-47.7741809412443672
 31
0.0
  0
LINE
  5
8E68
  8
0
 10
332.4293734816064898
 20
-65.774180941244353
 30
0.0
 11
376.4293734816064898
 21
-65.774180941244353
 31
0.0
  0
LINE
  5
8E6A
  8
1
 10
354.4293734816064898
 20
-44.7741809412443672
 30
0.0
 11
354.4293734816064898
 21
-68.774180941244353
 31
0.0
  0
LINE
  5
8E6D
  8
0
 10
346.4293734816064898
 20
-65.2741809412443672
 30
0.0
 11
346.4293734816064898
 21
-53.7741809412441896
 31
0.0
  0
LINE
  5
8E6E
  8
0
 10
362.4293734816064898
 20
-65.2741809412444809
 30
0.0
 11
362.4293734816064898
 21
-53.7741809412442606
 31
0.0
  0
LINE
  5
8E72
  8
0
 10
346.4293734816064898
 20
-65.2741809412443672
 30
0.0
 11
345.9293734816064898
 21
-65.774180941244353
 31
0.0
  0
LINE
  5
8E73
  8
0
 10
362.4293734816064898
 20
-65.2741809412443672
 30
0.0
 11
362.9293734816064898
 21
-65.774180941244353
 31
0.0
  0
LINE
  5
8E74
  8
0
 10
346.4293734816064898
 20
-65.2741809412444809
 30
0.0
 11
362.4293734816064898
 21
-65.2741809412444809
 31
0.0
  0
LINE
  5
8E75
  8
0
 10
346.4293734816064898
 20
-53.7741809412443601
 30
0.0
 11
345.9293734816064898
 21
-53.2741809412443601
 31
0.0
  0
LINE
  5
8E76
  8
0
 10
362.4293734816064898
 20
-53.7741809412443601
 30
0.0
 11
362.9293734816064898
 21
-53.2741809412443601
 31
0.0
  0
LINE
  5
8E77
  8
0
 10
346.4293734816064898
 20
-53.7741809412441896
 30
0.0
 11
347.9293734816064898
 21
-53.7741809412441896
 31
0.0
  0
LINE
  5
8E78
  8
3
 10
363.4293734816064898
 20
-55.7741809412443601
 30
0.0
 11
363.4293734816064898
 21
-57.2741809412446514
 31
0.0
  0
LINE
  5
8E79
  8
0
 10
363.6293734816064784
 20
-55.7741809412443601
 30
0.0
 11
363.6293734816064784
 21
-59.2741809412445875
 31
0.0
  0
LINE
  5
8E7A
  8
0
 10
365.2293734816066149
 20
-55.7741809412443601
 30
0.0
 11
365.2293734816065012
 21
-59.2741809412446514
 31
0.0
  0
LINE
  5
8E7B
  8
3
 10
365.4293734816064898
 20
-55.7741809412443601
 30
0.0
 11
365.4293734816064898
 21
-57.2741809412446514
 31
0.0
  0
LINE
  5
8E7C
  8
0
 10
365.4293734816064898
 20
-57.2741809412446514
 30
0.0
 11
363.4293734816064898
 21
-57.2741809412446514
 31
0.0
  0
LINE
  5
8E7D
  8
0
 10
365.2293734816065012
 20
-59.2741809412446514
 30
0.0
 11
363.6293734816064784
 21
-59.2741809412446514
 31
0.0
  0
LINE
  5
8E7E
  8
0
 10
365.2293734816065012
 20
-59.2741809412446514
 30
0.0
 11
364.4293734816064898
 21
-59.7548694364667128
 31
0.0
  0
LINE
  5
8E7F
  8
0
 10
363.6293734816064784
 20
-59.2741809412446514
 30
0.0
 11
364.4293734816064898
 21
-59.7548694364667128
 31
0.0
  0
LINE
  5
8E80
  8
3
 10
363.4293734816064898
 20
-57.2741809412446514
 30
0.0
 11
363.6293734816064784
 21
-57.6205911027586168
 31
0.0
  0
LINE
  5
8E81
  8
3
 10
365.4293734816064898
 20
-57.2741809412446514
 30
0.0
 11
365.2293734816066717
 21
-57.6205911027582829
 31
0.0
  0
LINE
  5
8E84
  8
1
 10
364.4293734816064898
 20
-52.2741809412443672
 30
0.0
 11
364.4293734816064898
 21
-60.7548694364667199
 31
0.0
  0
LINE
  5
8E86
  8
3
 10
343.4293734816064898
 20
-55.7741809412443601
 30
0.0
 11
343.4293734816064898
 21
-57.2741809412446514
 31
0.0
  0
LINE
  5
8E87
  8
0
 10
343.6293734816064784
 20
-55.7741809412443601
 30
0.0
 11
343.6293734816064784
 21
-59.2741809412445875
 31
0.0
  0
LINE
  5
8E88
  8
0
 10
345.2293734816066149
 20
-55.7741809412443601
 30
0.0
 11
345.2293734816063875
 21
-59.2741809412446514
 31
0.0
  0
LINE
  5
8E89
  8
3
 10
345.4293734816064898
 20
-55.7741809412443601
 30
0.0
 11
345.4293734816064898
 21
-57.2741809412446514
 31
0.0
  0
LINE
  5
8E8A
  8
0
 10
345.4293734816064898
 20
-57.2741809412446514
 30
0.0
 11
343.4293734816064898
 21
-57.2741809412446514
 31
0.0
  0
LINE
  5
8E8B
  8
0
 10
345.2293734816063875
 20
-59.2741809412446514
 30
0.0
 11
343.6293734816064784
 21
-59.2741809412446514
 31
0.0
  0
LINE
  5
8E8C
  8
0
 10
345.2293734816063875
 20
-59.2741809412446514
 30
0.0
 11
344.4293734816064898
 21
-59.7548694364667128
 31
0.0
  0
LINE
  5
8E8D
  8
0
 10
343.6293734816064784
 20
-59.2741809412446514
 30
0.0
 11
344.4293734816064898
 21
-59.7548694364667128
 31
0.0
  0
LINE
  5
8E8E
  8
3
 10
343.4293734816064898
 20
-57.2741809412446514
 30
0.0
 11
343.6293734816064784
 21
-57.6205911027586168
 31
0.0
  0
LINE
  5
8E8F
  8
3
 10
345.4293734816064898
 20
-57.2741809412446514
 30
0.0
 11
345.2293734816066717
 21
-57.6205911027582829
 31
0.0
  0
LINE
  5
8E92
  8
1
 10
344.4293734816064898
 20
-52.2741809412443672
 30
0.0
 11
344.4293734816064898
 21
-60.7548694364667199
 31
0.0
  0
LINE
  5
8E98
  8
0
 10
341.9293734816064898
 20
-48.2741809412443601
 30
0.0
 11
341.4293734816064898
 21
-47.7741809412443672
 31
0.0
  0
LINE
  5
8E99
  8
0
 10
366.9293734816064898
 20
-48.2741809412445875
 30
0.0
 11
367.4293734816064898
 21
-47.7741809412445875
 31
0.0
  0
LINE
  5
8EA2
  8
0
 10
363.4293734816064898
 20
-53.4741809412442706
 30
0.0
 11
363.2293734816066717
 21
-53.2741809412443601
 31
0.0
  0
LINE
  5
8EA4
  8
0
 10
365.4293734816064898
 20
-53.4741809412444127
 30
0.0
 11
365.6293734816065921
 21
-53.2741809412443601
 31
0.0
  0
LINE
  5
8EA9
  8
0
 10
343.4293734816064898
 20
-53.4741809412442706
 30
0.0
 11
343.2293734816066717
 21
-53.2741809412443601
 31
0.0
  0
LINE
  5
8EAB
  8
0
 10
345.4293734816064898
 20
-53.4741809412444127
 30
0.0
 11
345.6293734816064784
 21
-53.2741809412443601
 31
0.0
  0
LINE
  5
8EAC
  8
0
 10
347.9293734816064898
 20
-53.2741809412443601
 30
0.0
 11
347.9293734816064898
 21
-63.2741809412443601
 31
0.0
  0
LINE
  5
8EAD
  8
0
 10
360.9293734816064898
 20
-63.2741809412443601
 30
0.0
 11
360.9293734816064898
 21
-53.2741809412443601
 31
0.0
  0
LINE
  5
8EAE
  8
0
 10
366.9293734816064898
 20
-53.2741809412443601
 30
0.0
 11
366.9293734816064898
 21
-48.2741809412443601
 31
0.0
  0
LINE
  5
8EAF
  8
0
 10
341.9293734816064898
 20
-48.2741809412443601
 30
0.0
 11
341.9293734816064898
 21
-53.2741809412443601
 31
0.0
  0
LINE
  5
8EB0
  8
0
 10
343.4293734816064898
 20
-53.2741809412443601
 30
0.0
 11
343.4293734816064898
 21
-55.7741809412443601
 31
0.0
  0
LINE
  5
8EB1
  8
0
 10
345.4293734816064898
 20
-55.7741809412443601
 30
0.0
 11
345.4293734816064898
 21
-53.2741809412443601
 31
0.0
  0
LINE
  5
8EB2
  8
0
 10
363.4293734816064898
 20
-53.2741809412443601
 30
0.0
 11
363.4293734816064898
 21
-55.7741809412443601
 31
0.0
  0
LINE
  5
8EB3
  8
0
 10
365.4293734816064898
 20
-55.7741809412443601
 30
0.0
 11
365.4293734816064898
 21
-53.2741809412443601
 31
0.0
  0
LINE
  5
8EB4
  8
0
 10
347.9293734816064898
 20
-63.2741809412443601
 30
0.0
 11
360.9293734816064898
 21
-63.2741809412443601
 31
0.0
  0
LINE
  5
8EB5
  8
0
 10
341.9293734816064898
 20
-48.2741809412443601
 30
0.0
 11
366.9293734816064898
 21
-48.2741809412443601
 31
0.0
  0
LINE
  5
8EB6
  8
0
 10
341.9293734816064898
 20
-53.2741809412443601
 30
0.0
 11
366.9293734816064898
 21
-53.2741809412443601
 31
0.0
  0
LINE
  5
8EB7
  8
0
 10
343.4293734816064898
 20
-55.7741809412443601
 30
0.0
 11
345.4293734816064898
 21
-55.7741809412443601
 31
0.0
  0
LINE
  5
8EB8
  8
0
 10
363.4293734816064898
 20
-55.7741809412443601
 30
0.0
 11
365.4293734816064898
 21
-55.7741809412443601
 31
0.0
  0
LINE
  5
8EB9
  8
3
 10
345.2293734816065012
 20
-55.7741808853442578
 30
0.0
 11
345.2293734816065012
 21
-53.2741808853442578
 31
0.0
  0
LINE
  5
8EBA
  8
3
 10
343.6293734816064784
 20
-55.7741809412443601
 30
0.0
 11
343.6293734816064784
 21
-53.2741809412443601
 31
0.0
  0
LINE
  5
8EBC
  8
3
 10
365.2293734816065012
 20
-55.7741808853442578
 30
0.0
 11
365.2293734816065012
 21
-53.2741808853442578
 31
0.0
  0
LINE
  5
8EBD
  8
3
 10
363.6293734816064784
 20
-55.7741809412443601
 30
0.0
 11
363.6293734816064784
 21
-53.2741809412443601
 31
0.0
  0
LINE
  5
8EC7
  8
0
 10
360.9293734816064898
 20
-53.7741809412441896
 30
0.0
 11
362.4293734816064898
 21
-53.7741809412441896
 31
0.0
  0
ENDSEC
  0
EOF
