  0
SECTION
  2
HEADER
  9
$ACADVER
  1
AC1009
  9
$INSBASE
 10
0.0
 20
0.0
 30
0.0
  9
$EXTMIN
 10
0.0
 20
-2.960436562073669
 30
0.0
  9
$EXTMAX
 10
490.43542418612259
 20
447.19793801808532
 30
0.0
  9
$LIMMIN
 10
0.0
 20
0.0
  9
$LIMMAX
 10
375.0
 20
270.0
  9
$ORTHOMODE
 70
     0
  9
$REGENMODE
 70
     1
  9
$FILLMODE
 70
     1
  9
$QTEXTMODE
 70
     0
  9
$MIRRTEXT
 70
     0
  9
$DRAGMODE
 70
     2
  9
$LTSCALE
 40
10.0
  9
$OSMODE
 70
    37
  9
$ATTMODE
 70
     1
  9
$TEXTSIZE
 40
0.2
  9
$TRACEWID
 40
0.05
  9
$TEXTSTYLE
  7
STANDARD
  9
$CLAYER
  8
0
  9
$CELTYPE
  6
BYLAYER
  9
$CECOLOR
 62
   256
  9
$DIMSCALE
 40
1.0
  9
$DIMASZ
 40
3.0
  9
$DIMEXO
 40
2.0
  9
$DIMDLI
 40
10.0
  9
$DIMRND
 40
0.0
  9
$DIMDLE
 40
0.0
  9
$DIMEXE
 40
2.0
  9
$DIMTP
 40
0.0
  9
$DIMTM
 40
0.0
  9
$DIMTXT
 40
3.2000000000000002
  9
$DIMCEN
 40
0.09
  9
$DIMTSZ
 40
0.0
  9
$DIMTOL
 70
     0
  9
$DIMLIM
 70
     0
  9
$DIMTIH
 70
     0
  9
$DIMTOH
 70
     0
  9
$DIMSE1
 70
     0
  9
$DIMSE2
 70
     0
  9
$DIMTAD
 70
     1
  9
$DIMZIN
 70
     0
  9
$DIMBLK
  1

  9
$DIMASO
 70
     0
  9
$DIMSHO
 70
     0
  9
$DIMPOST
  1

  9
$DIMAPOST
  1

  9
$DIMALT
 70
     0
  9
$DIMALTD
 70
     2
  9
$DIMALTF
 40
25.399999999999999
  9
$DIMLFAC
 40
1.0
  9
$DIMTOFL
 70
     1
  9
$DIMTVP
 40
1.6000000000000001
  9
$DIMTIX
 70
     0
  9
$DIMSOXD
 70
     0
  9
$DIMSAH
 70
     0
  9
$DIMBLK1
  1

  9
$DIMBLK2
  1

  9
$DIMSTYLE
  2
STANDARD
  9
$DIMCLRD
 70
     0
  9
$DIMCLRE
 70
     0
  9
$DIMCLRT
 70
     0
  9
$DIMTFAC
 40
1.0
  9
$DIMGAP
 40
0.09
  9
$LUNITS
 70
     2
  9
$LUPREC
 70
     1
  9
$SKETCHINC
 40
0.1
  9
$FILLETRAD
 40
0.0
  9
$AUNITS
 70
     0
  9
$AUPREC
 70
     1
  9
$MENU
  1
E:\r13\win\SUPPORT\ACAD
  9
$ELEVATION
 40
0.0
  9
$PELEVATION
 40
0.0
  9
$THICKNESS
 40
0.0
  9
$LIMCHECK
 70
     0
  9
$BLIPMODE
 70
     0
  9
$CHAMFERA
 40
0.0
  9
$CHAMFERB
 40
0.0
  9
$SKPOLY
 70
     0
  9
$TDCREATE
 40
2449840.6171180559
  9
$TDUPDATE
 40
2459873.4302793988
  9
$TDINDWG
 40
0.3610590741
  9
$TDUSRTIMER
 40
0.3610590741
  9
$USRTIMER
 70
     1
  9
$ANGBASE
 50
0.0
  9
$ANGDIR
 70
     0
  9
$PDMODE
 70
     0
  9
$PDSIZE
 40
0.0
  9
$PLINEWID
 40
0.0
  9
$COORDS
 70
     1
  9
$SPLFRAME
 70
     0
  9
$SPLINETYPE
 70
     6
  9
$SPLINESEGS
 70
     8
  9
$ATTDIA
 70
     0
  9
$ATTREQ
 70
     1
  9
$HANDLING
 70
     1
  9
$HANDSEED
  5
46F9
  9
$SURFTAB1
 70
     6
  9
$SURFTAB2
 70
     6
  9
$SURFTYPE
 70
     6
  9
$SURFU
 70
     6
  9
$SURFV
 70
     6
  9
$UCSNAME
  2

  9
$UCSORG
 10
0.0
 20
0.0
 30
0.0
  9
$UCSXDIR
 10
1.0
 20
0.0
 30
0.0
  9
$UCSYDIR
 10
0.0
 20
1.0
 30
0.0
  9
$PUCSNAME
  2

  9
$PUCSORG
 10
0.0
 20
0.0
 30
0.0
  9
$PUCSXDIR
 10
1.0
 20
0.0
 30
0.0
  9
$PUCSYDIR
 10
0.0
 20
1.0
 30
0.0
  9
$USERI1
 70
     0
  9
$USERI2
 70
     1
  9
$USERI3
 70
     0
  9
$USERI4
 70
     0
  9
$USERI5
 70
     0
  9
$USERR1
 40
0.0
  9
$USERR2
 40
0.0
  9
$USERR3
 40
0.0
  9
$USERR4
 40
0.0
  9
$USERR5
 40
0.0
  9
$WORLDVIEW
 70
     1
  9
$SHADEDGE
 70
     3
  9
$SHADEDIF
 70
    70
  9
$TILEMODE
 70
     1
  9
$MAXACTVP
 70
    16
  9
$PLIMCHECK
 70
     0
  9
$PEXTMIN
 10
1.0000000000000000E+020
 20
1.0000000000000000E+020
 30
1.0000000000000000E+020
  9
$PEXTMAX
 10
-1.0000000000000000E+020
 20
-1.0000000000000000E+020
 30
-1.0000000000000000E+020
  9
$PLIMMIN
 10
0.0
 20
0.0
  9
$PLIMMAX
 10
12.0
 20
9.0
  9
$UNITMODE
 70
     0
  9
$VISRETAIN
 70
     0
  9
$PLINEGEN
 70
     0
  9
$PSLTSCALE
 70
     0
  0
ENDSEC
  0
SECTION
  2
TABLES
  0
TABLE
  2
VPORT
 70
     1
  0
VPORT
  2
*ACTIVE
 70
     0
 10
0.0
 20
0.0
 11
1.0
 21
1.0
 12
626.35216346153845
 22
275.0
 13
0.0
 23
0.0
 14
10.0
 24
10.0
 15
10.0
 25
10.0
 16
0.0
 26
0.0
 36
1.0
 17
0.0
 27
0.0
 37
0.0
 40
550.0
 41
2.2776442307692299
 42
50.0
 43
0.0
 44
0.0
 50
0.0
 51
0.0
 71
     0
 72
   100
 73
     1
 74
     0
 75
     0
 76
     0
 77
     0
 78
     0
  0
ENDTAB
  0
TABLE
  2
LTYPE
 70
     3
  0
LTYPE
  2
CONTINUOUS
 70
     0
  3
Solid Line
 72
    65
 73
     0
 40
0.0
  0
LTYPE
  2
CENTER
 70
     0
  3
____ _ ____ _ ____ _ ____ _ ____ _ ____ _ ____
 72
    65
 73
     4
 40
2.0
 49
1.25
 49
-0.25
 49
0.25
 49
-0.25
  0
LTYPE
  2
PHANTOM2
 70
     0
  3
___ _ _ ___ _ _ ___ _ _ ___ _ _
 72
    65
 73
     6
 40
1.25
 49
0.625
 49
-0.125
 49
0.125
 49
-0.125
 49
0.125
 49
-0.125
  0
ENDTAB
  0
TABLE
  2
LAYER
 70
     4
  0
LAYER
  2
0
 70
     0
 62
     7
  6
CONTINUOUS
  0
LAYER
  2
1
 70
     0
 62
     1
  6
CENTER
  0
LAYER
  2
3
 70
     0
 62
     3
  6
CONTINUOUS
  0
LAYER
  2
DEFPOINTS
 70
     0
 62
     7
  6
CONTINUOUS
  0
ENDTAB
  0
TABLE
  2
STYLE
 70
     2
  0
STYLE
  2
STANDARD
 70
     0
 40
0.0
 41
1.0
 50
0.0
 71
     0
 42
0.2
  3
TXT
  4
BIGFONT
  0
STYLE
  2
STANDARD1
 70
     0
 40
0.0
 41
1.0
 50
0.0
 71
     0
 42
3.0
  3
txt
  4

  0
ENDTAB
  0
TABLE
  2
VIEW
 70
     1
  0
VIEW
  2
ALL
 70
     0
 40
270.0
 10
220.99159700000001
 20
135.0
 41
0.0
 11
0.0
 21
0.0
 31
1.0
 12
0.0
 22
0.0
 32
0.0
 42
0.0
 43
0.0
 44
0.0
 50
0.0
 71
     0
  0
ENDTAB
  0
TABLE
  2
UCS
 70
     0
  0
ENDTAB
  0
TABLE
  2
APPID
 70
    10
  0
APPID
  2
ACAD
 70
     0
  0
APPID
  2
ACAD_EXEMPT_FROM_CAD_STANDARDS
 70
     0
  0
APPID
  2
ACAD_MLEADERVER
 70
     0
  0
APPID
  2
ACAD_NAV_VCDISPLAY
 70
     0
  0
APPID
  2
ACAD_PSEXT
 70
     0
  0
APPID
  2
ACAD_DSTYLE_DIMJAG
 70
     0
  0
APPID
  2
ACAD_DSTYLE_DIMTALN
 70
     0
  0
APPID
  2
ACAD_DSTYLE_DIMBREAK
 70
     0
  0
APPID
  2
ACAECLAYERSTANDARD
 70
     0
  0
APPID
  2
ACCMTRANSPARENCY
 70
     0
  0
ENDTAB
  0
TABLE
  2
DIMSTYLE
 70
     1
  0
DIMSTYLE
  2
STANDARD
 70
     0
  3

  4

  5

  6

  7

 40
1.0
 41
0.18
 42
0.0625
 43
0.38
 44
0.18
 45
0.0
 46
0.0
 47
0.0
 48
0.0
140
0.18
141
0.09
142
0.0
143
25.399999999999999
144
1.0
145
0.0
146
1.0
147
0.09
 71
     0
 72
     0
 73
     1
 74
     1
 75
     0
 76
     0
 77
     0
 78
     0
170
     0
171
     2
172
     0
173
     0
174
     0
175
     0
176
     0
177
     0
178
     0
  0
ENDTAB
  0
ENDSEC
  0
SECTION
  2
BLOCKS
  0
BLOCK
  8
0
  2
$MODEL_SPACE
 70
     0
 10
0.0
 20
0.0
 30
0.0
  3
$MODEL_SPACE
  1

  0
ENDBLK
  5
E8
  8
0
  0
BLOCK
 67
     1
  8
0
  2
$PAPER_SPACE
 70
     0
 10
0.0
 20
0.0
 30
0.0
  3
$PAPER_SPACE
  1

  0
ENDBLK
  5
E6
 67
     1
  8
0
  0
ENDSEC
  0
SECTION
  2
ENTITIES
  0
TEXT
  5
2B37
  8
0
 62
     3
 10
0.0
 20
0.0
 30
0.0
 40
10.0
  1
PTSW3-12L
  7
STANDARD1
  0
LINE
  5
2F03
  8
0
 10
304.43542418612259
 20
290.50830653506239
 30
0.0
 11
304.43542418612259
 21
291.50830653506239
 31
0.0
  0
LINE
  5
2F04
  8
0
 10
284.4354241861227
 20
291.50830653506239
 30
0.0
 11
284.4354241861227
 21
290.50830653506239
 31
0.0
  0
LINE
  5
2F05
  8
0
 10
281.93542418612259
 20
292.00830653506239
 30
0.0
 11
282.4354241861227
 21
291.50830653506239
 31
0.0
  0
LINE
  5
2F06
  8
0
 10
306.43542418612259
 20
291.50830653506239
 30
0.0
 11
306.9354241861227
 21
292.00830653506239
 31
0.0
  0
LINE
  5
2F07
  8
0
 10
306.9354241861227
 20
294.00830653506239
 30
0.0
 11
306.43542418612259
 21
294.50830653506239
 31
0.0
  0
LINE
  5
2F08
  8
0
 10
282.4354241861227
 20
294.50830653506239
 30
0.0
 11
281.93542418612259
 21
294.00830653506239
 31
0.0
  0
LINE
  5
2F09
  8
0
 10
306.9354241861227
 20
292.00830653506239
 30
0.0
 11
306.9354241861227
 21
294.00830653506239
 31
0.0
  0
LINE
  5
2F0A
  8
0
 10
281.93542418612259
 20
294.00830653506239
 30
0.0
 11
281.93542418612259
 21
292.00830653506239
 31
0.0
  0
LINE
  5
2F0B
  8
0
 10
303.93542418612259
 20
312.6387202342251
 30
0.0
 11
303.73332244358812
 21
313.3965351027162
 31
0.0
  0
LINE
  5
2F0C
  8
0
 10
285.13752592865762
 20
313.3965351027162
 30
0.0
 11
284.93542418612259
 21
312.64131214671397
 31
0.0
  0
ARC
  5
2F0D
  8
0
 10
302.28443370415448
 20
313.00830653506239
 30
0.0
 40
1.500000000000046
 50
14.999999999999099
 51
90.0
  0
ARC
  5
2F0E
  8
0
 10
286.58641466809121
 20
313.00830653506239
 30
0.0
 40
1.5
 50
90.0
 51
164.9999999999992
  0
ARC
  5
2F0F
  8
0
 10
318.43542418612259
 20
289.50830653506239
 30
0.0
 40
1.0
 50
0.0
 51
90.0
  0
LINE
  5
2F10
  8
0
 10
319.4354241861227
 20
262.50830653506239
 30
0.0
 11
319.4354241861227
 21
289.50830653506239
 31
0.0
  0
ARC
  5
2F11
  8
0
 10
318.43542418612259
 20
262.50830653506239
 30
0.0
 40
1.0
 50
270.0
 51
0.0
  0
ARC
  5
2F12
  8
0
 10
229.43542418612259
 20
261.50830653506239
 30
0.0
 40
1.0
 50
179.9999999999992
 51
270.0
  0
ARC
  5
2F13
  8
0
 10
229.43542418612259
 20
289.50830653506239
 30
0.0
 40
1.0
 50
90.0
 51
179.9999999999992
  0
LINE
  5
2F14
  8
0
 10
228.4354241861227
 20
289.50830653506239
 30
0.0
 11
228.4354241861227
 21
261.50830653506239
 31
0.0
  0
ARC
  5
2F15
  8
0
 10
311.4354241861227
 20
260.50830653506239
 30
0.0
 40
1.0
 50
89.999999999993491
 51
179.9999999999992
  0
ARC
  5
2F16
  8
0
 10
277.43542418612259
 20
260.50830653506239
 30
0.0
 40
1.0
 50
0.0
 51
90.000000000006494
  0
LINE
  5
2F17
  8
0
 10
278.4354241861227
 20
260.50830653506239
 30
0.0
 11
278.4354241861227
 21
249.5083065350625
 31
0.0
  0
LINE
  5
2F18
  8
0
 10
310.43542418612259
 20
249.5083065350625
 30
0.0
 11
310.43542418612259
 21
260.50830653506239
 31
0.0
  0
LINE
  5
2F19
  8
0
 10
269.9354241861227
 20
210.50830653506239
 30
0.0
 11
269.9354241861227
 21
154.50830653506239
 31
0.0
  0
LINE
  5
2F1A
  8
0
 10
318.93542418612259
 20
154.50830653506239
 30
0.0
 11
318.93542418612259
 21
210.50830653506239
 31
0.0
  0
LINE
  5
2F1B
  8
0
 10
318.68542418612259
 20
147.00830653506239
 30
0.0
 11
318.68542418612259
 21
154.50830653506239
 31
0.0
  0
LINE
  5
2F1C
  8
0
 10
270.1854241861227
 20
154.50830653506239
 30
0.0
 11
270.1854241861227
 21
147.00830653506239
 31
0.0
  0
LINE
  5
2F1D
  8
0
 10
270.1854241861227
 20
147.00830653506239
 30
0.0
 11
270.68542418612259
 21
146.50830653506239
 31
0.0
  0
LINE
  5
2F1E
  8
0
 10
318.1854241861227
 20
146.50830653506239
 30
0.0
 11
318.68542418612259
 21
147.00830653506239
 31
0.0
  0
LINE
  5
2F1F
  8
0
 10
271.9354241861227
 20
247.5083065350625
 30
0.0
 11
271.9354241861227
 21
230.50830653506239
 31
0.0
  0
LINE
  5
2F20
  8
0
 10
316.93542418612259
 20
230.50830653506239
 30
0.0
 11
316.93542418612259
 21
247.5083065350625
 31
0.0
  0
LINE
  5
2F21
  8
0
 10
316.93542418612259
 20
247.5083065350625
 30
0.0
 11
314.93542418612259
 21
249.5083065350625
 31
0.0
  0
LINE
  5
2F22
  8
0
 10
273.9354241861227
 20
249.5083065350625
 30
0.0
 11
271.9354241861227
 21
247.5083065350625
 31
0.0
  0
LINE
  5
2F23
  8
0
 10
306.43542418612259
 20
291.50830653506239
 30
0.0
 11
282.4354241861227
 21
291.50830653506239
 31
0.0
  0
LINE
  5
2F26
  8
0
 10
282.4354241861227
 20
294.50830653506239
 30
0.0
 11
306.43542418612259
 21
294.50830653506239
 31
0.0
  0
POLYLINE
  5
2F27
  8
0
 66
     1
 10
0.0
 20
0.0
 30
0.0
 70
   128
  0
VERTEX
  5
467B
  8
0
 10
294.43542418612259
 20
307.15745357397628
 30
0.0
  0
VERTEX
  5
467C
  8
0
 10
294.04381980455332
 20
307.97461687363779
 30
0.0
  0
VERTEX
  5
467D
  8
0
 10
293.62992015432178
 20
308.77798381303802
 30
0.0
  0
VERTEX
  5
467E
  8
0
 10
293.18680936415308
 20
309.56503101521918
 30
0.0
  0
VERTEX
  5
467F
  8
0
 10
292.70743967220852
 20
310.3261287727355
 30
0.0
  0
VERTEX
  5
4680
  8
0
 10
292.21454359442743
 20
311.00487355203472
 30
0.0
  0
VERTEX
  5
4681
  8
0
 10
291.66375527830559
 20
311.63166865483862
 30
0.0
  0
VERTEX
  5
4682
  8
0
 10
291.19182030123079
 20
312.05287310683758
 30
0.0
  0
VERTEX
  5
4683
  8
0
 10
290.65976530191602
 20
312.39451615966902
 30
0.0
  0
VERTEX
  5
4684
  8
0
 10
290.28564450173388
 20
312.54805370358389
 30
0.0
  0
VERTEX
  5
4685
  8
0
 10
289.88501414362258
 20
312.63184964551198
 30
0.0
  0
VERTEX
  5
4686
  8
0
 10
289.4873923243992
 20
312.63201185276682
 30
0.0
  0
VERTEX
  5
4687
  8
0
 10
289.08312553167139
 20
312.54740089735202
 30
0.0
  0
VERTEX
  5
4688
  8
0
 10
288.63033365439719
 20
312.35192072046198
 30
0.0
  0
VERTEX
  5
4689
  8
0
 10
288.19844713016101
 20
312.06785102531791
 30
0.0
  0
VERTEX
  5
468A
  8
0
 10
287.85150072581678
 20
311.77212317700508
 30
0.0
  0
VERTEX
  5
468B
  8
0
 10
287.5251987764853
 20
311.44048203666893
 30
0.0
  0
VERTEX
  5
468C
  8
0
 10
287.2143130885645
 20
311.07755621470272
 30
0.0
  0
VERTEX
  5
468D
  8
0
 10
286.92056272836339
 20
310.6937544229412
 30
0.0
  0
VERTEX
  5
468E
  8
0
 10
286.3663845326426
 20
309.86590924312418
 30
0.0
  0
VERTEX
  5
468F
  8
0
 10
285.85804941700349
 20
308.99353824951601
 30
0.0
  0
VERTEX
  5
4690
  8
0
 10
285.38249111183973
 20
308.08594551927649
 30
0.0
  0
VERTEX
  5
4691
  8
0
 10
284.93542418612259
 20
307.15745357397628
 30
0.0
  0
SEQEND
  5
4692
  8
0
  0
POLYLINE
  5
2F2A
  8
0
 66
     1
 10
0.0
 20
0.0
 30
0.0
 70
   128
  0
VERTEX
  5
4693
  8
0
 10
303.93542418612259
 20
307.15745357397628
 30
0.0
  0
VERTEX
  5
4694
  8
0
 10
303.54381980455332
 20
307.97461687363779
 30
0.0
  0
VERTEX
  5
4695
  8
0
 10
303.12992015432178
 20
308.77798381303802
 30
0.0
  0
VERTEX
  5
4696
  8
0
 10
302.68680936415308
 20
309.56503101521918
 30
0.0
  0
VERTEX
  5
4697
  8
0
 10
302.20743967220852
 20
310.3261287727355
 30
0.0
  0
VERTEX
  5
4698
  8
0
 10
301.71454359442743
 20
311.00487355203472
 30
0.0
  0
VERTEX
  5
4699
  8
0
 10
301.1637552783057
 20
311.63166865483862
 30
0.0
  0
VERTEX
  5
469A
  8
0
 10
300.69182030123079
 20
312.05287310683758
 30
0.0
  0
VERTEX
  5
469B
  8
0
 10
300.15976530191602
 20
312.39451615966902
 30
0.0
  0
VERTEX
  5
469C
  8
0
 10
299.78564450173388
 20
312.54805370358389
 30
0.0
  0
VERTEX
  5
469D
  8
0
 10
299.38501414362258
 20
312.63184964551198
 30
0.0
  0
VERTEX
  5
469E
  8
0
 10
298.9873923243992
 20
312.63201185276682
 30
0.0
  0
VERTEX
  5
469F
  8
0
 10
298.58312553167139
 20
312.54740089735202
 30
0.0
  0
VERTEX
  5
46A0
  8
0
 10
298.13033365439719
 20
312.35192072046198
 30
0.0
  0
VERTEX
  5
46A1
  8
0
 10
297.69844713016101
 20
312.06785102531791
 30
0.0
  0
VERTEX
  5
46A2
  8
0
 10
297.35150072581678
 20
311.77212317700508
 30
0.0
  0
VERTEX
  5
46A3
  8
0
 10
297.02519877648518
 20
311.44048203666893
 30
0.0
  0
VERTEX
  5
46A4
  8
0
 10
296.7143130885645
 20
311.07755621470272
 30
0.0
  0
VERTEX
  5
46A5
  8
0
 10
296.42056272836339
 20
310.6937544229412
 30
0.0
  0
VERTEX
  5
46A6
  8
0
 10
295.86638453264248
 20
309.86590924312418
 30
0.0
  0
VERTEX
  5
46A7
  8
0
 10
295.35804941700349
 20
308.99353824951601
 30
0.0
  0
VERTEX
  5
46A8
  8
0
 10
294.88249111183973
 20
308.08594551927649
 30
0.0
  0
VERTEX
  5
46A9
  8
0
 10
294.43542418612259
 20
307.15745357397628
 30
0.0
  0
SEQEND
  5
46AA
  8
0
  0
LINE
  5
2F2B
  8
0
 10
294.43542418612259
 20
307.15745357397628
 30
0.0
 11
294.43542418612259
 21
294.50830653506239
 31
0.0
  0
LINE
  5
2F2C
  8
0
 10
303.93542418612259
 20
312.6387202342251
 30
0.0
 11
303.93542418612259
 21
294.50830653506239
 31
0.0
  0
LINE
  5
2F2D
  8
0
 10
284.93542418612259
 20
312.64131214671397
 30
0.0
 11
284.93542418612259
 21
294.50830653506239
 31
0.0
  0
LINE
  5
2F2E
  8
0
 10
286.58641476494518
 20
314.50830653506239
 30
0.0
 11
302.28443370415448
 21
314.50830653506239
 31
0.0
  0
LINE
  5
2F37
  8
0
 10
318.43542418612259
 20
261.50830653506239
 30
0.0
 11
250.43542418612259
 21
261.50830653506239
 31
0.0
  0
ARC
  5
2F39
  8
0
 10
249.4354241861227
 20
261.50830653506239
 30
0.0
 40
1.0
 50
270.0
 51
0.0
  0
LINE
  5
2F3A
  8
0
 10
249.4354241861227
 20
260.50830653506239
 30
0.0
 11
229.43542418612259
 21
260.50830653506239
 31
0.0
  0
LINE
  5
2F3B
  8
0
 10
229.43542418612259
 20
290.50830653506239
 30
0.0
 11
318.43542418612259
 21
290.50830653506239
 31
0.0
  0
LINE
  5
2F3C
  8
0
 10
318.93542418612259
 20
154.50830653506239
 30
0.0
 11
269.9354241861227
 21
154.50830653506239
 31
0.0
  0
LINE
  5
2F3F
  8
0
 10
318.1854241861227
 20
146.50830653506239
 30
0.0
 11
270.68542418612259
 21
146.50830653506239
 31
0.0
  0
LINE
  5
2F41
  8
0
 10
319.4354241861227
 20
211.00830653506239
 30
0.0
 11
319.4354241861227
 21
230.00830653506239
 31
0.0
  0
LINE
  5
2F43
  8
0
 10
269.43542418612259
 20
211.00830653506239
 30
0.0
 11
269.43542418612259
 21
230.00830653506239
 31
0.0
  0
LINE
  5
2F44
  8
0
 10
269.9354241861227
 20
230.50830653506239
 30
0.0
 11
318.93542418612259
 21
230.50830653506239
 31
0.0
  0
LINE
  5
2F45
  8
0
 10
318.93542418612259
 20
230.50830653506239
 30
0.0
 11
319.4354241861227
 21
230.00830653506239
 31
0.0
  0
LINE
  5
2F46
  8
0
 10
269.43542418612259
 20
230.00830653506239
 30
0.0
 11
269.9354241861227
 21
230.50830653506239
 31
0.0
  0
LINE
  5
2F47
  8
0
 10
318.93542418612259
 20
210.50830653506239
 30
0.0
 11
319.4354241861227
 21
211.00830653506239
 31
0.0
  0
LINE
  5
2F48
  8
0
 10
318.93542418612259
 20
210.50830653506239
 30
0.0
 11
269.9354241861227
 21
210.50830653506239
 31
0.0
  0
LINE
  5
2F49
  8
0
 10
269.43542418612259
 20
211.00830653506239
 30
0.0
 11
269.9354241861227
 21
210.50830653506239
 31
0.0
  0
LINE
  5
2F4A
  8
0
 10
316.93542418612259
 20
247.5083065350625
 30
0.0
 11
271.9354241861227
 21
247.5083065350625
 31
0.0
  0
LINE
  5
2F4B
  8
0
 10
273.9354241861227
 20
249.5083065350625
 30
0.0
 11
314.93542418612259
 21
249.5083065350625
 31
0.0
  0
LINE
  5
2F4C
  8
1
 10
294.43542418612287
 20
143.50830653506239
 30
0.0
 11
294.43542418612242
 21
317.50830653506239
 31
0.0
  0
LINE
  5
2F4D
  8
0
 10
143.43542418612259
 20
290.50830653506239
 30
0.0
 11
143.43542418612259
 21
291.50830653506239
 31
0.0
  0
LINE
  5
2F4E
  8
0
 10
123.4354241861226
 20
291.50830653506239
 30
0.0
 11
123.4354241861226
 21
290.50830653506239
 31
0.0
  0
LINE
  5
2F4F
  8
0
 10
120.9354241861226
 20
292.00830653506239
 30
0.0
 11
121.4354241861226
 21
291.50830653506239
 31
0.0
  0
LINE
  5
2F50
  8
0
 10
145.43542418612259
 20
291.50830653506239
 30
0.0
 11
145.93542418612259
 21
292.00830653506239
 31
0.0
  0
LINE
  5
2F51
  8
0
 10
145.93542418612259
 20
294.00830653506239
 30
0.0
 11
145.43542418612259
 21
294.50830653506239
 31
0.0
  0
LINE
  5
2F52
  8
0
 10
121.4354241861228
 20
294.50830653506239
 30
0.0
 11
120.9354241861226
 21
294.00830653506239
 31
0.0
  0
LINE
  5
2F53
  8
0
 10
145.93542418612259
 20
292.00830653506239
 30
0.0
 11
145.93542418612259
 21
294.00830653506239
 31
0.0
  0
LINE
  5
2F54
  8
0
 10
120.9354241861226
 20
294.00830653506239
 30
0.0
 11
120.9354241861226
 21
292.00830653506239
 31
0.0
  0
LINE
  5
2F55
  8
0
 10
144.4050793007257
 20
307.15745357397628
 30
0.0
 11
142.73332244358789
 21
313.3965351027162
 31
0.0
  0
LINE
  5
2F56
  8
0
 10
124.1375259286576
 20
313.3965351027162
 30
0.0
 11
122.4657690715198
 21
307.15745357397628
 31
0.0
  0
ARC
  5
2F57
  8
0
 10
141.2844337041542
 20
313.00830653506239
 30
0.0
 40
1.500000000000018
 50
15.00000000000079
 51
90.0
  0
ARC
  5
2F58
  8
0
 10
125.58641466809119
 20
313.00830653506239
 30
0.0
 40
1.500000000000018
 50
90.0
 51
164.9999999999992
  0
ARC
  5
2F59
  8
0
 10
109.4354241861226
 20
289.50830653506239
 30
0.0
 40
1.0
 50
90.0
 51
180.0
  0
ARC
  5
2F5A
  8
0
 10
157.43542418612259
 20
289.50830653506239
 30
0.0
 40
1.0
 50
0.0
 51
90.0
  0
LINE
  5
2F5B
  8
0
 10
158.43542418612259
 20
262.50830653506239
 30
0.0
 11
158.43542418612259
 21
289.50830653506239
 31
0.0
  0
LINE
  5
2F5C
  8
0
 10
108.4354241861226
 20
289.50830653506239
 30
0.0
 11
108.4354241861226
 21
262.50830653506239
 31
0.0
  0
ARC
  5
2F5D
  8
0
 10
109.4354241861226
 20
262.50830653506239
 30
0.0
 40
1.0
 50
180.0
 51
270.0
  0
ARC
  5
2F5E
  8
0
 10
157.43542418612259
 20
262.50830653506239
 30
0.0
 40
1.0
 50
270.0
 51
0.0
  0
ARC
  5
2F5F
  8
0
 10
150.43542418612259
 20
260.50830653506239
 30
0.0
 40
1.0
 50
89.999999999993491
 51
180.0
  0
ARC
  5
2F60
  8
0
 10
116.4354241861228
 20
260.50830653506239
 30
0.0
 40
1.0
 50
0.0
 51
90.000000000006494
  0
LINE
  5
2F61
  8
0
 10
117.4354241861228
 20
260.50830653506239
 30
0.0
 11
117.4354241861228
 21
249.5083065350625
 31
0.0
  0
LINE
  5
2F62
  8
0
 10
149.43542418612259
 20
249.5083065350625
 30
0.0
 11
149.43542418612259
 21
260.50830653506239
 31
0.0
  0
LINE
  5
2F63
  8
0
 10
108.9354241861226
 20
210.50830653506239
 30
0.0
 11
108.9354241861226
 21
154.50830653506239
 31
0.0
  0
LINE
  5
2F64
  8
0
 10
157.93542418612259
 20
154.50830653506239
 30
0.0
 11
157.93542418612259
 21
210.50830653506239
 31
0.0
  0
LINE
  5
2F65
  8
0
 10
109.1854241861226
 20
147.00830653506239
 30
0.0
 11
109.6854241861226
 21
146.50830653506239
 31
0.0
  0
LINE
  5
2F66
  8
0
 10
157.18542418612259
 20
146.50830653506239
 30
0.0
 11
157.68542418612259
 21
147.00830653506239
 31
0.0
  0
LINE
  5
2F67
  8
0
 10
157.68542418612259
 20
147.00830653506239
 30
0.0
 11
157.68542418612259
 21
154.50830653506239
 31
0.0
  0
LINE
  5
2F68
  8
0
 10
109.1854241861226
 20
154.50830653506239
 30
0.0
 11
109.1854241861226
 21
147.00830653506239
 31
0.0
  0
LINE
  5
2F69
  8
0
 10
98.935424186122873
 20
230.50830653506239
 30
0.0
 11
98.435424186122646
 21
230.00830653506239
 31
0.0
  0
LINE
  5
2F6A
  8
0
 10
98.435424186122646
 20
230.00830653506239
 30
0.0
 11
98.435424186122646
 21
211.00830653506239
 31
0.0
  0
LINE
  5
2F6B
  8
0
 10
167.93542418612259
 20
210.50830653506239
 30
0.0
 11
168.43542418612259
 21
211.00830653506239
 31
0.0
  0
LINE
  5
2F6C
  8
0
 10
98.435424186122646
 20
211.00830653506239
 30
0.0
 11
98.935424186122646
 21
210.50830653506239
 31
0.0
  0
LINE
  5
2F6D
  8
0
 10
168.43542418612259
 20
230.00830653506239
 30
0.0
 11
167.93542418612259
 21
230.50830653506239
 31
0.0
  0
LINE
  5
2F6E
  8
0
 10
168.43542418612259
 20
211.00830653506239
 30
0.0
 11
168.43542418612259
 21
230.00830653506239
 31
0.0
  0
LINE
  5
2F6F
  8
0
 10
110.9354241861226
 20
247.5083065350625
 30
0.0
 11
110.9354241861226
 21
230.50830653506239
 31
0.0
  0
LINE
  5
2F70
  8
0
 10
155.93542418612259
 20
230.50830653506239
 30
0.0
 11
155.93542418612259
 21
247.5083065350625
 31
0.0
  0
LINE
  5
2F71
  8
0
 10
155.93542418612259
 20
247.5083065350625
 30
0.0
 11
153.93542418612259
 21
249.5083065350625
 31
0.0
  0
LINE
  5
2F72
  8
0
 10
112.9354241861226
 20
249.5083065350625
 30
0.0
 11
110.9354241861226
 21
247.5083065350625
 31
0.0
  0
LINE
  5
2F73
  8
0
 10
145.43542418612259
 20
291.50830653506239
 30
0.0
 11
121.4354241861226
 21
291.50830653506239
 31
0.0
  0
LINE
  5
2F78
  8
0
 10
121.4354241861228
 20
294.50830653506239
 30
0.0
 11
145.43542418612259
 21
294.50830653506239
 31
0.0
  0
LINE
  5
2F79
  8
0
 10
138.9202517434241
 20
307.15745357397628
 30
0.0
 11
138.9202517434241
 21
294.50830653506239
 31
0.0
  0
POLYLINE
  5
2F7A
  8
0
 66
     1
 10
0.0
 20
0.0
 30
0.0
 70
   128
  0
VERTEX
  5
46AB
  8
0
 10
144.4050793007257
 20
307.15745357397628
 30
0.0
  0
VERTEX
  5
46AC
  8
0
 10
143.9400213311321
 20
308.77798381303802
 30
0.0
  0
VERTEX
  5
46AD
  8
0
 10
143.40742697646141
 20
310.3261287727355
 30
0.0
  0
VERTEX
  5
46AE
  8
0
 10
142.8048555106929
 20
311.63166865483862
 30
0.0
  0
VERTEX
  5
46AF
  8
0
 10
142.22520162756041
 20
312.39451615966902
 30
0.0
  0
VERTEX
  5
46B0
  8
0
 10
141.77789883776489
 20
312.63184964551198
 30
0.0
  0
VERTEX
  5
46B1
  8
0
 10
141.31492823179471
 20
312.54740089735202
 30
0.0
  0
VERTEX
  5
46B2
  8
0
 10
140.8041589185363
 20
312.06785102531791
 30
0.0
  0
VERTEX
  5
46B3
  8
0
 10
140.41139013523821
 20
311.43429676091182
 30
0.0
  0
VERTEX
  5
46B4
  8
0
 10
140.0663720151656
 20
310.6937544229412
 30
0.0
  0
VERTEX
  5
46B5
  8
0
 10
139.4529296688342
 20
308.99353824951601
 30
0.0
  0
VERTEX
  5
46B6
  8
0
 10
138.9202517434241
 20
307.15745357397628
 30
0.0
  0
SEQEND
  5
46B7
  8
0
  0
LINE
  5
2F7B
  8
0
 10
144.4050793007257
 20
307.15745357397628
 30
0.0
 11
144.4050793007257
 21
294.50830653506239
 31
0.0
  0
POLYLINE
  5
2F7C
  8
0
 66
     1
 10
0.0
 20
0.0
 30
0.0
 70
   128
  0
VERTEX
  5
46B8
  8
0
 10
138.9202517434241
 20
307.15745357397628
 30
0.0
  0
VERTEX
  5
46B9
  8
0
 10
138.74871403396631
 20
307.47376379692349
 30
0.0
  0
VERTEX
  5
46BA
  8
0
 10
137.53150190628821
 20
309.48710589792188
 30
0.0
  0
VERTEX
  5
46BB
  8
0
 10
136.02959269266799
 20
311.34417051453318
 30
0.0
  0
VERTEX
  5
46BC
  8
0
 10
134.76365857137651
 20
312.29742624857067
 30
0.0
  0
VERTEX
  5
46BD
  8
0
 10
133.9380862537032
 20
312.59268560275763
 30
0.0
  0
VERTEX
  5
46BE
  8
0
 10
133.05833217930851
 20
312.61436098868347
 30
0.0
  0
VERTEX
  5
46BF
  8
0
 10
131.92362007814631
 20
312.19615141900982
 30
0.0
  0
VERTEX
  5
46C0
  8
0
 10
130.97258744321991
 20
311.47023296715759
 30
0.0
  0
VERTEX
  5
46C1
  8
0
 10
129.9797993635095
 20
310.36956151504302
 30
0.0
  0
VERTEX
  5
46C2
  8
0
 10
129.1089613769484
 20
309.138679204342
 30
0.0
  0
VERTEX
  5
46C3
  8
0
 10
127.9505966288213
 20
307.15745357397628
 30
0.0
  0
SEQEND
  5
46C4
  8
0
  0
POLYLINE
  5
2F7D
  8
0
 66
     1
 10
0.0
 20
0.0
 30
0.0
 70
   128
  0
VERTEX
  5
46C5
  8
0
 10
127.9505966288213
 20
307.15745357397628
 30
0.0
  0
VERTEX
  5
46C6
  8
0
 10
127.4855386592278
 20
308.77798381303802
 30
0.0
  0
VERTEX
  5
46C7
  8
0
 10
126.95294430455711
 20
310.3261287727355
 30
0.0
  0
VERTEX
  5
46C8
  8
0
 10
126.3503728387886
 20
311.63166865483862
 30
0.0
  0
VERTEX
  5
46C9
  8
0
 10
125.77071895565609
 20
312.39451615966902
 30
0.0
  0
VERTEX
  5
46CA
  8
0
 10
125.32341616586061
 20
312.63184964551198
 30
0.0
  0
VERTEX
  5
46CB
  8
0
 10
124.86044555989039
 20
312.54740089735202
 30
0.0
  0
VERTEX
  5
46CC
  8
0
 10
124.349676246632
 20
312.06785102531791
 30
0.0
  0
VERTEX
  5
46CD
  8
0
 10
123.9609761284059
 20
311.44048203666893
 30
0.0
  0
VERTEX
  5
46CE
  8
0
 10
123.611889343261
 20
310.69375442294108
 30
0.0
  0
VERTEX
  5
46CF
  8
0
 10
122.9984469969299
 20
308.99353824951601
 30
0.0
  0
VERTEX
  5
46D0
  8
0
 10
122.4657690715198
 20
307.15745357397628
 30
0.0
  0
SEQEND
  5
46D1
  8
0
  0
LINE
  5
2F7E
  8
0
 10
122.4657690715198
 20
307.15745357397628
 30
0.0
 11
122.4657690715198
 21
294.50830653506239
 31
0.0
  0
LINE
  5
2F7F
  8
0
 10
127.9505966288213
 20
307.15745357397628
 30
0.0
 11
127.9505966288213
 21
294.50830653506239
 31
0.0
  0
LINE
  5
2F80
  8
0
 10
125.58641466809119
 20
314.50830653506239
 30
0.0
 11
141.2844337041542
 21
314.50830653506239
 31
0.0
  0
LINE
  5
2F81
  8
0
 10
143.43542418612259
 20
260.50830653506239
 30
0.0
 11
123.4354241861226
 21
260.50830653506239
 31
0.0
  0
ARC
  5
2F82
  8
0
 10
123.4354241861226
 20
261.50830653506239
 30
0.0
 40
1.0
 50
180.0
 51
270.0
  0
ARC
  5
2F83
  8
0
 10
143.43542418612259
 20
261.50830653506239
 30
0.0
 40
1.0
 50
270.0
 51
0.0
  0
LINE
  5
2F84
  8
0
 10
144.43542418612259
 20
289.50830653506239
 30
0.0
 11
144.43542418612259
 21
261.50830653506239
 31
0.0
  0
LINE
  5
2F85
  8
0
 10
122.4354241861226
 20
289.50830653506239
 30
0.0
 11
122.4354241861226
 21
261.50830653506239
 31
0.0
  0
ARC
  5
2F87
  8
0
 10
143.43542418612259
 20
289.50830653506239
 30
0.0
 40
1.0
 50
0.0
 51
90.0
  0
ARC
  5
2F88
  8
0
 10
123.4354241861226
 20
289.50830653506239
 30
0.0
 40
1.0
 50
90.0
 51
180.0
  0
LINE
  5
2F8A
  8
0
 10
157.43542418612259
 20
261.50830653506239
 30
0.0
 11
144.43542418612259
 21
261.50830653506239
 31
0.0
  0
LINE
  5
2F92
  8
0
 10
109.4354241861226
 20
290.50830653506239
 30
0.0
 11
157.43542418612259
 21
290.50830653506239
 31
0.0
  0
LINE
  5
2F93
  8
0
 10
122.4354241861228
 20
261.50830653506239
 30
0.0
 11
109.4354241861226
 21
261.50830653506239
 31
0.0
  0
LINE
  5
2F95
  8
0
 10
157.93542418612259
 20
154.50830653506239
 30
0.0
 11
108.9354241861226
 21
154.50830653506239
 31
0.0
  0
LINE
  5
2F98
  8
0
 10
157.18542418612259
 20
146.50830653506239
 30
0.0
 11
109.6854241861226
 21
146.50830653506239
 31
0.0
  0
LINE
  5
2F9A
  8
0
 10
157.93032161395439
 20
211.00830653506239
 30
0.0
 11
157.72533978910491
 21
210.50830653506239
 31
0.0
  0
LINE
  5
2F9C
  8
0
 10
108.940526758291
 20
211.00830653506239
 30
0.0
 11
109.1455085831405
 21
210.50830653506239
 31
0.0
  0
LINE
  5
2F9D
  8
0
 10
98.935424186122873
 20
230.50830653506239
 30
0.0
 11
167.93542418612259
 21
230.50830653506239
 31
0.0
  0
LINE
  5
2F9E
  8
0
 10
108.940526758291
 20
230.00830653506239
 30
0.0
 11
109.1455085831405
 21
230.50830653506239
 31
0.0
  0
LINE
  5
2FA0
  8
0
 10
108.940526758291
 20
211.00830653506239
 30
0.0
 11
108.940526758291
 21
230.00830653506239
 31
0.0
  0
LINE
  5
2FA4
  8
0
 10
167.93542418612259
 20
210.50830653506239
 30
0.0
 11
98.935424186122873
 21
210.50830653506239
 31
0.0
  0
LINE
  5
2FA6
  8
0
 10
157.93032161395439
 20
211.00830653506239
 30
0.0
 11
157.93032161395439
 21
230.00830653506239
 31
0.0
  0
LINE
  5
2FA9
  8
0
 10
157.93032161395439
 20
230.00830653506239
 30
0.0
 11
157.72533978910491
 21
230.50830653506239
 31
0.0
  0
LINE
  5
2FAB
  8
0
 10
155.93542418612259
 20
247.5083065350625
 30
0.0
 11
110.9354241861226
 21
247.5083065350625
 31
0.0
  0
LINE
  5
2FAE
  8
0
 10
112.9354241861226
 20
249.5083065350625
 30
0.0
 11
153.93542418612259
 21
249.5083065350625
 31
0.0
  0
LINE
  5
2FAF
  8
1
 10
133.43542418612259
 20
143.50830653506239
 30
0.0
 11
133.43542418612259
 21
317.50830653506239
 31
0.0
  0
CIRCLE
  5
2FB0
  8
0
 10
294.43542418612242
 20
409.19793801808521
 30
0.0
 40
4.7500000000000151
  0
CIRCLE
  5
2FB1
  8
0
 10
294.43542418612242
 20
409.19793801808521
 30
0.0
 40
5.9999999999999671
  0
LINE
  5
2FB4
  8
0
 10
294.43542418612242
 20
398.22828290348252
 30
0.0
 11
284.93542418612242
 21
403.71311046078381
 31
0.0
  0
LINE
  5
2FB5
  8
0
 10
284.93542418612242
 20
403.71311046078381
 30
0.0
 11
284.93542418612242
 21
414.68276557538678
 31
0.0
  0
LINE
  5
2FB6
  8
0
 10
284.93542418612242
 20
414.68276557538678
 30
0.0
 11
294.43542418612242
 21
420.16759313268818
 31
0.0
  0
LINE
  5
2FB7
  8
0
 10
294.43542418612242
 20
420.16759313268818
 30
0.0
 11
303.93542418612242
 21
414.68276557538678
 31
0.0
  0
LINE
  5
2FB8
  8
0
 10
303.93542418612242
 20
414.68276557538678
 30
0.0
 11
303.93542418612242
 21
403.71311046078381
 31
0.0
  0
LINE
  5
2FB9
  8
0
 10
303.93542418612242
 20
403.71311046078381
 30
0.0
 11
294.43542418612242
 21
398.22828290348252
 31
0.0
  0
CIRCLE
  5
2FBA
  8
0
 10
294.43542418612242
 20
409.19793801808521
 30
0.0
 40
12.5
  0
ARC
  5
2FC8
  8
0
 10
294.43542418612242
 20
409.19793801808521
 30
0.0
 40
25.0
 50
239.9999999999998
 51
120.0
  0
LINE
  5
2FC9
  8
0
 10
272.77001537213482
 20
425.55692186670751
 30
0.0
 11
281.93542418612287
 21
430.84857311269627
 31
0.0
  0
LINE
  5
2FCA
  8
0
 10
287.8341349778247
 20
419.88485995390499
 30
0.0
 11
287.95387273978781
 21
419.88622557262443
 31
0.0
  0
ARC
  5
2FCB
  8
0
 10
287.8341349778247
 20
425.13485995390499
 30
0.0
 40
5.250000000000056
 50
313.69313079730188
 51
270.0
  0
ARC
  5
2FCD
  8
0
 10
306.6330161615906
 20
421.39552999355323
 30
0.0
 40
5.2500000000000151
 50
246.193130797301
 51
203.80685700167089
  0
ARC
  5
2FCE
  8
0
 10
252.7700153721353
 20
460.19793801808532
 30
0.0
 40
40.000000000000021
 50
270.0
 51
300.0
  0
ARC
  5
2FCF
  8
0
 10
239.43542418612239
 20
409.19793801808521
 30
0.0
 40
11.00000000000005
 50
90.0
 51
270.0
  0
ARC
  5
2FD1
  8
0
 10
278.49850225030292
 20
415.7992272263831
 30
0.0
 40
5.250000000000056
 50
358.6931307973025
 51
316.30683359671173
  0
LINE
  5
2FD2
  8
0
 10
239.43542418612239
 20
420.19793801808521
 30
0.0
 11
252.7700153721353
 21
420.19793801808521
 31
0.0
  0
ARC
  5
2FD5
  8
0
 10
278.49850225030292
 20
402.59664880978733
 30
0.0
 40
5.2500000000000142
 50
43.693130797305443
 51
1.306841834820234
  0
ARC
  5
2FD7
  8
0
 10
306.6330161615906
 20
397.00034604261731
 30
0.0
 40
5.25
 50
156.19313079730421
 51
113.8068757256363
  0
LINE
  5
2FD8
  8
0
 10
252.7700153721353
 20
398.19793801808532
 30
0.0
 11
239.43542418612239
 21
398.19793801808532
 31
0.0
  0
ARC
  5
2FDA
  8
0
 10
287.8341349778247
 20
393.2610160822656
 30
0.0
 40
5.2500000000000338
 50
88.693130797304903
 51
46.306889768615811
  0
ARC
  5
2FDB
  8
0
 10
252.7700153721353
 20
358.19793801808532
 30
0.0
 40
40.0
 50
59.999999999999758
 51
90.0
  0
LINE
  5
2FDC
  8
0
 10
281.93542418612287
 20
387.54730292347421
 30
0.0
 11
272.77001537213482
 21
392.83895416946302
 31
0.0
  0
ARC
  5
2FEC
  8
0
 10
294.43542418612242
 20
409.19793801808521
 30
0.0
 40
34.999999999999972
 50
44.415308597196208
 51
135.5846914028038
  0
CIRCLE
  5
2FEE
  8
0
 10
294.43542418612242
 20
438.19793801808521
 30
0.0
 40
3.2999999999999541
  0
CIRCLE
  5
2FEF
  8
0
 10
275.43542418612242
 20
431.19793801808532
 30
0.0
 40
3.3000000000000109
  0
CIRCLE
  5
2FF0
  8
0
 10
313.43542418612242
 20
431.19793801808532
 30
0.0
 40
3.3000000000000109
  0
LINE
  5
2FF1
  8
0
 10
319.43542418612242
 20
433.69283544591701
 30
0.0
 11
319.43542418612242
 21
384.70304059025352
 31
0.0
  0
LINE
  5
2FF3
  8
0
 10
269.43542418612242
 20
384.70304059025352
 30
0.0
 11
269.43542418612242
 21
394.56088824304169
 31
0.0
  0
LINE
  5
2FF4
  8
0
 10
269.43542418612242
 20
423.83498779312851
 30
0.0
 11
269.43542418612242
 21
433.69283544591701
 31
0.0
  0
CIRCLE
  5
2FF6
  8
0
 10
313.43542418612242
 20
387.19793801808532
 30
0.0
 40
3.3000000000000109
  0
CIRCLE
  5
2FF7
  8
0
 10
275.43542418612242
 20
387.19793801808532
 30
0.0
 40
3.3000000000000109
  0
ARC
  5
2FF8
  8
0
 10
294.43542418612242
 20
409.19793801808521
 30
0.0
 40
35.000000000000021
 50
224.4153085971968
 51
315.58469140281181
  0
CIRCLE
  5
2FF9
  8
0
 10
294.43542418612242
 20
380.19793801808532
 30
0.0
 40
3.2999999999999541
  0
LINE
  5
2FFA
  8
0
 10
276.9309397629882
 20
418.22329017558599
 30
0.0
 11
275.61542091226329
 21
415.65370976495058
 31
0.0
  0
LINE
  5
2FFB
  8
0
 10
277.18298339957801
 20
413.2296468157478
 30
0.0
 11
275.61542091226329
 21
415.65370976495058
 31
0.0
  0
LINE
  5
2FFC
  8
0
 10
277.18298339957801
 20
413.2296468157478
 30
0.0
 11
280.06606473761758
 21
413.37516427718049
 31
0.0
  0
LINE
  5
2FFD
  8
0
 10
280.06606473761758
 20
413.37516427718049
 30
0.0
 11
281.38158358834238
 21
415.9447446878159
 31
0.0
  0
LINE
  5
2FFE
  8
0
 10
279.81402110102772
 20
418.36880763701839
 30
0.0
 11
281.38158358834238
 21
415.9447446878159
 31
0.0
  0
LINE
  5
2FFF
  8
0
 10
279.81402110102772
 20
418.36880763701839
 30
0.0
 11
276.9309397629882
 21
418.22329017558599
 31
0.0
  0
ARC
  5
3000
  8
0
 10
278.49850225030292
 20
415.7992272263831
 30
0.0
 40
5.0000000000000373
 50
352.89244007838971
 51
322.10755992161012
  0
LINE
  5
3001
  8
0
 10
276.9309397629882
 20
405.02071175899027
 30
0.0
 11
275.61542091226329
 21
402.45113134835498
 31
0.0
  0
LINE
  5
3002
  8
0
 10
277.18298339957801
 20
400.0270683991522
 30
0.0
 11
275.61542091226329
 21
402.45113134835498
 31
0.0
  0
LINE
  5
3003
  8
0
 10
277.18298339957801
 20
400.0270683991522
 30
0.0
 11
280.06606473761758
 21
400.17258586058477
 31
0.0
  0
LINE
  5
3004
  8
0
 10
280.06606473761758
 20
400.17258586058477
 30
0.0
 11
281.38158358834238
 21
402.74216627122013
 31
0.0
  0
LINE
  5
3005
  8
0
 10
279.81402110102772
 20
405.16622922042302
 30
0.0
 11
281.38158358834238
 21
402.74216627122013
 31
0.0
  0
LINE
  5
3006
  8
0
 10
279.81402110102772
 20
405.16622922042302
 30
0.0
 11
276.9309397629882
 21
405.02071175899027
 31
0.0
  0
ARC
  5
3008
  8
0
 10
278.49850225030292
 20
402.59664880978761
 30
0.0
 40
5.0000000000000027
 50
37.892440078389953
 51
7.107581144283678
  0
LINE
  5
3009
  8
0
 10
305.06545367427589
 20
399.42440899182043
 30
0.0
 11
303.74993482355097
 21
396.8548285811849
 31
0.0
  0
LINE
  5
300A
  8
0
 10
305.31749731086569
 20
394.43076563198218
 30
0.0
 11
303.74993482355097
 21
396.8548285811849
 31
0.0
  0
LINE
  5
300B
  8
0
 10
305.31749731086569
 20
394.43076563198218
 30
0.0
 11
308.20057864890492
 21
394.5762830934147
 31
0.0
  0
LINE
  5
300C
  8
0
 10
308.20057864890492
 20
394.5762830934147
 30
0.0
 11
309.51609749963018
 21
397.14586350405011
 31
0.0
  0
LINE
  5
300D
  8
0
 10
307.9485350123154
 20
399.56992645325289
 30
0.0
 11
309.51609749963018
 21
397.14586350405011
 31
0.0
  0
LINE
  5
300E
  8
0
 10
307.9485350123154
 20
399.56992645325289
 30
0.0
 11
305.06545367427589
 21
399.42440899182043
 31
0.0
  0
ARC
  5
3010
  8
0
 10
306.6330161615906
 20
397.00034604261748
 30
0.0
 40
5.0000000000000711
 50
150.39244007839719
 51
119.6075577393258
  0
LINE
  5
3011
  8
0
 10
286.2665724905101
 20
395.68507903146849
 30
0.0
 11
284.95105363978519
 21
393.11549862083319
 31
0.0
  0
LINE
  5
3012
  8
0
 10
286.5186161270999
 20
390.69143567163042
 30
0.0
 11
284.95105363978519
 21
393.11549862083319
 31
0.0
  0
LINE
  5
3013
  8
0
 10
286.5186161270999
 20
390.69143567163042
 30
0.0
 11
289.40169746513948
 21
390.83695313306288
 31
0.0
  0
LINE
  5
3014
  8
0
 10
289.40169746513948
 20
390.83695313306288
 30
0.0
 11
290.71721631586439
 21
393.40653354369829
 31
0.0
  0
LINE
  5
3015
  8
0
 10
289.14965382854962
 20
395.83059649290112
 30
0.0
 11
290.71721631586439
 21
393.40653354369829
 31
0.0
  0
LINE
  5
3016
  8
0
 10
289.14965382854962
 20
395.83059649290112
 30
0.0
 11
286.2665724905101
 21
395.68507903146849
 31
0.0
  0
ARC
  5
3018
  8
0
 10
287.8341349778247
 20
393.26101608226571
 30
0.0
 40
5.000000000000008
 50
82.892440078390464
 51
52.107571782299821
  0
LINE
  5
3019
  8
0
 10
286.2665724905101
 20
427.55892290310783
 30
0.0
 11
284.95105363978519
 21
424.98934249247247
 31
0.0
  0
LINE
  5
301A
  8
0
 10
286.5186161270999
 20
422.56527954326958
 30
0.0
 11
284.95105363978519
 21
424.98934249247247
 31
0.0
  0
LINE
  5
301B
  8
0
 10
286.5186161270999
 20
422.56527954326958
 30
0.0
 11
289.40169746513948
 21
422.71079700470227
 31
0.0
  0
LINE
  5
301C
  8
0
 10
289.40169746513948
 20
422.71079700470227
 30
0.0
 11
290.71721631586439
 21
425.28037741533768
 31
0.0
  0
LINE
  5
301D
  8
0
 10
289.14965382854962
 20
427.70444036454052
 30
0.0
 11
290.71721631586439
 21
425.28037741533768
 31
0.0
  0
LINE
  5
301E
  8
0
 10
289.14965382854962
 20
427.70444036454052
 30
0.0
 11
286.2665724905101
 21
427.55892290310783
 31
0.0
  0
ARC
  5
3020
  8
0
 10
287.8341349778247
 20
425.13485995390499
 30
0.0
 40
4.999999999999968
 50
307.89244007838812
 51
277.1075822681575
  0
LINE
  5
3021
  8
0
 10
305.06545367427589
 20
423.819592942756
 30
0.0
 11
303.74993482355097
 21
421.25001253212071
 31
0.0
  0
LINE
  5
3022
  8
0
 10
305.31749731086569
 20
418.82594958291787
 30
0.0
 11
303.74993482355097
 21
421.25001253212071
 31
0.0
  0
LINE
  5
3023
  8
0
 10
305.31749731086569
 20
418.82594958291787
 30
0.0
 11
308.20057864890492
 21
418.9714670443505
 31
0.0
  0
LINE
  5
3024
  8
0
 10
308.20057864890492
 20
418.9714670443505
 30
0.0
 11
309.51609749963018
 21
421.54104745498603
 31
0.0
  0
LINE
  5
3025
  8
0
 10
307.9485350123154
 20
423.96511040418852
 30
0.0
 11
309.51609749963018
 21
421.54104745498603
 31
0.0
  0
LINE
  5
3026
  8
0
 10
307.9485350123154
 20
423.96511040418852
 30
0.0
 11
305.06545367427589
 21
423.819592942756
 31
0.0
  0
ARC
  5
3028
  8
0
 10
306.6330161615906
 20
421.39552999355323
 30
0.0
 40
5.0000000000000444
 50
240.39244007839321
 51
209.607539015356
  0
LINE
  5
3033
  8
0
 10
465.43542418612259
 20
290.50830653506239
 30
0.0
 11
465.43542418612259
 21
291.5083065350625
 31
0.0
  0
LINE
  5
3034
  8
0
 10
445.43542418612259
 20
291.5083065350625
 30
0.0
 11
445.43542418612259
 21
290.50830653506239
 31
0.0
  0
LINE
  5
3035
  8
0
 10
467.93542418612259
 20
292.00830653506239
 30
0.0
 11
467.93542418612259
 21
294.00830653506239
 31
0.0
  0
LINE
  5
3036
  8
0
 10
442.93542418612259
 20
294.00830653506239
 30
0.0
 11
442.93542418612259
 21
292.00830653506239
 31
0.0
  0
LINE
  5
3037
  8
0
 10
467.93542418612259
 20
294.00830653506239
 30
0.0
 11
467.43542418612259
 21
294.50830653506239
 31
0.0
  0
LINE
  5
3038
  8
0
 10
443.43542418612259
 20
294.50830653506239
 30
0.0
 11
442.93542418612259
 21
294.00830653506239
 31
0.0
  0
LINE
  5
3039
  8
0
 10
442.93542418612259
 20
292.00830653506239
 30
0.0
 11
443.43542418612259
 21
291.5083065350625
 31
0.0
  0
LINE
  5
303A
  8
0
 10
467.43542418612259
 20
291.5083065350625
 30
0.0
 11
467.93542418612259
 21
292.00830653506239
 31
0.0
  0
LINE
  5
303B
  8
0
 10
466.40507930072522
 20
307.15745357397651
 30
0.0
 11
464.73332244358761
 21
313.3965351027162
 31
0.0
  0
LINE
  5
303C
  8
0
 10
446.13752592865762
 20
313.3965351027162
 30
0.0
 11
444.46576907152001
 21
307.15745357397623
 31
0.0
  0
ARC
  5
303D
  8
0
 10
463.28443370415391
 20
313.00830653506239
 30
0.0
 40
1.5000000000000311
 50
14.99999999999743
 51
90.0
  0
ARC
  5
303E
  8
0
 10
447.58641466809121
 20
313.00830653506239
 30
0.0
 40
1.5000000000000311
 50
90.0
 51
165.0000000000025
  0
ARC
  5
303F
  8
0
 10
431.43542418612259
 20
289.50830653506239
 30
0.0
 40
1.0
 50
90.0
 51
179.99999999999841
  0
ARC
  5
3040
  8
0
 10
479.43542418612259
 20
289.50830653506239
 30
0.0
 40
1.0
 50
0.0000000000008142
 51
90.0
  0
LINE
  5
3041
  8
0
 10
480.43542418612259
 20
262.50830653506239
 30
0.0
 11
480.43542418612259
 21
289.50830653506239
 31
0.0
  0
LINE
  5
3042
  8
0
 10
430.43542418612259
 20
289.50830653506239
 30
0.0
 11
430.43542418612259
 21
262.50830653506239
 31
0.0
  0
ARC
  5
3043
  8
0
 10
431.43542418612259
 20
262.50830653506239
 30
0.0
 40
1.0
 50
179.99999999999841
 51
270.0
  0
ARC
  5
3044
  8
0
 10
479.43542418612259
 20
262.50830653506239
 30
0.0
 40
1.0
 50
270.0
 51
0.0000000000008142
  0
ARC
  5
3045
  8
0
 10
472.43542418612259
 20
260.50830653506239
 30
0.0
 40
1.0
 50
89.999999999993491
 51
179.9999999999992
  0
ARC
  5
3046
  8
0
 10
438.43542418612259
 20
260.50830653506239
 30
0.0
 40
1.0
 50
0.0000000000008142
 51
90.000000000006494
  0
LINE
  5
3047
  8
0
 10
439.43542418612259
 20
260.50830653506239
 30
0.0
 11
439.43542418612259
 21
249.5083065350625
 31
0.0
  0
LINE
  5
3048
  8
0
 10
471.43542418612259
 20
249.5083065350625
 30
0.0
 11
471.43542418612259
 21
260.50830653506239
 31
0.0
  0
LINE
  5
3049
  8
0
 10
430.93542418612259
 20
210.50830653506239
 30
0.0
 11
430.93542418612259
 21
154.50830653506239
 31
0.0
  0
LINE
  5
304A
  8
0
 10
479.93542418612259
 20
154.50830653506239
 30
0.0
 11
479.93542418612259
 21
210.50830653506239
 31
0.0
  0
LINE
  5
304B
  8
0
 10
431.18542418612259
 20
147.00830653506239
 30
0.0
 11
431.68542418612259
 21
146.50830653506239
 31
0.0
  0
LINE
  5
304C
  8
0
 10
479.18542418612259
 20
146.50830653506239
 30
0.0
 11
479.68542418612259
 21
147.00830653506239
 31
0.0
  0
LINE
  5
304D
  8
0
 10
479.68542418612259
 20
147.00830653506239
 30
0.0
 11
479.68542418612259
 21
154.50830653506239
 31
0.0
  0
LINE
  5
304E
  8
0
 10
431.18542418612259
 20
154.50830653506239
 30
0.0
 11
431.18542418612259
 21
147.00830653506239
 31
0.0
  0
LINE
  5
304F
  8
0
 10
489.93542418612259
 20
210.50830653506239
 30
0.0
 11
490.43542418612259
 21
211.00830653506239
 31
0.0
  0
LINE
  5
3050
  8
0
 10
490.43542418612259
 20
230.00830653506239
 30
0.0
 11
489.93542418612259
 21
230.5083065350625
 31
0.0
  0
LINE
  5
3051
  8
0
 10
490.43542418612259
 20
211.00830653506239
 30
0.0
 11
490.43542418612259
 21
230.00830653506239
 31
0.0
  0
LINE
  5
3052
  8
0
 10
420.93542418612259
 20
230.5083065350625
 30
0.0
 11
420.43542418612259
 21
230.00830653506239
 31
0.0
  0
LINE
  5
3053
  8
0
 10
420.43542418612259
 20
211.00830653506239
 30
0.0
 11
420.93542418612259
 21
210.50830653506239
 31
0.0
  0
LINE
  5
3054
  8
0
 10
420.43542418612259
 20
230.00830653506239
 30
0.0
 11
420.43542418612259
 21
211.00830653506239
 31
0.0
  0
LINE
  5
3055
  8
0
 10
477.93542418612259
 20
247.5083065350625
 30
0.0
 11
475.93542418612259
 21
249.5083065350625
 31
0.0
  0
LINE
  5
3056
  8
0
 10
434.93542418612259
 20
249.5083065350625
 30
0.0
 11
432.93542418612259
 21
247.5083065350625
 31
0.0
  0
LINE
  5
3057
  8
0
 10
432.93542418612259
 20
247.5083065350625
 30
0.0
 11
432.93542418612259
 21
230.5083065350625
 31
0.0
  0
LINE
  5
3058
  8
0
 10
477.93542418612259
 20
230.5083065350625
 30
0.0
 11
477.93542418612259
 21
247.5083065350625
 31
0.0
  0
LINE
  5
305C
  8
0
 10
443.43542418612259
 20
294.50830653506239
 30
0.0
 11
467.43542418612259
 21
294.50830653506239
 31
0.0
  0
LINE
  5
305D
  8
0
 10
467.43542418612259
 20
291.5083065350625
 30
0.0
 11
443.43542418612259
 21
291.5083065350625
 31
0.0
  0
POLYLINE
  5
305F
  8
0
 66
     1
 10
0.0
 20
0.0
 30
0.0
 70
   128
  0
VERTEX
  5
46D2
  8
0
 10
466.40507930072562
 20
307.1574535739764
 30
0.0
  0
VERTEX
  5
46D3
  8
0
 10
465.94002133113207
 20
308.77798381303802
 30
0.0
  0
VERTEX
  5
46D4
  8
0
 10
465.40742697646169
 20
310.32612877273539
 30
0.0
  0
VERTEX
  5
46D5
  8
0
 10
464.80485551069319
 20
311.63166865483862
 30
0.0
  0
VERTEX
  5
46D6
  8
0
 10
464.22520162756041
 20
312.39451615966902
 30
0.0
  0
VERTEX
  5
46D7
  8
0
 10
463.77789883776472
 20
312.63184964551198
 30
0.0
  0
VERTEX
  5
46D8
  8
0
 10
463.31492823179468
 20
312.54740089735208
 30
0.0
  0
VERTEX
  5
46D9
  8
0
 10
462.80415891853647
 20
312.06785102531791
 30
0.0
  0
VERTEX
  5
46DA
  8
0
 10
462.41545880030998
 20
311.44048203666898
 30
0.0
  0
VERTEX
  5
46DB
  8
0
 10
462.06637201516531
 20
310.6937544229412
 30
0.0
  0
VERTEX
  5
46DC
  8
0
 10
461.45292966883397
 20
308.99353824951601
 30
0.0
  0
VERTEX
  5
46DD
  8
0
 10
460.92025174342388
 20
307.1574535739764
 30
0.0
  0
SEQEND
  5
46DE
  8
0
  0
POLYLINE
  5
3060
  8
0
 66
     1
 10
0.0
 20
0.0
 30
0.0
 70
   128
  0
VERTEX
  5
46DF
  8
0
 10
460.92025174342388
 20
307.1574535739764
 30
0.0
  0
VERTEX
  5
46E0
  8
0
 10
459.76188699529678
 20
309.138679204342
 30
0.0
  0
VERTEX
  5
46E1
  8
0
 10
458.90439579792582
 20
310.352505262904
 30
0.0
  0
VERTEX
  5
46E2
  8
0
 10
457.8982609290253
 20
311.4702329671577
 30
0.0
  0
VERTEX
  5
46E3
  8
0
 10
456.94722829409892
 20
312.19615141900982
 30
0.0
  0
VERTEX
  5
46E4
  8
0
 10
455.8125161929367
 20
312.61436098868347
 30
0.0
  0
VERTEX
  5
46E5
  8
0
 10
454.9327621185422
 20
312.59268560275768
 30
0.0
  0
VERTEX
  5
46E6
  8
0
 10
454.10718980086881
 20
312.29742624857067
 30
0.0
  0
VERTEX
  5
46E7
  8
0
 10
452.84125567957722
 20
311.34417051453329
 30
0.0
  0
VERTEX
  5
46E8
  8
0
 10
451.36610737988138
 20
309.52653974059928
 30
0.0
  0
VERTEX
  5
46E9
  8
0
 10
450.12213433827918
 20
307.47376379692372
 30
0.0
  0
VERTEX
  5
46EA
  8
0
 10
449.9505966288213
 20
307.1574535739764
 30
0.0
  0
SEQEND
  5
46EB
  8
0
  0
POLYLINE
  5
3061
  8
0
 66
     1
 10
0.0
 20
0.0
 30
0.0
 70
   128
  0
VERTEX
  5
46EC
  8
0
 10
449.9505966288213
 20
307.1574535739764
 30
0.0
  0
VERTEX
  5
46ED
  8
0
 10
449.48553865922781
 20
308.77798381303802
 30
0.0
  0
VERTEX
  5
46EE
  8
0
 10
448.95294430455732
 20
310.3261287727355
 30
0.0
  0
VERTEX
  5
46EF
  8
0
 10
448.35037283878842
 20
311.63166865483862
 30
0.0
  0
VERTEX
  5
46F0
  8
0
 10
447.77071895565609
 20
312.39451615966902
 30
0.0
  0
VERTEX
  5
46F1
  8
0
 10
447.32341616586041
 20
312.63184964551198
 30
0.0
  0
VERTEX
  5
46F2
  8
0
 10
446.86044555989042
 20
312.54740089735202
 30
0.0
  0
VERTEX
  5
46F3
  8
0
 10
446.34967624663182
 20
312.06785102531791
 30
0.0
  0
VERTEX
  5
46F4
  8
0
 10
445.96097612840612
 20
311.44048203666893
 30
0.0
  0
VERTEX
  5
46F5
  8
0
 10
445.611889343261
 20
310.6937544229412
 30
0.0
  0
VERTEX
  5
46F6
  8
0
 10
444.9984469969296
 20
308.99353824951601
 30
0.0
  0
VERTEX
  5
46F7
  8
0
 10
444.46576907152001
 20
307.1574535739764
 30
0.0
  0
SEQEND
  5
46F8
  8
0
  0
LINE
  5
3062
  8
0
 10
460.92025174342388
 20
307.1574535739764
 30
0.0
 11
460.92025174342388
 21
294.50830653506239
 31
0.0
  0
LINE
  5
3063
  8
0
 10
466.40507930072562
 20
307.1574535739764
 30
0.0
 11
466.40507930072562
 21
294.50830653506239
 31
0.0
  0
LINE
  5
3064
  8
0
 10
444.46576907152001
 20
307.1574535739764
 30
0.0
 11
444.46576907152001
 21
294.50830653506239
 31
0.0
  0
LINE
  5
3065
  8
0
 10
449.9505966288213
 20
307.1574535739764
 30
0.0
 11
449.9505966288213
 21
294.50830653506239
 31
0.0
  0
LINE
  5
3067
  8
0
 10
447.58641466809121
 20
314.50830653506239
 30
0.0
 11
463.28443370415391
 21
314.50830653506239
 31
0.0
  0
LINE
  5
3068
  8
0
 10
431.43542418612259
 20
290.50830653506239
 30
0.0
 11
479.43542418612259
 21
290.50830653506239
 31
0.0
  0
LINE
  5
3069
  8
0
 10
479.43542418612259
 20
261.50830653506239
 30
0.0
 11
431.43542418612259
 21
261.50830653506239
 31
0.0
  0
LINE
  5
306A
  8
0
 10
479.93542418612259
 20
154.50830653506239
 30
0.0
 11
430.93542418612259
 21
154.50830653506239
 31
0.0
  0
LINE
  5
306D
  8
0
 10
479.18542418612259
 20
146.50830653506239
 30
0.0
 11
431.68542418612259
 21
146.50830653506239
 31
0.0
  0
LINE
  5
3071
  8
0
 10
479.72533978910519
 20
210.50830653506239
 30
0.0
 11
479.93032161395439
 21
211.00830653506239
 31
0.0
  0
LINE
  5
3074
  8
0
 10
479.72533978910519
 20
230.5083065350625
 30
0.0
 11
479.93032161395439
 21
230.00830653506239
 31
0.0
  0
LINE
  5
3075
  8
0
 10
479.93032161395439
 20
211.00830653506239
 30
0.0
 11
479.93032161395439
 21
230.00830653506239
 31
0.0
  0
LINE
  5
3077
  8
0
 10
431.1455085831405
 20
210.50830653506239
 30
0.0
 11
430.94052675829079
 21
211.00830653506239
 31
0.0
  0
LINE
  5
307B
  8
0
 10
431.1455085831405
 20
230.5083065350625
 30
0.0
 11
430.94052675829079
 21
230.00830653506239
 31
0.0
  0
LINE
  5
307C
  8
0
 10
430.94052675829079
 20
211.00830653506239
 30
0.0
 11
430.94052675829079
 21
230.00830653506239
 31
0.0
  0
LINE
  5
307D
  8
0
 10
420.93542418612259
 20
230.5083065350625
 30
0.0
 11
489.93542418612259
 21
230.5083065350625
 31
0.0
  0
LINE
  5
3080
  8
0
 10
489.93542418612259
 20
210.50830653506239
 30
0.0
 11
420.93542418612259
 21
210.50830653506239
 31
0.0
  0
LINE
  5
3081
  8
0
 10
434.93542418612259
 20
249.5083065350625
 30
0.0
 11
475.93542418612259
 21
249.5083065350625
 31
0.0
  0
LINE
  5
3082
  8
0
 10
477.93542418612259
 20
247.5083065350625
 30
0.0
 11
432.93542418612259
 21
247.5083065350625
 31
0.0
  0
LINE
  5
319C
  8
0
 10
250.43542418612259
 20
40.508306535062381
 30
0.0
 11
239.43542418612259
 21
40.508306535062381
 31
0.0
  0
ARC
  5
319E
  8
0
 10
239.43542418612259
 20
51.508306535062388
 30
0.0
 40
11.0
 50
90.0
 51
270.0
  0
LINE
  5
31A1
  8
0
 10
250.43542418612259
 20
62.508306535062388
 30
0.0
 11
250.43542418612259
 21
40.508306535062381
 31
0.0
  0
LINE
  5
31A5
  8
0
 10
239.43542418612259
 20
62.508306535062388
 30
0.0
 11
250.43542418612259
 21
62.508306535062388
 31
0.0
  0
ARC
  5
31A6
  8
0
 10
252.7700153721355
 20
0.5083065350623884
 30
0.0
 40
40.000000000000021
 50
65.37766361631256
 51
90.0
  0
LINE
  5
31A7
  8
0
 10
252.7700153721355
 20
40.508306535062381
 30
0.0
 11
250.43542418612259
 21
40.508306535062381
 31
0.0
  0
LINE
  5
31A8
  8
0
 10
250.43542418612259
 20
62.508306535062388
 30
0.0
 11
252.7700153721355
 21
62.508306535062388
 31
0.0
  0
ARC
  5
31A9
  8
0
 10
252.7700153721355
 20
102.5083065350623
 30
0.0
 40
40.0
 50
270.0
 51
294.62233638368741
  0
LINE
  5
31AA
  8
0
 10
285.75364924792598
 20
33.527223801505592
 30
0.0
 11
286.6666111518341
 21
34.999127521866399
 31
0.0
  0
LINE
  5
31AB
  8
0
 10
285.84838609003123
 20
36.525727583518943
 30
0.0
 11
286.6666111518341
 21
34.999127521866399
 31
0.0
  0
LINE
  5
31AC
  8
0
 10
285.84838609003123
 20
36.525727583518943
 30
0.0
 11
284.11719912431982
 21
36.58042392481056
 31
0.0
  0
LINE
  5
31AD
  8
0
 10
284.11719912431982
 20
36.58042392481056
 30
0.0
 11
283.20423722041119
 21
35.10852020444969
 31
0.0
  0
LINE
  5
31AE
  8
0
 10
284.02246228221412
 20
33.58192014279723
 30
0.0
 11
283.20423722041119
 21
35.10852020444969
 31
0.0
  0
CIRCLE
  5
31AF
  8
0
 10
284.93542418612259
 20
35.053823863158073
 30
0.0
 40
3.50000000000002
  0
LINE
  5
31B0
  8
0
 10
284.02246228221412
 20
33.58192014279723
 30
0.0
 11
285.75364924792598
 21
33.527223801505592
 31
0.0
  0
LINE
  5
31B1
  8
0
 10
304.84838609003123
 20
36.525727583518943
 30
0.0
 11
305.6666111518341
 21
34.999127521866399
 31
0.0
  0
LINE
  5
31B2
  8
0
 10
304.84838609003123
 20
36.525727583518943
 30
0.0
 11
303.11719912431982
 21
36.58042392481056
 31
0.0
  0
LINE
  5
31B3
  8
0
 10
303.11719912431982
 20
36.58042392481056
 30
0.0
 11
302.20423722041119
 21
35.10852020444969
 31
0.0
  0
CIRCLE
  5
31B4
  8
0
 10
303.93542418612259
 20
35.053823863158073
 30
0.0
 40
3.499999999999972
  0
LINE
  5
31B5
  8
0
 10
303.02246228221412
 20
33.58192014279723
 30
0.0
 11
302.20423722041119
 21
35.10852020444969
 31
0.0
  0
LINE
  5
31B6
  8
0
 10
303.02246228221412
 20
33.58192014279723
 30
0.0
 11
304.75364924792598
 21
33.527223801505592
 31
0.0
  0
LINE
  5
31B7
  8
0
 10
304.75364924792598
 20
33.527223801505592
 30
0.0
 11
305.6666111518341
 21
34.999127521866399
 31
0.0
  0
LINE
  5
31B8
  8
0
 10
276.25364924792598
 20
49.981706473409901
 30
0.0
 11
277.1666111518341
 21
51.453610193770743
 31
0.0
  0
LINE
  5
31B9
  8
0
 10
276.34838609003123
 20
52.980210255423287
 30
0.0
 11
277.1666111518341
 21
51.453610193770743
 31
0.0
  0
LINE
  5
31BA
  8
0
 10
276.34838609003123
 20
52.980210255423287
 30
0.0
 11
274.61719912431982
 21
53.034906596714883
 31
0.0
  0
LINE
  5
31BB
  8
0
 10
274.61719912431982
 20
53.034906596714883
 30
0.0
 11
273.70423722041119
 21
51.563002876353998
 31
0.0
  0
LINE
  5
31BC
  8
0
 10
274.52246228221412
 20
50.036402814701582
 30
0.0
 11
273.70423722041119
 21
51.563002876353998
 31
0.0
  0
LINE
  5
31BD
  8
0
 10
274.52246228221412
 20
50.036402814701582
 30
0.0
 11
276.25364924792598
 21
49.981706473409901
 31
0.0
  0
CIRCLE
  5
31BE
  8
0
 10
275.43542418612259
 20
51.508306535062388
 30
0.0
 40
3.50000000000002
  0
LINE
  5
31BF
  8
0
 10
285.75364924792598
 20
66.436189145314245
 30
0.0
 11
286.6666111518341
 21
67.908092865675059
 31
0.0
  0
LINE
  5
31C0
  8
0
 10
285.84838609003123
 20
69.434692927327603
 30
0.0
 11
286.6666111518341
 21
67.908092865675059
 31
0.0
  0
LINE
  5
31C1
  8
0
 10
285.84838609003123
 20
69.434692927327603
 30
0.0
 11
284.11719912431982
 21
69.489389268619192
 31
0.0
  0
LINE
  5
31C2
  8
0
 10
284.11719912431982
 20
69.489389268619192
 30
0.0
 11
283.20423722041119
 21
68.017485548258335
 31
0.0
  0
LINE
  5
31C3
  8
0
 10
284.02246228221412
 20
66.49088548660589
 30
0.0
 11
283.20423722041119
 21
68.017485548258335
 31
0.0
  0
LINE
  5
31C4
  8
0
 10
284.02246228221412
 20
66.49088548660589
 30
0.0
 11
285.75364924792598
 21
66.436189145314245
 31
0.0
  0
CIRCLE
  5
31C5
  8
0
 10
284.93542418612259
 20
67.962789206966733
 30
0.0
 40
3.500000000000012
  0
LINE
  5
31C6
  8
0
 10
304.75364924792598
 20
66.436189145314245
 30
0.0
 11
305.6666111518341
 21
67.908092865675059
 31
0.0
  0
LINE
  5
31C7
  8
0
 10
304.84838609003123
 20
69.434692927327603
 30
0.0
 11
305.6666111518341
 21
67.908092865675059
 31
0.0
  0
LINE
  5
31C8
  8
0
 10
304.84838609003123
 20
69.434692927327603
 30
0.0
 11
303.11719912431982
 21
69.48938926861922
 31
0.0
  0
LINE
  5
31C9
  8
0
 10
303.11719912431982
 20
69.48938926861922
 30
0.0
 11
302.20423722041119
 21
68.017485548258335
 31
0.0
  0
LINE
  5
31CA
  8
0
 10
303.02246228221412
 20
66.49088548660589
 30
0.0
 11
302.20423722041119
 21
68.017485548258335
 31
0.0
  0
LINE
  5
31CB
  8
0
 10
303.02246228221412
 20
66.49088548660589
 30
0.0
 11
304.75364924792598
 21
66.436189145314245
 31
0.0
  0
CIRCLE
  5
31CC
  8
0
 10
303.93542418612259
 20
67.962789206966733
 30
0.0
 40
3.5000000000000271
  0
LINE
  5
31CD
  8
0
 10
314.25364924792552
 20
49.981706473409929
 30
0.0
 11
315.1666111518341
 21
51.453610193770743
 31
0.0
  0
LINE
  5
31CE
  8
0
 10
314.34838609003123
 20
52.980210255423287
 30
0.0
 11
315.1666111518341
 21
51.453610193770743
 31
0.0
  0
LINE
  5
31CF
  8
0
 10
314.34838609003123
 20
52.980210255423287
 30
0.0
 11
312.61719912431982
 21
53.034906596714883
 31
0.0
  0
LINE
  5
31D0
  8
0
 10
312.61719912431982
 20
53.034906596714883
 30
0.0
 11
311.70423722041119
 21
51.563002876354027
 31
0.0
  0
LINE
  5
31D1
  8
0
 10
312.52246228221412
 20
50.036402814701582
 30
0.0
 11
311.70423722041119
 21
51.563002876354027
 31
0.0
  0
CIRCLE
  5
31D2
  8
0
 10
313.4354241861227
 20
51.508306535062388
 30
0.0
 40
3.499999999999964
  0
LINE
  5
31D3
  8
0
 10
312.52246228221412
 20
50.036402814701582
 30
0.0
 11
314.25364924792552
 21
49.981706473409929
 31
0.0
  0
LINE
  5
31D4
  8
0
 10
298.08725839612021
 20
47.810454874612581
 30
0.0
 11
298.1846577322824
 21
47.711828191076933
 31
0.0
  0
ARC
  5
31D5
  8
0
 10
299.36799463564938
 20
49.075253152899108
 30
0.0
 40
1.8000000000000631
 50
104.6859064771252
 51
224.6412668771323
  0
ARC
  5
31D6
  8
0
 10
298.4553226495521
 20
52.557641678866993
 30
0.0
 40
1.799999999999953
 50
284.68590647711852
 51
21.15411764913679
  0
ARC
  5
31D7
  8
0
 10
294.65492422591001
 20
51.087064641925622
 30
0.0
 40
5.87500000000004
 50
21.15411578807241
 51
213.8919757341059
  0
ARC
  5
31D8
  8
0
 10
291.27230590732171
 20
48.81472701059738
 30
0.0
 40
1.800000000000032
 50
213.8919757341036
 51
310.36018422299509
  0
ARC
  5
31D9
  8
0
 10
293.60363188746192
 20
46.071568397917133
 30
0.0
 40
1.8000000000000831
 50
10.40482382297899
 51
130.3601842229869
  0
LINE
  5
31DA
  8
0
 10
295.39906714112408
 20
46.260317181483629
 30
0.0
 11
295.3740331753927
 21
46.396651894413992
 31
0.0
  0
ARC
  5
31DB
  8
0
 10
293.72702148030089
 20
45.953293879236689
 30
0.0
 40
1.700000000000081
 50
301.95611405796802
 51
10.40482382297485
  0
ARC
  5
31DC
  8
0
 10
299.39424195850438
 20
48.90635989834766
 30
0.0
 40
1.7000000000000539
 50
224.64126687714091
 51
293.08997664215229
  0
CIRCLE
  5
31E2
  8
0
 10
294.43542418612259
 20
51.508306535062388
 30
0.0
 40
24.50000000000006
  0
CIRCLE
  5
31E3
  8
0
 10
284.93542418612259
 20
35.053823863157987
 30
0.0
 40
3.9999999999999432
  0
CIRCLE
  5
31E4
  8
0
 10
303.93542418612259
 20
35.053823863158023
 30
0.0
 40
4.0
  0
CIRCLE
  5
31E5
  8
0
 10
313.4354241861227
 20
51.508306535062388
 30
0.0
 40
4.0
  0
CIRCLE
  5
31E6
  8
0
 10
303.93542418612259
 20
67.962789206966633
 30
0.0
 40
4.0
  0
CIRCLE
  5
31E7
  8
0
 10
284.93542418612259
 20
67.962789206966633
 30
0.0
 40
4.0
  0
CIRCLE
  5
31E8
  8
0
 10
275.43542418612259
 20
51.508306535062388
 30
0.0
 40
4.000000000000056
  0
CIRCLE
  5
31EB
  8
0
 10
294.43542418612259
 20
51.508306535062388
 30
0.0
 40
24.25
  0
CIRCLE
  5
31EC
  8
0
 10
294.43542418612259
 20
51.508306535062388
 30
0.0
 40
7.0
  0
ARC
  5
31ED
  8
0
 10
294.43542418612259
 20
51.508306535062388
 30
0.0
 40
35.000000000000007
 50
224.4153085971968
 51
315.58469140281181
  0
CIRCLE
  5
31FA
  8
0
 10
294.43542418612259
 20
22.508306535062388
 30
0.0
 40
3.3000000000000109
  0
CIRCLE
  5
31FB
  8
0
 10
313.4354241861227
 20
29.508306535062388
 30
0.0
 40
3.2999999999999541
  0
CIRCLE
  5
31FC
  8
0
 10
275.43542418612259
 20
29.508306535062388
 30
0.0
 40
3.3000000000000109
  0
LINE
  5
31FE
  8
0
 10
319.4354241861227
 20
76.00320396289419
 30
0.0
 11
319.4354241861227
 21
27.01340910723059
 31
0.0
  0
LINE
  5
31FF
  8
0
 10
269.43542418612259
 20
27.01340910723059
 30
0.0
 11
269.43542418612259
 21
76.003203962894162
 31
0.0
  0
CIRCLE
  5
3201
  8
0
 10
313.4354241861227
 20
73.508306535062388
 30
0.0
 40
3.2999999999999541
  0
CIRCLE
  5
3202
  8
0
 10
275.43542418612259
 20
73.508306535062388
 30
0.0
 40
3.3000000000000109
  0
ARC
  5
3203
  8
0
 10
294.43542418612259
 20
51.508306535062388
 30
0.0
 40
35.0
 50
44.415308597196208
 51
135.5846914028038
  0
CIRCLE
  5
3204
  8
0
 10
294.43542418612259
 20
80.508306535062374
 30
0.0
 40
3.3000000000000109
  0
LINE
  5
350A
  8
1
 10
455.43542418612259
 20
143.50830653506239
 30
0.0
 11
455.43542418612259
 21
317.50830653506239
 31
0.0
  0
CIRCLE
  5
38B3
  8
3
 10
239.43542418612239
 20
409.19793801808521
 30
0.0
 40
6.0
  0
CIRCLE
  5
38B4
  8
0
 10
239.43542418612239
 20
409.19793801808521
 30
0.0
 40
5.052999999999999
  0
CIRCLE
  5
38DD
  8
0
 10
294.43542418612242
 20
409.19793801808521
 30
0.0
 40
9.2979000000000003
  0
LINE
  5
393B
  8
1
 10
275.43542418612242
 20
380.8979380180852
 30
0.0
 11
275.43542418612242
 21
393.49793801808528
 31
0.0
  0
LINE
  5
393C
  8
1
 10
269.13542418612252
 20
387.19793801808532
 30
0.0
 11
281.73542418612237
 21
387.19793801808532
 31
0.0
  0
LINE
  5
393D
  8
1
 10
239.43542418612239
 20
400.19793801808521
 30
0.0
 11
239.43542418612239
 21
418.19793801808532
 31
0.0
  0
LINE
  5
393E
  8
1
 10
225.43542418612239
 20
409.19793801808521
 30
0.0
 11
322.43542418612242
 21
409.19793801808521
 31
0.0
  0
LINE
  5
3949
  8
1
 10
288.13542418612252
 20
380.19793801808532
 30
0.0
 11
300.73542418612237
 21
380.19793801808532
 31
0.0
  0
LINE
  5
394C
  8
1
 10
313.43542418612242
 20
424.8979380180852
 30
0.0
 11
313.43542418612242
 21
437.49793801808522
 31
0.0
  0
LINE
  5
394D
  8
1
 10
307.13542418612252
 20
431.19793801808532
 30
0.0
 11
319.73542418612237
 21
431.19793801808532
 31
0.0
  0
LINE
  5
394E
  8
1
 10
294.43542418612242
 20
371.19793801808532
 30
0.0
 11
294.43542418612242
 21
447.19793801808532
 31
0.0
  0
LINE
  5
394F
  8
1
 10
288.13542418612252
 20
438.19793801808521
 30
0.0
 11
300.73542418612237
 21
438.19793801808521
 31
0.0
  0
LINE
  5
3950
  8
1
 10
275.43542418612242
 20
424.8979380180852
 30
0.0
 11
275.43542418612242
 21
437.49793801808522
 31
0.0
  0
LINE
  5
3951
  8
1
 10
269.13542418612252
 20
431.19793801808532
 30
0.0
 11
281.73542418612237
 21
431.19793801808532
 31
0.0
  0
LINE
  5
39C3
  8
1
 10
313.43542418612242
 20
380.8979380180852
 30
0.0
 11
313.43542418612242
 21
393.49793801808528
 31
0.0
  0
LINE
  5
39C4
  8
1
 10
307.13542418612252
 20
387.19793801808532
 30
0.0
 11
319.73542418612237
 21
387.19793801808532
 31
0.0
  0
LINE
  5
39D7
  8
1
 10
225.43542418612259
 20
51.508306535062388
 30
0.0
 11
322.43542418612259
 21
51.508306535062388
 31
0.0
  0
LINE
  5
39D8
  8
1
 10
294.43542418612259
 20
13.50830653506239
 30
0.0
 11
294.43542418612259
 21
89.508306535062388
 31
0.0
  0
CIRCLE
  5
39E0
  8
0
 10
299.36799463564938
 20
49.07525315289913
 30
0.0
 40
0.850000000000034
  0
CIRCLE
  5
39E1
  8
0
 10
293.60363188746192
 20
46.07156839791724
 30
0.0
 40
0.8499999999999834
  0
LINE
  5
3A00
  8
1
 10
239.43542418612259
 20
42.508306535062388
 30
0.0
 11
239.43542418612259
 21
60.508306535062381
 31
0.0
  0
CIRCLE
  5
3A01
  8
3
 10
239.43542418612259
 20
51.508306535062388
 30
0.0
 40
6.0
  0
CIRCLE
  5
3A02
  8
0
 10
239.43542418612259
 20
51.508306535062388
 30
0.0
 40
5.052999999999999
  0
LINE
  5
3A0A
  8
1
 10
313.4354241861227
 20
67.208306535062377
 30
0.0
 11
313.4354241861227
 21
79.8083065350624
 31
0.0
  0
LINE
  5
3A0B
  8
1
 10
307.13542418612269
 20
73.508306535062388
 30
0.0
 11
319.7354241861226
 21
73.508306535062388
 31
0.0
  0
LINE
  5
3A0C
  8
1
 10
275.43542418612259
 20
67.208306535062377
 30
0.0
 11
275.43542418612259
 21
79.8083065350624
 31
0.0
  0
LINE
  5
3A0D
  8
1
 10
269.13542418612269
 20
73.508306535062388
 30
0.0
 11
281.7354241861226
 21
73.508306535062388
 31
0.0
  0
LINE
  5
3A0E
  8
1
 10
275.43542418612259
 20
23.208306535062381
 30
0.0
 11
275.43542418612259
 21
35.8083065350624
 31
0.0
  0
LINE
  5
3A0F
  8
1
 10
269.13542418612269
 20
29.508306535062388
 30
0.0
 11
281.7354241861226
 21
29.508306535062388
 31
0.0
  0
LINE
  5
3A10
  8
1
 10
313.4354241861227
 20
23.208306535062381
 30
0.0
 11
313.4354241861227
 21
35.8083065350624
 31
0.0
  0
LINE
  5
3A11
  8
1
 10
307.13542418612269
 20
29.508306535062388
 30
0.0
 11
319.7354241861226
 21
29.508306535062388
 31
0.0
  0
LINE
  5
3A12
  8
1
 10
288.13542418612269
 20
22.508306535062388
 30
0.0
 11
300.7354241861226
 21
22.508306535062388
 31
0.0
  0
LINE
  5
3A13
  8
1
 10
288.13542418612269
 20
80.508306535062374
 30
0.0
 11
300.7354241861226
 21
80.508306535062374
 31
0.0
  0
CIRCLE
  5
4621
  8
0
 10
294.43542418612242
 20
409.19793801808521
 30
0.0
 40
6.0999999999999988
  0
ENDSEC
  0
EOF
