  0
SECTION
  2
HEADER
  9
$ACADVER
  1
AC1009
  9
$INSBASE
 10
0.0
 20
0.0
 30
0.0
  9
$EXTMIN
 10
0.0
 20
-2.960436562073669
 30
0.0
  9
$EXTMAX
 10
554.15010774247617
 20
472.24571428571443
 30
0.0
  9
$LIMMIN
 10
0.0
 20
0.0
  9
$LIMMAX
 10
375.0
 20
270.0
  9
$ORTHOMODE
 70
     1
  9
$REGENMODE
 70
     1
  9
$FILLMODE
 70
     1
  9
$QTEXTMODE
 70
     0
  9
$MIRRTEXT
 70
     0
  9
$DRAGMODE
 70
     2
  9
$LTSCALE
 40
10.0
  9
$OSMODE
 70
  3071
  9
$ATTMODE
 70
     1
  9
$TEXTSIZE
 40
0.2
  9
$TRACEWID
 40
0.05
  9
$TEXTSTYLE
  7
STANDARD
  9
$CLAYER
  8
0
  9
$CELTYPE
  6
BYLAYER
  9
$CECOLOR
 62
   256
  9
$DIMSCALE
 40
2.0
  9
$DIMASZ
 40
3.0
  9
$DIMEXO
 40
2.0
  9
$DIMDLI
 40
10.0
  9
$DIMRND
 40
0.0
  9
$DIMDLE
 40
0.0
  9
$DIMEXE
 40
2.0
  9
$DIMTP
 40
0.0
  9
$DIMTM
 40
0.0
  9
$DIMTXT
 40
3.2000000000000002
  9
$DIMCEN
 40
0.09
  9
$DIMTSZ
 40
0.0
  9
$DIMTOL
 70
     0
  9
$DIMLIM
 70
     0
  9
$DIMTIH
 70
     0
  9
$DIMTOH
 70
     0
  9
$DIMSE1
 70
     0
  9
$DIMSE2
 70
     0
  9
$DIMTAD
 70
     1
  9
$DIMZIN
 70
     8
  9
$DIMBLK
  1

  9
$DIMASO
 70
     0
  9
$DIMSHO
 70
     0
  9
$DIMPOST
  1

  9
$DIMAPOST
  1

  9
$DIMALT
 70
     0
  9
$DIMALTD
 70
     2
  9
$DIMALTF
 40
25.399999999999999
  9
$DIMLFAC
 40
1.0
  9
$DIMTOFL
 70
     1
  9
$DIMTVP
 40
1.6000000000000001
  9
$DIMTIX
 70
     0
  9
$DIMSOXD
 70
     0
  9
$DIMSAH
 70
     0
  9
$DIMBLK1
  1

  9
$DIMBLK2
  1

  9
$DIMSTYLE
  2
STANDARD
  9
$DIMCLRD
 70
     0
  9
$DIMCLRE
 70
     0
  9
$DIMCLRT
 70
     0
  9
$DIMTFAC
 40
1.0
  9
$DIMGAP
 40
0.09
  9
$LUNITS
 70
     2
  9
$LUPREC
 70
     4
  9
$SKETCHINC
 40
0.1
  9
$FILLETRAD
 40
0.0
  9
$AUNITS
 70
     0
  9
$AUPREC
 70
     0
  9
$MENU
  1
E:\r13\win\SUPPORT\ACAD
  9
$ELEVATION
 40
0.0
  9
$PELEVATION
 40
0.0
  9
$THICKNESS
 40
0.0
  9
$LIMCHECK
 70
     0
  9
$BLIPMODE
 70
     0
  9
$CHAMFERA
 40
0.0
  9
$CHAMFERB
 40
0.0
  9
$SKPOLY
 70
     0
  9
$TDCREATE
 40
2449840.6171180559
  9
$TDUPDATE
 40
2456597.7283551618
  9
$TDINDWG
 40
0.2566887847
  9
$TDUSRTIMER
 40
0.2566887847
  9
$USRTIMER
 70
     1
  9
$ANGBASE
 50
0.0
  9
$ANGDIR
 70
     0
  9
$PDMODE
 70
     0
  9
$PDSIZE
 40
0.0
  9
$PLINEWID
 40
0.0
  9
$COORDS
 70
     1
  9
$SPLFRAME
 70
     0
  9
$SPLINETYPE
 70
     6
  9
$SPLINESEGS
 70
     8
  9
$ATTDIA
 70
     0
  9
$ATTREQ
 70
     1
  9
$HANDLING
 70
     1
  9
$HANDSEED
  5
37D6
  9
$SURFTAB1
 70
     6
  9
$SURFTAB2
 70
     6
  9
$SURFTYPE
 70
     6
  9
$SURFU
 70
     6
  9
$SURFV
 70
     6
  9
$UCSNAME
  2

  9
$UCSORG
 10
0.0
 20
0.0
 30
0.0
  9
$UCSXDIR
 10
1.0
 20
0.0
 30
0.0
  9
$UCSYDIR
 10
0.0
 20
1.0
 30
0.0
  9
$PUCSNAME
  2

  9
$PUCSORG
 10
0.0
 20
0.0
 30
0.0
  9
$PUCSXDIR
 10
1.0
 20
0.0
 30
0.0
  9
$PUCSYDIR
 10
0.0
 20
1.0
 30
0.0
  9
$USERI1
 70
     0
  9
$USERI2
 70
     1
  9
$USERI3
 70
     0
  9
$USERI4
 70
     0
  9
$USERI5
 70
     0
  9
$USERR1
 40
0.0
  9
$USERR2
 40
0.0
  9
$USERR3
 40
0.0
  9
$USERR4
 40
0.0
  9
$USERR5
 40
0.0
  9
$WORLDVIEW
 70
     1
  9
$SHADEDGE
 70
     3
  9
$SHADEDIF
 70
    70
  9
$TILEMODE
 70
     1
  9
$MAXACTVP
 70
    16
  9
$PLIMCHECK
 70
     0
  9
$PEXTMIN
 10
1.0000000000000000E+020
 20
1.0000000000000000E+020
 30
1.0000000000000000E+020
  9
$PEXTMAX
 10
-1.0000000000000000E+020
 20
-1.0000000000000000E+020
 30
-1.0000000000000000E+020
  9
$PLIMMIN
 10
0.0
 20
0.0
  9
$PLIMMAX
 10
12.0
 20
9.0
  9
$UNITMODE
 70
     0
  9
$VISRETAIN
 70
     0
  9
$PLINEGEN
 70
     0
  9
$PSLTSCALE
 70
     0
  0
ENDSEC
  0
SECTION
  2
TABLES
  0
TABLE
  2
VPORT
 70
     1
  0
VPORT
  2
*ACTIVE
 70
     0
 10
0.0
 20
0.0
 11
1.0
 21
1.0
 12
277.07505516146938
 22
262.26117269516533
 13
0.0
 23
0.0
 14
10.0
 24
10.0
 15
10.0
 25
10.0
 16
0.0
 26
0.0
 36
1.0
 17
0.0
 27
0.0
 37
0.0
 40
537.12209110347339
 41
2.304913294797688
 42
50.0
 43
0.0
 44
0.0
 50
0.0
 51
0.0
 71
     0
 72
   100
 73
     1
 74
     0
 75
     0
 76
     0
 77
     0
 78
     0
  0
ENDTAB
  0
TABLE
  2
LTYPE
 70
     4
  0
LTYPE
  2
CONTINUOUS
 70
     0
  3
Solid Line
 72
    65
 73
     0
 40
0.0
  0
LTYPE
  2
CENTER
 70
     0
  3
____ _ ____ _ ____ _ ____ _ ____ _ ____ _ ____
 72
    65
 73
     4
 40
2.0
 49
1.25
 49
-0.25
 49
0.25
 49
-0.25
  0
LTYPE
  2
HIDDEN
 70
     0
  3
Hidden __ __ __ __ __ __ __ __ __ __ __ __ __ _
 72
    65
 73
     2
 40
0.375
 49
0.25
 49
-0.125
  0
LTYPE
  2
PHANTOM2
 70
     0
  3
___ _ _ ___ _ _ ___ _ _ ___ _ _
 72
    65
 73
     6
 40
1.25
 49
0.625
 49
-0.125
 49
0.125
 49
-0.125
 49
0.125
 49
-0.125
  0
ENDTAB
  0
TABLE
  2
LAYER
 70
     5
  0
LAYER
  2
0
 70
     0
 62
     7
  6
CONTINUOUS
  0
LAYER
  2
1
 70
     0
 62
     1
  6
CENTER
  0
LAYER
  2
3
 70
     0
 62
     3
  6
CONTINUOUS
  0
LAYER
  2
2
 70
     0
 62
     2
  6
HIDDEN
  0
LAYER
  2
DEFPOINTS
 70
     0
 62
     7
  6
CONTINUOUS
  0
ENDTAB
  0
TABLE
  2
STYLE
 70
     2
  0
STYLE
  2
STANDARD
 70
     0
 40
0.0
 41
1.0
 50
0.0
 71
     0
 42
0.2
  3
TXT
  4
BIGFONT
  0
STYLE
  2
STANDARD1
 70
     0
 40
0.0
 41
1.0
 50
0.0
 71
     0
 42
3.0
  3
txt
  4

  0
ENDTAB
  0
TABLE
  2
VIEW
 70
     1
  0
VIEW
  2
ALL
 70
     0
 40
270.0
 10
220.99159700000001
 20
135.0
 41
0.0
 11
0.0
 21
0.0
 31
1.0
 12
0.0
 22
0.0
 32
0.0
 42
0.0
 43
0.0
 44
0.0
 50
0.0
 71
     0
  0
ENDTAB
  0
TABLE
  2
UCS
 70
     0
  0
ENDTAB
  0
TABLE
  2
APPID
 70
     6
  0
APPID
  2
ACAD
 70
     0
  0
APPID
  2
ACAD_DSTYLE_DIMJAG
 70
     0
  0
APPID
  2
ACAD_DSTYLE_DIMTALN
 70
     0
  0
APPID
  2
ACAD_MLEADERVER
 70
     0
  0
APPID
  2
ACAD_EXEMPT_FROM_CAD_STANDARDS
 70
     0
  0
APPID
  2
ACAD_NAV_VCDISPLAY
 70
     0
  0
ENDTAB
  0
TABLE
  2
DIMSTYLE
 70
     1
  0
DIMSTYLE
  2
STANDARD
 70
     0
  3

  4

  5

  6

  7

 40
1.0
 41
0.18
 42
0.0625
 43
0.38
 44
0.18
 45
0.0
 46
0.0
 47
0.0
 48
0.0
140
0.18
141
0.09
142
0.0
143
25.399999999999999
144
1.0
145
0.0
146
1.0
147
0.09
 71
     0
 72
     0
 73
     1
 74
     1
 75
     0
 76
     0
 77
     0
 78
     0
170
     0
171
     2
172
     0
173
     0
174
     0
175
     0
176
     0
177
     0
178
     0
  0
ENDTAB
  0
ENDSEC
  0
SECTION
  2
BLOCKS
  0
BLOCK
  8
0
  2
$MODEL_SPACE
 70
     0
 10
0.0
 20
0.0
 30
0.0
  3
$MODEL_SPACE
  1

  0
ENDBLK
  5
E8
  8
0
  0
BLOCK
 67
     1
  8
0
  2
$PAPER_SPACE
 70
     0
 10
0.0
 20
0.0
 30
0.0
  3
$PAPER_SPACE
  1

  0
ENDBLK
  5
E6
 67
     1
  8
0
  0
ENDSEC
  0
SECTION
  2
ENTITIES
  0
LINE
  5
2273
  8
0
 10
384.11723214343601
 20
240.49450892857109
 30
0.0
 11
315.1172321428574
 21
240.49450892857109
 31
0.0
  0
LINE
  5
2274
  8
0
 10
346.61723214670542
 20
240.49450892857109
 30
0.0
 11
346.61723212214559
 21
269.49450892857118
 31
0.0
  0
LINE
  5
2275
  8
0
 10
293.1172321428574
 20
269.49450892857118
 30
0.0
 11
384.11723214650209
 21
269.49450892857118
 31
0.0
  0
LINE
  5
2276
  8
0
 10
337.45182338822741
 20
269.49450892857118
 30
0.0
 11
337.45182334787302
 21
240.49450892607109
 31
0.0
  0
LINE
  5
2279
  8
0
 10
317.45182332485751
 20
269.49450892857118
 30
0.0
 11
317.45182332485751
 21
240.49450892107109
 31
0.0
  0
LINE
  5
227C
  8
0
 10
315.1172321428574
 20
239.49450892857121
 30
0.0
 11
315.1172321428574
 21
240.49450892857109
 31
0.0
  0
LINE
  5
227D
  8
0
 10
315.11723214015268
 20
239.49450892857121
 30
0.0
 11
293.1172321428574
 21
239.49450892857121
 31
0.0
  0
LINE
  5
2283
  8
0
 10
346.11723214285752
 20
273.79450892857119
 30
0.0
 11
372.11723214285752
 21
273.79450892857119
 31
0.0
  0
LINE
  5
2285
  8
0
 10
370.08688725844053
 20
273.79450892857119
 30
0.0
 11
370.08688725587467
 21
289.00716012141589
 31
0.0
  0
LINE
  5
2286
  8
0
 10
364.60205969833368
 20
289.00716012943292
 30
0.0
 11
364.60205969324142
 21
273.79450892857119
 31
0.0
  0
LINE
  5
2287
  8
0
 10
349.96624166085741
 20
295.79450892857119
 30
0.0
 11
368.2682226248574
 21
295.79450892857119
 31
0.0
  0
LINE
  5
228A
  8
0
 10
353.63240458775039
 20
289.00716012967172
 30
0.0
 11
353.63240459097352
 21
273.79450892857119
 31
0.0
  0
LINE
  5
228B
  8
0
 10
348.14757703182289
 20
289.0071601288156
 30
0.0
 11
348.14757702727451
 21
273.79450892857119
 31
0.0
  0
LINE
  5
228C
  8
0
 10
354.11723214285752
 20
298.49450892857118
 30
0.0
 11
354.11723214699589
 21
295.79450892857119
 31
0.0
  0
LINE
  5
228D
  8
0
 10
355.80060734644059
 20
295.79450892857119
 30
0.0
 11
355.80060735267978
 21
298.49450892857118
 31
0.0
  0
LINE
  5
228E
  8
0
 10
354.11723214285752
 20
298.49450892857118
 30
0.0
 11
364.1172321428574
 21
298.49450892857118
 31
0.0
  0
LINE
  5
228F
  8
0
 10
362.43385693978348
 20
295.79450892857119
 30
0.0
 11
362.43385693354452
 21
298.49450892857118
 31
0.0
  0
LINE
  5
2291
  8
0
 10
364.1172321387188
 20
295.79450892857119
 30
0.0
 11
364.1172321428574
 21
298.49450892857118
 31
0.0
  0
LINE
  5
2293
  8
0
 10
334.11723214285752
 20
159.49450892857121
 30
0.0
 11
334.11723214285752
 21
174.49450892857109
 31
0.0
  0
LINE
  5
2294
  8
0
 10
384.11723214285752
 20
174.49450892857109
 30
0.0
 11
334.11723214285752
 21
174.49450892857109
 31
0.0
  0
LINE
  5
2295
  8
0
 10
384.11723214285752
 20
174.49450892857109
 30
0.0
 11
384.11723214285752
 21
159.49450892857121
 31
0.0
  0
LINE
  5
2296
  8
0
 10
384.11723214285752
 20
159.49450892857121
 30
0.0
 11
334.11723214285752
 21
159.49450892857121
 31
0.0
  0
LINE
  5
2297
  8
0
 10
336.11723214285752
 20
228.49450892857121
 30
0.0
 11
382.11723214285752
 21
228.49450892857121
 31
0.0
  0
LINE
  5
2298
  8
1
 10
359.11723214285752
 20
308.49450892857118
 30
0.0
 11
359.11723214285752
 21
149.49450892857109
 31
0.0
  0
LINE
  5
2299
  8
1
 10
304.11723214285752
 20
271.99450892857118
 30
0.0
 11
304.11723214285752
 21
236.99450892857121
 31
0.0
  0
LINE
  5
229A
  8
2
 10
549.65010774247617
 20
174.49450892857109
 30
0.0
 11
549.65010774247617
 21
159.49450892857121
 31
0.0
  0
LINE
  5
229B
  8
2
 10
538.65010774247617
 20
174.49450892857109
 30
0.0
 11
538.65010774247617
 21
159.49450892857121
 31
0.0
  0
LINE
  5
229C
  8
2
 10
479.65010774247622
 20
174.49450892857109
 30
0.0
 11
479.65010774247622
 21
159.49450892857121
 31
0.0
  0
LINE
  5
229D
  8
2
 10
468.65010774247628
 20
174.49450892857109
 30
0.0
 11
468.65010774247628
 21
159.49450892857121
 31
0.0
  0
LINE
  5
22AA
  8
0
 10
484.15010774247622
 20
269.49450892857118
 30
0.0
 11
534.15010774247605
 21
269.49450892857118
 31
0.0
  0
LINE
  5
22AB
  8
0
 10
534.15010774247605
 20
240.49450892857109
 30
0.0
 11
484.15010774247622
 21
240.49450892857109
 31
0.0
  0
LINE
  5
22AC
  8
0
 10
496.15010774247622
 20
273.79450892857119
 30
0.0
 11
522.15010774247605
 21
273.79450892857119
 31
0.0
  0
LINE
  5
22AD
  8
0
 10
499.99911726047623
 20
295.79450892857119
 30
0.0
 11
518.30109822447639
 21
295.79450892857119
 31
0.0
  0
LINE
  5
22B2
  8
0
 10
509.15010774238442
 20
273.79450892857119
 30
0.0
 11
509.15010773904191
 21
289.00716012141589
 31
0.0
  0
LINE
  5
22B4
  8
0
 10
518.65010774247605
 20
294.49198767463429
 30
0.0
 11
518.6501077326202
 21
273.79450892857119
 31
0.0
  0
LINE
  5
22B5
  8
0
 10
512.46673253991503
 20
295.79450892857119
 30
0.0
 11
512.46673253367578
 21
298.49450892857118
 31
0.0
  0
LINE
  5
22B6
  8
0
 10
505.83348294305938
 20
295.79450892857119
 30
0.0
 11
505.83348294929851
 21
298.49450892857118
 31
0.0
  0
LINE
  5
22B8
  8
0
 10
504.15010774683458
 20
295.79450892857119
 30
0.0
 11
504.15010774269621
 21
298.49450892857118
 31
0.0
  0
LINE
  5
22B9
  8
0
 10
504.15010774269621
 20
298.49450892857118
 30
0.0
 11
514.15010774247639
 21
298.49450892857118
 31
0.0
  0
LINE
  5
22BA
  8
0
 10
514.15010773833774
 20
295.79450892857119
 30
0.0
 11
514.15010774247605
 21
298.49450892857118
 31
0.0
  0
LINE
  5
22BC
  8
0
 10
529.15010774247605
 20
159.49450892857121
 30
0.0
 11
529.15010774247605
 21
174.49450892857109
 31
0.0
  0
LINE
  5
22BF
  8
0
 10
489.15010774503997
 20
174.49450892857109
 30
0.0
 11
489.15010774503997
 21
159.49450892857121
 31
0.0
  0
LINE
  5
22C2
  8
0
 10
554.15010774247617
 20
174.49450892857109
 30
0.0
 11
464.15010774247628
 21
174.49450892857109
 31
0.0
  0
LINE
  5
22C3
  8
0
 10
554.15010774247617
 20
159.49450892857121
 30
0.0
 11
464.15010774247628
 21
159.49450892857121
 31
0.0
  0
LINE
  5
22C4
  8
0
 10
486.15010774247628
 20
228.49450892857121
 30
0.0
 11
532.15010774247628
 21
228.49450892857121
 31
0.0
  0
LINE
  5
22C6
  8
1
 10
544.15010774247628
 20
154.49450892857109
 30
0.0
 11
544.15010774247628
 21
179.49450892857109
 31
0.0
  0
LINE
  5
22C7
  8
1
 10
474.15010774247628
 20
154.49450892857109
 30
0.0
 11
474.15010774247622
 21
179.49450892857109
 31
0.0
  0
LINE
  5
22C8
  8
1
 10
509.15010774247628
 20
308.49450892857118
 30
0.0
 11
509.15010774247639
 21
149.49450892857121
 31
0.0
  0
LINE
  5
22C9
  8
1
 10
283.1172321516575
 20
417.24571428571431
 30
0.0
 11
394.11723214285752
 21
417.24571428571431
 31
0.0
  0
LINE
  5
22CA
  8
1
 10
359.11723214285752
 20
472.24571428571443
 30
0.0
 11
359.11723214285752
 21
362.24571428571431
 31
0.0
  0
LINE
  5
22CB
  8
1
 10
304.11723214026091
 20
427.34571428571422
 30
0.0
 11
304.1172321402608
 21
407.14571428571429
 31
0.0
  0
LINE
  5
22CC
  8
1
 10
348.61723214285752
 20
452.24571428571443
 30
0.0
 11
369.61723214285752
 21
452.24571428571443
 31
0.0
  0
LINE
  5
22CD
  8
1
 10
348.61723214285757
 20
382.24571428571431
 30
0.0
 11
369.61723214285752
 21
382.24571428571431
 31
0.0
  0
CIRCLE
  5
22CE
  8
3
 10
304.1172321402608
 20
417.24571428571431
 30
0.0
 40
6.0000000000000391
  0
ARC
  5
22CF
  8
0
 10
359.11723214285752
 20
417.24571428571431
 30
0.0
 40
25.000000003933991
 50
239.99999995001201
 51
120.0000000913038
  0
ARC
  5
22D0
  8
0
 10
304.11723214285752
 20
417.24571428571431
 30
0.0
 40
10.99999999120001
 50
90.000000011020404
 51
270.0000000000008
  0
ARC
  5
22D1
  8
0
 10
317.45182332885747
 20
468.24571428571431
 30
0.0
 40
40.000000008799987
 50
270.0000000000008
 51
300.00000007276179
  0
LINE
  5
22D2
  8
0
 10
317.45182332885747
 20
428.24571427691433
 30
0.0
 11
304.11723214074169
 21
428.24571427691433
 31
0.0
  0
ARC
  5
22D3
  8
0
 10
343.18031020685748
 20
423.84700349371428
 30
0.0
 40
5.0
 50
4.5994231069837443
 51
270.0000000000008
  0
ARC
  5
22D4
  8
0
 10
343.18031020685748
 20
423.84700349371428
 30
0.0
 40
5.000000000000024
 50
270.0000000000008
 51
310.40057689530312
  0
LINE
  5
22D5
  8
0
 10
337.45182338822752
 20
400.88673041166652
 30
0.0
 11
346.61723212214571
 21
395.59507919885277
 31
0.0
  0
CIRCLE
  5
22D6
  8
0
 10
304.11723214285752
 20
417.24571428571431
 30
0.0
 40
5.099999999999965
  0
LINE
  5
22D7
  8
0
 10
304.11723214285752
 20
406.2457142945143
 30
0.0
 11
317.45182332485751
 21
406.2457142945143
 31
0.0
  0
ARC
  5
22D8
  8
0
 10
371.31482411785748
 20
405.04812231071429
 30
0.0
 40
5.0
 50
162.09942311917419
 51
270.0000000000008
  0
ARC
  5
22D9
  8
0
 10
371.31482411785748
 20
405.04812231071429
 30
0.0
 40
5.0000000000000169
 50
270.0000000000008
 51
107.9005768808255
  0
ARC
  5
22DA
  8
0
 10
343.18031020685748
 20
410.64442507771417
 30
0.0
 40
5.000000000000024
 50
49.599423104697699
 51
270.0000000000008
  0
ARC
  5
22DB
  8
0
 10
343.18031020685748
 20
410.64442507771417
 30
0.0
 40
5.0
 50
270.0000000000008
 51
355.40057689301773
  0
ARC
  5
22DC
  8
0
 10
352.51594293485749
 20
401.30879234971428
 30
0.0
 40
5.0
 50
94.59942310698375
 51
270.0000000000008
  0
ARC
  5
22DD
  8
0
 10
352.51594293485749
 20
401.30879234971428
 30
0.0
 40
5.0
 50
270.0000000000008
 51
40.400576895301803
  0
LINE
  5
22DE
  8
0
 10
346.61723210638911
 20
438.89634936381282
 30
0.0
 11
337.45182337668518
 21
433.60469815309028
 31
0.0
  0
ARC
  5
22DF
  8
0
 10
317.45182332885747
 20
366.24571428571431
 30
0.0
 40
40.000000008800043
 50
59.999999908142591
 51
90.000000005729504
  0
ARC
  5
22E0
  8
0
 10
352.51594293485749
 20
433.18263622171429
 30
0.0
 40
5.000000000000024
 50
319.59942310469847
 51
265.40057689301699
  0
POLYLINE
  5
22E1
  8
0
 66
     1
 10
0.0
 20
0.0
 30
0.0
 70
   128
  0
VERTEX
  5
3712
  8
0
 10
371.31482411785748
 20
424.44330626071422
 30
0.0
  0
VERTEX
  5
3713
  8
0
 10
370.51276771356868
 20
424.50805494752473
 30
0.0
  0
VERTEX
  5
3714
  8
0
 10
369.7779931234387
 20
424.68534971461241
 30
0.0
  0
SEQEND
  5
3715
  8
0
  0
ARC
  5
22E2
  8
0
 10
371.31482411785748
 20
429.44330626071428
 30
0.0
 40
5.0
 50
270.0000000000008
 51
197.90057688082589
  0
LINE
  5
22E3
  8
0
 10
350.5639633909073
 20
435.30939647645209
 30
0.0
 11
353.38178156927489
 21
435.93648022459831
 31
0.0
  0
LINE
  5
22E4
  8
0
 10
349.69812475166231
 20
432.55555247796389
 30
0.0
 11
350.5639633909073
 21
435.30939647645209
 31
0.0
  0
LINE
  5
22E5
  8
0
 10
351.65010430007578
 20
430.42879221895492
 30
0.0
 11
349.69812475166231
 21
432.55555247796389
 31
0.0
  0
LINE
  5
22E6
  8
0
 10
354.46792247916591
 20
431.05587596770062
 30
0.0
 11
351.65010430007578
 21
430.42879221895492
 31
0.0
  0
LINE
  5
22E7
  8
0
 10
353.38178156927489
 20
435.93648022459831
 30
0.0
 11
355.33376111756388
 21
433.80971996597492
 31
0.0
  0
LINE
  5
22E8
  8
0
 10
355.33376111756388
 20
433.80971996597492
 30
0.0
 11
354.46792247916591
 21
431.05587596770062
 31
0.0
  0
LINE
  5
22E9
  8
0
 10
370.89397748436869
 20
432.29921617457501
 30
0.0
 11
373.57769133670928
 21
431.23572509718002
 31
0.0
  0
LINE
  5
22EA
  8
0
 10
368.63111026395211
 20
430.50679734389422
 30
0.0
 11
370.89397748436869
 21
432.29921617457501
 31
0.0
  0
LINE
  5
22EB
  8
0
 10
369.05195689896959
 20
427.6508874247433
 30
0.0
 11
368.63111026395211
 21
430.50679734389422
 31
0.0
  0
LINE
  5
22EC
  8
0
 10
373.9985379722014
 20
428.37981517845168
 30
0.0
 11
371.73567075321489
 21
426.58739634770751
 31
0.0
  0
LINE
  5
22ED
  8
0
 10
373.57769133670928
 20
431.23572509718002
 30
0.0
 11
373.9985379722014
 21
428.37981517845168
 31
0.0
  0
LINE
  5
22EE
  8
0
 10
371.73567075321489
 20
426.58739634770751
 30
0.0
 11
369.05195689896959
 21
427.6508874247433
 31
0.0
  0
LINE
  5
22EF
  8
0
 10
352.39235430851051
 20
398.42468777910278
 30
0.0
 11
349.95644079582871
 21
399.9737709508662
 31
0.0
  0
LINE
  5
22F0
  8
0
 10
354.95185644757828
 20
399.7597091720948
 30
0.0
 11
352.39235430851051
 21
398.42468777910278
 31
0.0
  0
LINE
  5
22F1
  8
0
 10
355.07544507363588
 20
402.64381374855179
 30
0.0
 11
354.95185644757828
 21
399.7597091720948
 31
0.0
  0
LINE
  5
22F2
  8
0
 10
352.63953155941039
 20
404.19289692036313
 30
0.0
 11
355.07544507363588
 21
402.64381374855179
 31
0.0
  0
LINE
  5
22F3
  8
0
 10
350.08002942163569
 20
402.85787552731239
 30
0.0
 11
352.63953155941039
 21
404.19289692036313
 31
0.0
  0
LINE
  5
22F4
  8
0
 10
349.95644079582871
 20
399.9737709508662
 30
0.0
 11
350.08002942163569
 21
402.85787552731239
 31
0.0
  0
LINE
  5
22F5
  8
0
 10
341.05354995211962
 20
408.69244553376421
 30
0.0
 11
340.4264662039734
 21
411.51026371213169
 31
0.0
  0
LINE
  5
22F6
  8
0
 10
343.80739395060777
 20
407.82660689451899
 30
0.0
 11
341.05354995211962
 21
408.69244553376421
 31
0.0
  0
LINE
  5
22F7
  8
0
 10
345.30707046087122
 20
412.5964046220227
 30
0.0
 11
345.93415420961691
 21
409.77858644293258
 31
0.0
  0
LINE
  5
22F8
  8
0
 10
340.4264662039734
 20
411.51026371213169
 30
0.0
 11
342.55322646259702
 21
413.46224326042068
 31
0.0
  0
LINE
  5
22F9
  8
0
 10
345.93415420961691
 20
409.77858644293258
 30
0.0
 11
343.80739395060777
 21
407.82660689451899
 31
0.0
  0
LINE
  5
22FA
  8
0
 10
342.55322646259702
 20
413.46224326042068
 30
0.0
 11
345.30707046087122
 21
412.5964046220227
 31
0.0
  0
LINE
  5
22FB
  8
0
 10
374.17073403171821
 20
405.46896894420308
 30
0.0
 11
373.10724295432323
 21
402.7852550918625
 31
0.0
  0
LINE
  5
22FC
  8
0
 10
372.37831520103731
 20
407.73183616461961
 30
0.0
 11
374.17073403171821
 21
405.46896894420308
 31
0.0
  0
LINE
  5
22FD
  8
0
 10
369.52240528188651
 20
407.31098952960213
 30
0.0
 11
372.37831520103731
 21
407.73183616461961
 31
0.0
  0
LINE
  5
22FE
  8
0
 10
368.45891420485071
 20
404.62727567535688
 30
0.0
 11
369.52240528188651
 21
407.31098952960213
 31
0.0
  0
LINE
  5
22FF
  8
0
 10
370.25133303559488
 20
402.36440845637043
 30
0.0
 11
368.45891420485071
 21
404.62727567535688
 31
0.0
  0
LINE
  5
2300
  8
0
 10
373.10724295432323
 20
402.7852550918625
 30
0.0
 11
370.25133303559488
 21
402.36440845637043
 31
0.0
  0
LINE
  5
2301
  8
0
 10
341.631227029238
 20
421.41108998099338
 30
0.0
 11
340.29620563624599
 21
423.97059212006133
 31
0.0
  0
LINE
  5
2302
  8
0
 10
346.06441477750639
 20
423.72341486916139
 30
0.0
 11
344.51533160569511
 21
421.2875013549359
 31
0.0
  0
LINE
  5
2303
  8
0
 10
341.84528880800929
 20
426.40650563274318
 30
0.0
 11
344.72939338445559
 21
426.28291700693609
 31
0.0
  0
LINE
  5
2304
  8
0
 10
344.72939338445559
 20
426.28291700693609
 30
0.0
 11
346.06441477750639
 21
423.72341486916139
 31
0.0
  0
LINE
  5
2305
  8
0
 10
344.51533160569511
 20
421.2875013549359
 30
0.0
 11
341.631227029238
 21
421.41108998099338
 31
0.0
  0
LINE
  5
2306
  8
0
 10
340.29620563624599
 20
423.97059212006133
 30
0.0
 11
341.84528880800929
 21
426.40650563274318
 31
0.0
  0
LINE
  5
2307
  8
0
 10
355.80060735267978
 20
412.2457142857142
 30
0.0
 11
362.43385693354452
 21
412.24571428593418
 31
0.0
  0
ARC
  5
2308
  8
0
 10
359.11723214285752
 20
417.24571428571431
 30
0.0
 40
6.0000000015600579
 50
213.55730978438029
 51
236.44269023949431
  0
LINE
  5
2309
  8
0
 10
354.11723214285752
 20
420.56233907889202
 30
0.0
 11
354.11723214285752
 21
413.9290894925366
 31
0.0
  0
ARC
  5
230A
  8
0
 10
359.11723214285752
 20
417.24571428571431
 30
0.0
 40
6.0000000015600889
 50
123.55730975396889
 51
146.44269021561999
  0
LINE
  5
230B
  8
0
 10
362.43385693603523
 20
422.24571428571431
 30
0.0
 11
355.80060735319603
 21
422.24571428617458
 31
0.0
  0
ARC
  5
230C
  8
0
 10
359.11723214285752
 20
417.24571428571431
 30
0.0
 40
6.0000000015600579
 50
33.557309771596842
 51
56.442690215620523
  0
LINE
  5
230D
  8
0
 10
364.11723214285752
 20
413.9290894925366
 30
0.0
 11
364.11723214229738
 21
420.56233907691399
 31
0.0
  0
ARC
  5
230E
  8
0
 10
359.11723214285752
 20
417.24571428571431
 30
0.0
 40
6.0000000015600579
 50
303.55730976572153
 51
326.44269021562133
  0
CIRCLE
  5
230F
  8
0
 10
359.11723214285752
 20
417.24571428571431
 30
0.0
 40
9.1509904820000543
  0
CIRCLE
  5
2316
  8
0
 10
359.11723214285752
 20
417.24571428571431
 30
0.0
 40
13.00000000000006
  0
ARC
  5
2317
  8
0
 10
359.11723214285752
 20
397.24571428571431
 30
0.0
 40
25.0
 50
179.9999999942705
 51
0.0000000058758168
  0
ARC
  5
2318
  8
0
 10
359.11723214285752
 20
437.24571428571431
 30
0.0
 40
25.0
 50
0.0
 51
179.9999999889796
  0
CIRCLE
  5
2319
  8
0
 10
359.11723214285752
 20
382.24571428571431
 30
0.0
 40
5.4999999999999432
  0
LINE
  5
231A
  8
0
 10
334.11723214285752
 20
397.24571428821429
 30
0.0
 11
334.11723214285752
 21
402.60866451066511
 31
0.0
  0
LINE
  5
231B
  8
0
 10
334.11723214285752
 20
431.88276406076352
 30
0.0
 11
334.11723214285752
 21
437.24571429052293
 31
0.0
  0
CIRCLE
  5
231C
  8
0
 10
359.11723214285752
 20
452.24571428571443
 30
0.0
 40
5.5
  0
LINE
  5
231D
  8
0
 10
384.11723214285752
 20
437.24571428571431
 30
0.0
 11
384.11723214285752
 21
397.24571428827812
 31
0.0
  0
LINE
  5
231E
  8
2
 10
210.6816116071428
 20
174.49450892857109
 30
0.0
 11
210.6816116071428
 21
159.49450892857121
 31
0.0
  0
LINE
  5
231F
  8
2
 10
199.6816116071428
 20
174.49450892857109
 30
0.0
 11
199.6816116071428
 21
159.49450892857121
 31
0.0
  0
LINE
  5
2320
  8
2
 10
140.6816116071428
 20
174.49450892857109
 30
0.0
 11
140.6816116071428
 21
159.49450892857121
 31
0.0
  0
LINE
  5
2321
  8
2
 10
129.68161160714271
 20
174.49450892857109
 30
0.0
 11
129.68161160714271
 21
159.49450892857121
 31
0.0
  0
LINE
  5
232E
  8
0
 10
181.18161160714271
 20
239.49450892857121
 30
0.0
 11
181.1816115983427
 21
269.49450892857118
 31
0.0
  0
LINE
  5
232F
  8
0
 10
181.18161160714271
 20
239.49450892857121
 30
0.0
 11
159.18161160714271
 21
239.49450892857121
 31
0.0
  0
LINE
  5
2330
  8
0
 10
159.18161160714271
 20
239.49450892857121
 30
0.0
 11
159.1816116159427
 21
269.49450892857118
 31
0.0
  0
LINE
  5
2332
  8
0
 10
186.54059548119051
 20
269.49450892857118
 30
0.0
 11
186.54059546675941
 21
240.49450892607109
 31
0.0
  0
LINE
  5
2333
  8
0
 10
181.18161160714271
 20
240.49450892107109
 30
0.0
 11
195.18161160714271
 21
240.49450893413331
 31
0.0
  0
LINE
  5
2335
  8
0
 10
153.82262773976669
 20
269.49450892857118
 30
0.0
 11
153.82262775395111
 21
240.49450892857109
 31
0.0
  0
LINE
  5
2336
  8
0
 10
145.18161160714271
 20
240.49450893663331
 30
0.0
 11
159.18161160714271
 21
240.49450892357109
 31
0.0
  0
LINE
  5
2338
  8
0
 10
148.53097652904421
 20
269.49450892857118
 30
0.0
 11
148.53097651893779
 21
240.49450892857109
 31
0.0
  0
LINE
  5
233B
  8
0
 10
191.83224670416979
 20
240.49450892857109
 30
0.0
 11
191.8322466940042
 21
269.49450892857118
 31
0.0
  0
LINE
  5
2341
  8
0
 10
145.18161160714271
 20
269.49450892857118
 30
0.0
 11
195.18161160714271
 21
269.49450892857118
 31
0.0
  0
LINE
  5
2342
  8
0
 10
157.18161160714271
 20
273.79450892857119
 30
0.0
 11
183.18161160714271
 21
273.79450892857119
 31
0.0
  0
LINE
  5
2344
  8
0
 10
179.68161160713251
 20
294.49198767467249
 30
0.0
 11
179.6816115965367
 21
273.79450892857119
 31
0.0
  0
LINE
  5
2345
  8
0
 10
170.18161160714271
 20
289.0071601288156
 30
0.0
 11
170.18161160723449
 21
273.79450892857119
 31
0.0
  0
LINE
  5
2346
  8
0
 10
161.03062112514269
 20
295.79450892857119
 30
0.0
 11
179.33260208914271
 21
295.79450892857119
 31
0.0
  0
LINE
  5
234A
  8
0
 10
160.6816116071428
 20
294.49198767463457
 30
0.0
 11
160.68161161674871
 21
273.79450892857119
 31
0.0
  0
LINE
  5
234B
  8
0
 10
165.18161161082099
 20
295.79450892857119
 30
0.0
 11
165.1816116066824
 21
298.49450892857118
 31
0.0
  0
LINE
  5
234C
  8
0
 10
166.8649868077259
 20
295.79450892857119
 30
0.0
 11
166.864986813965
 21
298.49450892857118
 31
0.0
  0
LINE
  5
234D
  8
0
 10
165.1816116066824
 20
298.49450892857118
 30
0.0
 11
175.18161160714271
 21
298.49450892857118
 31
0.0
  0
LINE
  5
234E
  8
0
 10
173.49823640032039
 20
298.49450892857118
 30
0.0
 11
173.4982364065595
 21
295.79450892857119
 31
0.0
  0
LINE
  5
234F
  8
0
 10
175.1816116030042
 20
295.79450892857119
 30
0.0
 11
175.18161160714271
 21
298.49450892857118
 31
0.0
  0
LINE
  5
2352
  8
0
 10
190.18161160464271
 20
159.49450892857121
 30
0.0
 11
190.18161160464271
 21
174.49450892857109
 31
0.0
  0
LINE
  5
2353
  8
0
 10
150.18161160233419
 20
174.49450892857109
 30
0.0
 11
150.18161160233419
 21
159.49450892857121
 31
0.0
  0
LINE
  5
2356
  8
0
 10
215.1816116071428
 20
174.49450892857109
 30
0.0
 11
125.1816116071428
 21
174.49450892857109
 31
0.0
  0
LINE
  5
2357
  8
0
 10
215.1816116071428
 20
159.49450892857121
 30
0.0
 11
125.1816116071428
 21
159.49450892857121
 31
0.0
  0
LINE
  5
235A
  8
0
 10
147.1816116071428
 20
228.49450892857121
 30
0.0
 11
193.18161160714271
 21
228.49450892857121
 31
0.0
  0
LINE
  5
2362
  8
1
 10
135.1816116071428
 20
154.49450892857109
 30
0.0
 11
135.1816116071428
 21
179.49450892857109
 31
0.0
  0
LINE
  5
2363
  8
1
 10
205.1816116071428
 20
154.49450892857109
 30
0.0
 11
205.1816116071428
 21
179.49450892857109
 31
0.0
  0
LINE
  5
2365
  8
2
 10
364.61723214285752
 20
174.49450892857109
 30
0.0
 11
364.61723214285752
 21
159.49450892857121
 31
0.0
  0
LINE
  5
2366
  8
2
 10
353.61723214285757
 20
174.49450892857109
 30
0.0
 11
353.61723214285757
 21
159.49450892857121
 31
0.0
  0
LINE
  5
2367
  8
1
 10
170.1816116071428
 20
308.49450892857118
 30
0.0
 11
170.1816116071428
 21
149.49450892857109
 31
0.0
  0
LINE
  5
35E1
  8
0
 10
161.03062112514269
 20
295.79450892857119
 30
0.0
 11
160.68161160714271
 21
294.49198767463417
 31
0.0
  0
LINE
  5
35E2
  8
0
 10
179.33260208914271
 20
295.79450892857119
 30
0.0
 11
179.68161160713251
 21
294.49198767467249
 31
0.0
  0
LINE
  5
35EA
  8
0
 10
183.18161160714271
 20
273.79450892857119
 30
0.0
 11
183.18161160714271
 21
269.49450892857118
 31
0.0
  0
LINE
  5
35EB
  8
0
 10
157.18161160714271
 20
273.79450892857119
 30
0.0
 11
157.18161160714271
 21
269.49450892857118
 31
0.0
  0
LINE
  5
35EC
  8
0
 10
195.18161160714271
 20
269.49450892857118
 30
0.0
 11
195.18161160714271
 21
240.49450892857109
 31
0.0
  0
LINE
  5
35ED
  8
0
 10
192.18161160714271
 20
240.49450892857109
 30
0.0
 11
192.18161160714271
 21
228.49450892857121
 31
0.0
  0
LINE
  5
35EE
  8
0
 10
193.18161160714271
 20
228.49450892857121
 30
0.0
 11
193.18161160714271
 21
174.49450892857109
 31
0.0
  0
LINE
  5
35EF
  8
0
 10
215.1816116071428
 20
174.49450892857109
 30
0.0
 11
215.1816116071428
 21
159.49450892857121
 31
0.0
  0
LINE
  5
35F4
  8
0
 10
145.1816116071428
 20
269.49450892857118
 30
0.0
 11
145.1816116071428
 21
240.49450892857109
 31
0.0
  0
LINE
  5
35F5
  8
0
 10
148.1816116071428
 20
240.49450892857109
 30
0.0
 11
148.1816116071428
 21
228.49450892857121
 31
0.0
  0
LINE
  5
35F6
  8
0
 10
147.1816116071428
 20
228.49450892857121
 30
0.0
 11
147.1816116071428
 21
174.49450892857109
 31
0.0
  0
LINE
  5
35F7
  8
0
 10
125.1816116071427
 20
174.49450892857109
 30
0.0
 11
125.1816116071427
 21
159.49450892857121
 31
0.0
  0
LINE
  5
35F8
  8
0
 10
382.11723214285752
 20
228.49450892857121
 30
0.0
 11
382.11723214285752
 21
174.49450892857109
 31
0.0
  0
LINE
  5
35F9
  8
0
 10
381.11723214285752
 20
240.49450892857109
 30
0.0
 11
381.11723214285752
 21
228.49450892857121
 31
0.0
  0
LINE
  5
35FA
  8
0
 10
384.11723214650209
 20
269.49450892857118
 30
0.0
 11
384.11723214650209
 21
240.49450892857109
 31
0.0
  0
LINE
  5
35FB
  8
0
 10
372.11723214285752
 20
273.79450892857119
 30
0.0
 11
372.11723214285752
 21
269.49450892857118
 31
0.0
  0
LINE
  5
35FC
  8
0
 10
368.2682226248574
 20
295.79450892857119
 30
0.0
 11
370.08688725587467
 21
289.00716012141589
 31
0.0
  0
LINE
  5
3601
  8
0
 10
336.11723214285752
 20
228.49450892857121
 30
0.0
 11
336.11723214285752
 21
174.49450892857109
 31
0.0
  0
LINE
  5
3602
  8
0
 10
337.1172321428574
 20
240.49450892857109
 30
0.0
 11
337.1172321428574
 21
228.49450892857121
 31
0.0
  0
LINE
  5
3603
  8
0
 10
346.11723214285752
 20
273.79450892857119
 30
0.0
 11
346.11723214285752
 21
269.49450892857118
 31
0.0
  0
LINE
  5
3604
  8
0
 10
349.96624166085752
 20
295.79450892857119
 30
0.0
 11
348.14757702984019
 21
289.00716012141589
 31
0.0
  0
LINE
  5
3605
  8
0
 10
293.1172321428574
 20
269.49450892857118
 30
0.0
 11
293.1172321428574
 21
239.49450892857121
 31
0.0
  0
LINE
  5
3606
  8
0
 10
534.15010774247605
 20
269.49450892857118
 30
0.0
 11
534.15010774247605
 21
240.49450892857109
 31
0.0
  0
LINE
  5
3607
  8
0
 10
522.15010774247605
 20
273.79450892857119
 30
0.0
 11
522.15010774247605
 21
269.49450892857118
 31
0.0
  0
LINE
  5
3608
  8
0
 10
518.30109822447639
 20
295.79450892857119
 30
0.0
 11
518.65010774247605
 21
294.49198767463429
 31
0.0
  0
LINE
  5
3609
  8
0
 10
531.15010774247605
 20
240.49450892857109
 30
0.0
 11
531.15010774247628
 21
228.49450892857121
 31
0.0
  0
LINE
  5
360A
  8
0
 10
532.15010774247628
 20
228.49450892857121
 30
0.0
 11
532.15010774247628
 21
174.49450892857109
 31
0.0
  0
LINE
  5
360B
  8
0
 10
554.15010774247617
 20
174.49450892857109
 30
0.0
 11
554.15010774247617
 21
159.49450892857121
 31
0.0
  0
LINE
  5
3613
  8
0
 10
499.65010774237021
 20
294.49198767540872
 30
0.0
 11
499.65010775053889
 21
273.79450892934562
 31
0.0
  0
LINE
  5
3614
  8
0
 10
484.15010774033237
 20
269.49450893060919
 30
0.0
 11
484.15010773796843
 21
240.4945089306091
 31
0.0
  0
LINE
  5
3615
  8
0
 10
496.15010774068293
 20
273.79450892963092
 30
0.0
 11
496.15010774033237
 21
269.49450892963091
 31
0.0
  0
LINE
  5
3616
  8
0
 10
499.99911726047623
 20
295.7945089293172
 30
0.0
 11
499.65010774237021
 21
294.49198767540872
 31
0.0
  0
LINE
  5
3617
  8
0
 10
487.15010773796831
 20
240.4945089303645
 30
0.0
 11
487.15010773699009
 21
228.49450893036459
 31
0.0
  0
LINE
  5
3618
  8
0
 10
486.15010773699009
 20
228.4945089304461
 30
0.0
 11
486.15010773258808
 21
174.49450893044599
 31
0.0
  0
LINE
  5
3619
  8
0
 10
464.15010773258808
 20
174.4945089322394
 30
0.0
 11
464.15010773136532
 21
159.49450893223951
 31
0.0
  0
POLYLINE
  5
361A
  8
0
 66
     1
 10
0.0
 20
0.0
 30
0.0
  0
VERTEX
  5
374A
  8
0
 10
170.18161160714271
 20
289.11431078854349
 30
0.0
  0
VERTEX
  5
374B
  8
0
 10
169.74994416979101
 20
290.00414502889919
 30
0.0
  0
VERTEX
  5
374C
  8
0
 10
169.37216711439461
 20
290.74224415517858
 30
0.0
  0
VERTEX
  5
374D
  8
0
 10
168.94759696181151
 20
291.49976685485609
 30
0.0
  0
VERTEX
  5
374E
  8
0
 10
168.4447486261401
 20
292.29613603389862
 30
0.0
  0
VERTEX
  5
374F
  8
0
 10
167.88720914899301
 20
293.05365873357601
 30
0.0
  0
VERTEX
  5
3750
  8
0
 10
167.52459589746229
 20
293.46993203474028
 30
0.0
  0
VERTEX
  5
3751
  8
0
 10
167.1093232701528
 20
293.86945215344753
 30
0.0
  0
VERTEX
  5
3752
  8
0
 10
166.5085772729708
 20
294.29677277049672
 30
0.0
  0
VERTEX
  5
3753
  8
0
 10
166.23661065921951
 20
294.43186211497152
 30
0.0
  0
VERTEX
  5
3754
  8
0
 10
165.91207130230609
 20
294.54515717157142
 30
0.0
  0
VERTEX
  5
3755
  8
0
 10
165.61223184455559
 20
294.58839668097238
 30
0.0
  0
VERTEX
  5
3756
  8
0
 10
165.43164633850711
 20
294.59860002323143
 30
0.0
  0
VERTEX
  5
3757
  8
0
 10
165.25106083245839
 20
294.58839668097238
 30
0.0
  0
VERTEX
  5
3758
  8
0
 10
164.9512213747079
 20
294.54515717157142
 30
0.0
  0
VERTEX
  5
3759
  8
0
 10
164.62668201779439
 20
294.43186211497152
 30
0.0
  0
VERTEX
  5
375A
  8
0
 10
164.35471540404311
 20
294.29677277049672
 30
0.0
  0
VERTEX
  5
375B
  8
0
 10
163.75396940686119
 20
293.86945215344753
 30
0.0
  0
VERTEX
  5
375C
  8
0
 10
163.33869677955161
 20
293.46993203474028
 30
0.0
  0
VERTEX
  5
375D
  8
0
 10
162.97608352802089
 20
293.05365873357601
 30
0.0
  0
VERTEX
  5
375E
  8
0
 10
162.41854405087389
 20
292.29613603389862
 30
0.0
  0
VERTEX
  5
375F
  8
0
 10
161.9156957152025
 20
291.49976685485609
 30
0.0
  0
VERTEX
  5
3760
  8
0
 10
161.49112556261929
 20
290.74224415517858
 30
0.0
  0
VERTEX
  5
3761
  8
0
 10
161.11334850722301
 20
290.00414502889919
 30
0.0
  0
VERTEX
  5
3762
  8
0
 10
160.6816810698713
 20
289.11431078854349
 30
0.0
  0
SEQEND
  5
3763
  8
0
  0
POLYLINE
  5
361B
  8
0
 66
     1
 10
0.0
 20
0.0
 30
0.0
  0
VERTEX
  5
3764
  8
0
 10
179.6816116062268
 20
289.11431078772171
 30
0.0
  0
VERTEX
  5
3765
  8
0
 10
179.249944168875
 20
290.00414502807729
 30
0.0
  0
VERTEX
  5
3766
  8
0
 10
178.8721671134787
 20
290.74224415435668
 30
0.0
  0
VERTEX
  5
3767
  8
0
 10
178.44759696089559
 20
291.49976685403419
 30
0.0
  0
VERTEX
  5
3768
  8
0
 10
177.94474862522421
 20
292.29613603307678
 30
0.0
  0
VERTEX
  5
3769
  8
0
 10
177.38720914807709
 20
293.05365873275412
 30
0.0
  0
VERTEX
  5
376A
  8
0
 10
177.0245958965464
 20
293.46993203391838
 30
0.0
  0
VERTEX
  5
376B
  8
0
 10
176.60932326923691
 20
293.86945215262563
 30
0.0
  0
VERTEX
  5
376C
  8
0
 10
176.00857727205491
 20
294.29677276967482
 30
0.0
  0
VERTEX
  5
376D
  8
0
 10
175.73661065830359
 20
294.43186211414968
 30
0.0
  0
VERTEX
  5
376E
  8
0
 10
175.4120713013902
 20
294.54515717074958
 30
0.0
  0
VERTEX
  5
376F
  8
0
 10
175.11223184363971
 20
294.58839668015059
 30
0.0
  0
VERTEX
  5
3770
  8
0
 10
174.9316463375911
 20
294.59860002240958
 30
0.0
  0
VERTEX
  5
3771
  8
0
 10
174.75106083154239
 20
294.58839668015059
 30
0.0
  0
VERTEX
  5
3772
  8
0
 10
174.4512213737919
 20
294.54515717074958
 30
0.0
  0
VERTEX
  5
3773
  8
0
 10
174.1266820168785
 20
294.43186211414968
 30
0.0
  0
VERTEX
  5
3774
  8
0
 10
173.85471540312719
 20
294.29677276967482
 30
0.0
  0
VERTEX
  5
3775
  8
0
 10
173.25396940594521
 20
293.86945215262563
 30
0.0
  0
VERTEX
  5
3776
  8
0
 10
172.83869677863569
 20
293.46993203391838
 30
0.0
  0
VERTEX
  5
3777
  8
0
 10
172.476083527105
 20
293.05365873275412
 30
0.0
  0
VERTEX
  5
3778
  8
0
 10
171.91854404995789
 20
292.29613603307678
 30
0.0
  0
VERTEX
  5
3779
  8
0
 10
171.4156957142865
 20
291.49976685403419
 30
0.0
  0
VERTEX
  5
377A
  8
0
 10
170.9911255617034
 20
290.74224415435668
 30
0.0
  0
VERTEX
  5
377B
  8
0
 10
170.61334850630709
 20
290.00414502807729
 30
0.0
  0
VERTEX
  5
377C
  8
0
 10
170.1816810689553
 20
289.11431078772171
 30
0.0
  0
SEQEND
  5
377D
  8
0
  0
POLYLINE
  5
361C
  8
0
 66
     1
 10
0.0
 20
0.0
 30
0.0
  0
VERTEX
  5
377E
  8
0
 10
509.15010773901838
 20
289.1143109282504
 30
0.0
  0
VERTEX
  5
377F
  8
0
 10
508.71844030166659
 20
290.0041451686061
 30
0.0
  0
VERTEX
  5
3780
  8
0
 10
508.34066324627031
 20
290.7422442948855
 30
0.0
  0
VERTEX
  5
3781
  8
0
 10
507.91609309368721
 20
291.499766994563
 30
0.0
  0
VERTEX
  5
3782
  8
0
 10
507.41324475801582
 20
292.29613617360548
 30
0.0
  0
VERTEX
  5
3783
  8
0
 10
506.85570528086868
 20
293.05365887328293
 30
0.0
  0
VERTEX
  5
3784
  8
0
 10
506.49309202933802
 20
293.46993217444719
 30
0.0
  0
VERTEX
  5
3785
  8
0
 10
506.07781940202852
 20
293.86945229315438
 30
0.0
  0
VERTEX
  5
3786
  8
0
 10
505.47707340484652
 20
294.29677291020357
 30
0.0
  0
VERTEX
  5
3787
  8
0
 10
505.2051067910952
 20
294.43186225467838
 30
0.0
  0
VERTEX
  5
3788
  8
0
 10
504.88056743418173
 20
294.54515731127827
 30
0.0
  0
VERTEX
  5
3789
  8
0
 10
504.58072797643121
 20
294.58839682067941
 30
0.0
  0
VERTEX
  5
378A
  8
0
 10
504.40014247038278
 20
294.59860016293828
 30
0.0
  0
VERTEX
  5
378B
  8
0
 10
504.219556964334
 20
294.58839682067941
 30
0.0
  0
VERTEX
  5
378C
  8
0
 10
503.91971750658348
 20
294.54515731127827
 30
0.0
  0
VERTEX
  5
378D
  8
0
 10
503.59517814967001
 20
294.43186225467838
 30
0.0
  0
VERTEX
  5
378E
  8
0
 10
503.32321153591869
 20
294.29677291020357
 30
0.0
  0
VERTEX
  5
378F
  8
0
 10
502.7224655387368
 20
293.86945229315438
 30
0.0
  0
VERTEX
  5
3790
  8
0
 10
502.30719291142731
 20
293.46993217444719
 30
0.0
  0
VERTEX
  5
3791
  8
0
 10
501.94457965989659
 20
293.05365887328293
 30
0.0
  0
VERTEX
  5
3792
  8
0
 10
501.3870401827495
 20
292.29613617360548
 30
0.0
  0
VERTEX
  5
3793
  8
0
 10
500.88419184707811
 20
291.499766994563
 30
0.0
  0
VERTEX
  5
3794
  8
0
 10
500.45962169449501
 20
290.7422442948855
 30
0.0
  0
VERTEX
  5
3795
  8
0
 10
500.08184463909868
 20
290.0041451686061
 30
0.0
  0
VERTEX
  5
3796
  8
0
 10
499.65017720174689
 20
289.1143109282504
 30
0.0
  0
SEQEND
  5
3797
  8
0
  0
POLYLINE
  5
361D
  8
0
 66
     1
 10
0.0
 20
0.0
 30
0.0
  0
VERTEX
  5
3798
  8
0
 10
518.65010773810241
 20
289.11431092742862
 30
0.0
  0
VERTEX
  5
3799
  8
0
 10
518.21844030075056
 20
290.00414516778432
 30
0.0
  0
VERTEX
  5
379A
  8
0
 10
517.84066324535434
 20
290.74224429406371
 30
0.0
  0
VERTEX
  5
379B
  8
0
 10
517.41609309277123
 20
291.4997669937411
 30
0.0
  0
VERTEX
  5
379C
  8
0
 10
516.91324475709985
 20
292.29613617278369
 30
0.0
  0
VERTEX
  5
379D
  8
0
 10
516.35570527995264
 20
293.05365887246103
 30
0.0
  0
VERTEX
  5
379E
  8
0
 10
515.9930920284221
 20
293.4699321736253
 30
0.0
  0
VERTEX
  5
379F
  8
0
 10
515.57781940111261
 20
293.86945229233248
 30
0.0
  0
VERTEX
  5
37A0
  8
0
 10
514.97707340393049
 20
294.29677290938167
 30
0.0
  0
VERTEX
  5
37A1
  8
0
 10
514.70510679017934
 20
294.43186225385659
 30
0.0
  0
VERTEX
  5
37A2
  8
0
 10
514.38056743326592
 20
294.54515731045649
 30
0.0
  0
VERTEX
  5
37A3
  8
0
 10
514.08072797551529
 20
294.58839681985751
 30
0.0
  0
VERTEX
  5
37A4
  8
0
 10
513.9001424694668
 20
294.5986001621165
 30
0.0
  0
VERTEX
  5
37A5
  8
0
 10
513.71955696341797
 20
294.58839681985751
 30
0.0
  0
VERTEX
  5
37A6
  8
0
 10
513.41971750566756
 20
294.54515731045649
 30
0.0
  0
VERTEX
  5
37A7
  8
0
 10
513.09517814875414
 20
294.43186225385659
 30
0.0
  0
VERTEX
  5
37A8
  8
0
 10
512.82321153500277
 20
294.29677290938167
 30
0.0
  0
VERTEX
  5
37A9
  8
0
 10
512.22246553782077
 20
293.86945229233248
 30
0.0
  0
VERTEX
  5
37AA
  8
0
 10
511.80719291051139
 20
293.4699321736253
 30
0.0
  0
VERTEX
  5
37AB
  8
0
 10
511.44457965898067
 20
293.05365887246103
 30
0.0
  0
VERTEX
  5
37AC
  8
0
 10
510.88704018183358
 20
292.29613617278369
 30
0.0
  0
VERTEX
  5
37AD
  8
0
 10
510.3841918461622
 20
291.4997669937411
 30
0.0
  0
VERTEX
  5
37AE
  8
0
 10
509.95962169357898
 20
290.74224429406371
 30
0.0
  0
VERTEX
  5
37AF
  8
0
 10
509.5818446381827
 20
290.00414516778432
 30
0.0
  0
VERTEX
  5
37B0
  8
0
 10
509.15017720083091
 20
289.11431092742862
 30
0.0
  0
SEQEND
  5
37B1
  8
0
  0
POLYLINE
  5
361E
  8
0
 66
     1
 10
0.0
 20
0.0
 30
0.0
 70
     2
  0
VERTEX
  5
361F
  8
0
 10
364.60192510638711
 20
289.00723795109928
 30
0.0
  0
VERTEX
  5
3620
  8
0
 10
364.60192510638711
 20
289.00723795109928
 30
0.0
 42
-0.002141715234368
  0
VERTEX
  5
3621
  8
0
 10
364.88264224238287
 20
290.00542949142613
 30
0.0
 42
-0.0031884425920243
 70
     1
  0
VERTEX
  5
3622
  8
0
 10
365.07834125456321
 20
290.67388230796797
 30
0.0
 42
-0.0000906398876372
  0
VERTEX
  5
3623
  8
0
 10
365.3282750190013
 20
291.50727769875442
 30
0.0
 42
-0.0015626501721915
 70
     1
  0
VERTEX
  5
3624
  8
0
 10
365.34293196224507
 20
291.55556984351671
 30
0.0
 42
-0.0118273004030828
  0
VERTEX
  5
3625
  8
0
 10
365.49555567437011
 20
292.01390201300592
 30
0.0
 42
-0.0152841060778968
 70
     1
  0
VERTEX
  5
3626
  8
0
 10
365.6327203978833
 20
292.36168418080217
 30
0.0
 42
-0.0114267878610533
  0
VERTEX
  5
3627
  8
0
 10
365.71814416697657
 20
292.54839633467321
 30
0.0
 42
-0.0031412007501134
 70
     1
  0
VERTEX
  5
3628
  8
0
 10
366.04850541737989
 20
293.21818020530941
 30
0.0
 42
-0.0058658511866212
  0
VERTEX
  5
3629
  8
0
 10
366.26670152652019
 20
293.6411759344395
 30
0.0
 42
-0.0125281002836228
 70
     1
  0
VERTEX
  5
362A
  8
0
 10
366.37609265164048
 20
293.8353615469365
 30
0.0
 42
-0.0562195546756471
  0
VERTEX
  5
362B
  8
0
 10
366.49168128761738
 20
293.98728553750738
 30
0.0
 42
-0.0280769315047748
 70
     1
  0
VERTEX
  5
362C
  8
0
 10
366.77019652104087
 20
294.24775974442588
 30
0.0
 42
-0.0213091438966497
  0
VERTEX
  5
362D
  8
0
 10
366.9075410826116
 20
294.35286220687038
 30
0.0
 42
-0.024436934170724
 70
     1
  0
VERTEX
  5
362E
  8
0
 10
367.03519590732441
 20
294.43320007430202
 30
0.0
 42
-0.0686855289545621
  0
VERTEX
  5
362F
  8
0
 10
367.19963630075301
 20
294.49805964062438
 30
0.0
 42
-0.0745279849694427
 70
     1
  0
VERTEX
  5
3630
  8
0
 10
367.3620275716433
 20
294.51267440604448
 30
0.0
 42
-0.0635308345199287
  0
VERTEX
  5
3631
  8
0
 10
367.53207655315163
 20
294.48069011067668
 30
0.0
 42
-0.0755923429818948
 70
     1
  0
VERTEX
  5
3632
  8
0
 10
367.66235956213637
 20
294.41553918585151
 30
0.0
 42
-0.0090801248274188
  0
VERTEX
  5
3633
  8
0
 10
367.78085273289651
 20
294.32864162999198
 30
0.0
 42
-0.0154625267388403
 70
     1
  0
VERTEX
  5
3634
  8
0
 10
367.84785904426718
 20
294.27425141081687
 30
0.0
 42
-0.0062227120595043
  0
VERTEX
  5
3635
  8
0
 10
367.96049617159707
 20
294.17441733875688
 30
0.0
 42
-0.0083544947285847
 70
     1
  0
VERTEX
  5
3636
  8
0
 10
368.04219145678201
 20
294.09764119145069
 30
0.0
 42
-0.0213713297544806
  0
VERTEX
  5
3637
  8
0
 10
368.17472721575342
 20
293.9573514022631
 30
0.0
 42
-0.026109789363184
 70
     1
  0
VERTEX
  5
3638
  8
0
 10
368.27185735618087
 20
293.83272652983209
 30
0.0
 42
-0.0155339366739513
  0
VERTEX
  5
3639
  8
0
 10
368.35000601807428
 20
293.7131249972889
 30
0.0
 42
-0.0078876116744865
 70
     1
  0
VERTEX
  5
363A
  8
0
 10
368.49268944252123
 20
293.4706759805897
 30
0.0
 42
-0.0067253141099972
  0
VERTEX
  5
363B
  8
0
 10
368.69162708128061
 20
293.10885023900107
 30
0.0
 42
-0.013387314926477
 70
     1
  0
VERTEX
  5
363C
  8
0
 10
368.7841885026308
 20
292.92318510147112
 30
0.0
 42
-0.0108138082428952
  0
VERTEX
  5
363D
  8
0
 10
368.90720441602781
 20
292.6432784951611
 30
0.0
 42
-0.0062872015915082
 70
     1
  0
VERTEX
  5
363E
  8
0
 10
369.10218723656601
 20
292.15493144814462
 30
0.0
 42
-0.0025165705706265
  0
VERTEX
  5
363F
  8
0
 10
369.27794811448558
 20
291.69117895268749
 30
0.0
 42
-0.0092047596661532
 70
     1
  0
VERTEX
  5
3640
  8
0
 10
369.3230193229063
 20
291.56328801418459
 30
0.0
 42
-0.0061968732288682
  0
VERTEX
  5
3641
  8
0
 10
369.39444968967439
 20
291.33877153047951
 30
0.0
 42
0.0046635580040293
 70
     1
  0
VERTEX
  5
3642
  8
0
 10
369.48844853711881
 20
291.04015235521808
 30
0.0
 42
0.0046016709271218
  0
VERTEX
  5
3643
  8
0
 10
369.56825440365981
 20
290.80211532220977
 30
0.0
 42
-0.0066019904938182
 70
     1
  0
VERTEX
  5
3644
  8
0
 10
369.6232171467741
 20
290.63597557127838
 30
0.0
 42
-0.0206761828789524
  0
VERTEX
  5
3645
  8
0
 10
369.68076441554331
 20
290.42387193595619
 30
0.0
 42
0.016177925851078
 70
     1
  0
VERTEX
  5
3646
  8
0
 10
369.75185999077922
 20
290.15218763226608
 30
0.0
 42
0.0067407907822193
  0
VERTEX
  5
3647
  8
0
 10
369.82481165723368
 20
289.9178328451539
 30
0.0
 42
-0.0096361197464002
 70
     1
  0
VERTEX
  5
3648
  8
0
 10
369.8748960821315
 20
289.75359324018609
 30
0.0
 42
-0.0019511367482922
  0
VERTEX
  5
3649
  8
0
 10
369.89384611733198
 20
289.68586414590021
 30
0.0
 42
0.0004439313592777
 70
     1
  0
VERTEX
  5
364A
  8
0
 10
369.97623601791003
 20
289.38793722934321
 30
0.0
 42
0.002961084673088
  0
VERTEX
  5
364B
  8
0
 10
370.01351283656942
 20
289.25662939590978
 30
0.0
 42
0.0015549785219733
 70
     1
  0
VERTEX
  5
364C
  8
0
 10
370.08675265792618
 20
289.00723794970781
 30
0.0
  0
SEQEND
  5
364D
  8
0
  0
POLYLINE
  5
364E
  8
0
 66
     1
 10
0.0
 20
0.0
 30
0.0
 70
     2
  0
VERTEX
  5
364F
  8
0
 10
353.63240458775039
 20
289.0071601296716
 30
0.0
  0
VERTEX
  5
3650
  8
0
 10
353.63240458775039
 20
289.0071601296716
 30
0.0
 42
0.002141715234368
  0
VERTEX
  5
3651
  8
0
 10
353.35167328877708
 20
290.00534768689641
 30
0.0
 42
0.0031884425920243
 70
     1
  0
VERTEX
  5
3652
  8
0
 10
353.15596479216322
 20
290.67379772666322
 30
0.0
 42
0.0000906398876372
  0
VERTEX
  5
3653
  8
0
 10
352.90601920298189
 20
291.50718957113918
 30
0.0
 42
0.0015626501721915
 70
     1
  0
VERTEX
  5
3654
  8
0
 10
352.89136157453851
 20
291.55548150793408
 30
0.0
 42
0.0118273004030828
  0
VERTEX
  5
3655
  8
0
 10
352.73873135930711
 20
292.01381151185041
 30
0.0
 42
0.0152841060778968
 70
     1
  0
VERTEX
  5
3656
  8
0
 10
352.60156170124287
 20
292.36159173342742
 30
0.0
 42
0.0114267878610533
  0
VERTEX
  5
3657
  8
0
 10
352.5161352829619
 20
292.54830267523027
 30
0.0
 42
0.0031412007501134
 70
     1
  0
VERTEX
  5
3658
  8
0
 10
352.18576452925282
 20
293.21808185841383
 30
0.0
 42
0.0058658511866212
  0
VERTEX
  5
3659
  8
0
 10
351.9675624183896
 20
293.6410744915899
 30
0.0
 42
0.0125281002836228
 70
     1
  0
VERTEX
  5
365A
  8
0
 10
351.85816853804562
 20
293.8352585519533
 30
0.0
 42
0.0562195546756471
  0
VERTEX
  5
365B
  8
0
 10
351.7425777464818
 20
293.9871809024603
 30
0.0
 42
0.0280769315047748
 70
     1
  0
VERTEX
  5
365C
  8
0
 10
351.46405881730487
 20
294.24765115759311
 30
0.0
 42
0.0213091438966497
  0
VERTEX
  5
365D
  8
0
 10
351.32671276448428
 20
294.35275167129112
 30
0.0
 42
0.024436934170724
 70
     1
  0
VERTEX
  5
365E
  8
0
 10
351.19905679989728
 20
294.43308772746292
 30
0.0
 42
0.0686855289545621
  0
VERTEX
  5
365F
  8
0
 10
351.03461548621459
 20
294.49794496058922
 30
0.0
 42
0.0745279849694427
 70
     1
  0
VERTEX
  5
3660
  8
0
 10
350.87222400797663
 20
294.51255742189238
 30
0.0
 42
0.0635308345199287
  0
VERTEX
  5
3661
  8
0
 10
350.70217548029979
 20
294.48057071375968
 30
0.0
 42
0.0755923429818948
 70
     1
  0
VERTEX
  5
3662
  8
0
 10
350.5718933957329
 20
294.4154179403991
 30
0.0
 42
0.0090801248274188
  0
VERTEX
  5
3663
  8
0
 10
350.45340145794512
 20
294.32851870328841
 30
0.0
 42
0.0154625267388403
 70
     1
  0
VERTEX
  5
3664
  8
0
 10
350.38639591830571
 20
294.27412753338859
 30
0.0
 42
0.0062227120595043
  0
VERTEX
  5
3665
  8
0
 10
350.27376020749938
 20
294.17429186316809
 30
0.0
 42
0.0083544947285847
 70
     1
  0
VERTEX
  5
3666
  8
0
 10
350.19206601167377
 20
294.09751455672261
 30
0.0
 42
0.0213713297544806
  0
VERTEX
  5
3667
  8
0
 10
350.05953224324048
 20
293.9572228870436
 30
0.0
 42
0.026109789363184
 70
     1
  0
VERTEX
  5
3668
  8
0
 10
349.96240387108338
 20
293.832596636478
 30
0.0
 42
0.0155339366739513
  0
VERTEX
  5
3669
  8
0
 10
349.88425690618402
 20
293.71299399512179
 30
0.0
 42
0.0078876116744865
 70
     1
  0
VERTEX
  5
366A
  8
0
 10
349.74157692177943
 20
293.47054295395952
 30
0.0
 42
0.0067253141099972
  0
VERTEX
  5
366B
  8
0
 10
349.54264441686439
 20
293.10871438974777
 30
0.0
 42
0.013387314926477
 70
     1
  0
VERTEX
  5
366C
  8
0
 10
349.45008562986408
 20
292.9230479389135
 30
0.0
 42
0.0108138082428952
  0
VERTEX
  5
366D
  8
0
 10
349.3270736879806
 20
292.6431395872001
 30
0.0
 42
0.0062872015915082
 70
     1
  0
VERTEX
  5
366E
  8
0
 10
349.1320977964549
 20
292.15478977368667
 30
0.0
 42
0.0025165705706265
  0
VERTEX
  5
366F
  8
0
 10
348.95634349858187
 20
291.69103478446402
 30
0.0
 42
0.0092047596661532
 70
     1
  0
VERTEX
  5
3670
  8
0
 10
348.91127410476747
 20
291.56314320647368
 30
0.0
 42
0.0061968732288682
  0
VERTEX
  5
3671
  8
0
 10
348.8398469235957
 20
291.33862570928972
 30
0.0
 42
-0.0046635580040293
 70
     1
  0
VERTEX
  5
3672
  8
0
 10
348.74585231316843
 20
291.04000520034009
 30
0.0
 42
-0.0046016709271218
  0
VERTEX
  5
3673
  8
0
 10
348.66604982406318
 20
290.80196703501701
 30
0.0
 42
0.0066019904938182
 70
     1
  0
VERTEX
  5
3674
  8
0
 10
348.6110894382557
 20
290.63582650425428
 30
0.0
 42
0.0206761828789524
  0
VERTEX
  5
3675
  8
0
 10
348.55354517895989
 20
290.4237220524347
 30
0.0
 42
-0.016177925851078
 70
     1
  0
VERTEX
  5
3676
  8
0
 10
348.48245345856873
 20
290.15203674002049
 30
0.0
 42
-0.0067407907822193
  0
VERTEX
  5
3677
  8
0
 10
348.4095051173033
 20
289.91768091784508
 30
0.0
 42
0.0096361197464002
 70
     1
  0
VERTEX
  5
3678
  8
0
 10
348.35942302275117
 20
289.75344060226257
 30
0.0
 42
0.0019511367482922
  0
VERTEX
  5
3679
  8
0
 10
348.34047394853809
 20
289.68571123910789
 30
0.0
 42
-0.0004439313592777
 70
     1
  0
VERTEX
  5
367A
  8
0
 10
348.2580882751538
 20
289.38778315357808
 30
0.0
 42
-0.002961084673088
  0
VERTEX
  5
367B
  8
0
 10
348.22081331958111
 20
289.25647479124967
 30
0.0
 42
-0.0015549785219733
 70
     1
  0
VERTEX
  5
367C
  8
0
 10
348.14757703676338
 20
289.00708230589743
 30
0.0
  0
SEQEND
  5
367D
  8
0
  0
POLYLINE
  5
367E
  8
0
 66
     1
 10
0.0
 20
0.0
 30
0.0
  0
VERTEX
  5
37B2
  8
0
 10
353.63226998670768
 20
289.00723795069632
 30
0.0
  0
VERTEX
  5
37B3
  8
0
 10
354.0024864930881
 20
289.67510203412621
 30
0.0
  0
VERTEX
  5
37B4
  8
0
 10
354.44785701878982
 20
290.44743969699232
 30
0.0
  0
VERTEX
  5
37B5
  8
0
 10
354.91140712220499
 20
291.1561731995219
 30
0.0
  0
VERTEX
  5
37B6
  8
0
 10
355.4022239441652
 20
291.89216591395171
 30
0.0
  0
VERTEX
  5
37B7
  8
0
 10
355.84759535254199
 20
292.47369109580842
 30
0.0
  0
VERTEX
  5
37B8
  8
0
 10
356.34750196335892
 20
293.00978425783131
 30
0.0
  0
VERTEX
  5
37B9
  8
0
 10
356.74742707547728
 20
293.42775550314792
 30
0.0
  0
VERTEX
  5
37BA
  8
0
 10
357.18193010453848
 20
293.7582485856388
 30
0.0
  0
VERTEX
  5
37BB
  8
0
 10
357.81230493160331
 20
294.17783301138638
 30
0.0
  0
VERTEX
  5
37BC
  8
0
 10
358.08457403055189
 20
294.28872197967269
 30
0.0
  0
VERTEX
  5
37BD
  8
0
 10
358.36692769326902
 20
294.37944986344138
 30
0.0
  0
VERTEX
  5
37BE
  8
0
 10
358.5999098032658
 20
294.419907520945
 30
0.0
  0
VERTEX
  5
37BF
  8
0
 10
358.84907399707612
 20
294.45486688287929
 30
0.0
  0
VERTEX
  5
37C0
  8
0
 10
359.05015446123269
 20
294.48108623747243
 30
0.0
  0
VERTEX
  5
37C1
  8
0
 10
359.11711865891988
 20
294.49206299628258
 30
0.0
  0
VERTEX
  5
37C2
  8
0
 10
359.18408321246699
 20
294.48108840863142
 30
0.0
  0
VERTEX
  5
37C3
  8
0
 10
359.38516452661747
 20
294.45487557360298
 30
0.0
  0
VERTEX
  5
37C4
  8
0
 10
359.63432985377023
 20
294.4199242902373
 30
0.0
  0
VERTEX
  5
37C5
  8
0
 10
359.86731327538678
 20
294.37947418663998
 30
0.0
  0
VERTEX
  5
37C6
  8
0
 10
360.14966987958923
 20
294.28875545755812
 30
0.0
  0
VERTEX
  5
37C7
  8
0
 10
360.42194257370312
 20
294.17787531700139
 30
0.0
  0
VERTEX
  5
37C8
  8
0
 10
361.05233100445332
 20
293.75831132986337
 30
0.0
  0
VERTEX
  5
37C9
  8
0
 10
361.48684474873011
 20
293.42783233526291
 30
0.0
  0
VERTEX
  5
37CA
  8
0
 10
361.88678341235169
 20
293.00987405677682
 30
0.0
  0
VERTEX
  5
37CB
  8
0
 10
362.38670740443843
 20
292.47379710330642
 30
0.0
  0
VERTEX
  5
37CC
  8
0
 10
362.83209766713787
 20
291.89228636185311
 30
0.0
  0
VERTEX
  5
37CD
  8
0
 10
363.32293835163529
 20
291.15630956136619
 30
0.0
  0
VERTEX
  5
37CE
  8
0
 10
363.78651143378778
 20
290.44759108870733
 30
0.0
  0
VERTEX
  5
37CF
  8
0
 10
364.23190700044819
 20
289.67526786631618
 30
0.0
  0
VERTEX
  5
37D0
  8
0
 10
364.60214516052218
 20
289.00741578661808
 30
0.0
  0
SEQEND
  5
37D1
  8
0
  0
LINE
  5
367F
  8
0
 10
353.63240458738119
 20
426.74571428245667
 30
0.0
 11
364.6020596984489
 21
426.74571428250681
 31
0.0
  0
LINE
  5
3680
  8
0
 10
364.6020596984489
 20
426.74571428250681
 30
0.0
 11
370.0868872538918
 21
417.24571428571431
 31
0.0
  0
LINE
  5
3681
  8
0
 10
370.0868872538918
 20
417.24571428571431
 30
0.0
 11
364.60205969833379
 21
407.7457142889719
 31
0.0
  0
LINE
  5
3682
  8
0
 10
364.60205969833379
 20
407.7457142889719
 30
0.0
 11
353.63240458775073
 21
407.74571428883252
 31
0.0
  0
LINE
  5
3683
  8
0
 10
353.63240458775073
 20
407.74571428883252
 30
0.0
 11
348.14757703182289
 21
417.2457142857142
 31
0.0
  0
LINE
  5
3684
  8
0
 10
348.14757703182289
 20
417.2457142857142
 30
0.0
 11
353.63240458738119
 21
426.74571428245667
 31
0.0
  0
TEXT
  5
36E2
  8
0
 62
     3
 10
0.0
 20
0.0
 30
0.0
 40
10.0
  1
PTSW1-12R
  7
STANDARD1
  0
ENDSEC
  0
EOF
