  0
SECTION
  2
HEADER
  9
$ACADVER
  1
AC1009
  9
$INSBASE
 10
0.0
 20
0.0
 30
0.0
  9
$EXTMIN
 10
0.0
 20
-2.960436562073669
 30
0.0
  9
$EXTMAX
 10
769.67319419251896
 20
654.67740402615755
 30
0.0
  9
$LIMMIN
 10
0.0
 20
0.0
  9
$LIMMAX
 10
750.0
 20
540.0
  9
$ORTHOMODE
 70
     1
  9
$REGENMODE
 70
     1
  9
$FILLMODE
 70
     1
  9
$QTEXTMODE
 70
     0
  9
$MIRRTEXT
 70
     0
  9
$DRAGMODE
 70
     2
  9
$LTSCALE
 40
20.0
  9
$OSMODE
 70
    37
  9
$ATTMODE
 70
     1
  9
$TEXTSIZE
 40
0.2
  9
$TRACEWID
 40
0.05
  9
$TEXTSTYLE
  7
STANDARD
  9
$CLAYER
  8
0
  9
$CELTYPE
  6
BYLAYER
  9
$CECOLOR
 62
   256
  9
$DIMSCALE
 40
2.0
  9
$DIMASZ
 40
3.0
  9
$DIMEXO
 40
2.0
  9
$DIMDLI
 40
0.38
  9
$DIMRND
 40
0.0
  9
$DIMDLE
 40
0.0
  9
$DIMEXE
 40
2.0
  9
$DIMTP
 40
0.0
  9
$DIMTM
 40
0.0
  9
$DIMTXT
 40
3.2000000000000002
  9
$DIMCEN
 40
0.0
  9
$DIMTSZ
 40
0.0
  9
$DIMTOL
 70
     0
  9
$DIMLIM
 70
     0
  9
$DIMTIH
 70
     0
  9
$DIMTOH
 70
     0
  9
$DIMSE1
 70
     0
  9
$DIMSE2
 70
     0
  9
$DIMTAD
 70
     1
  9
$DIMZIN
 70
     0
  9
$DIMBLK
  1

  9
$DIMASO
 70
     1
  9
$DIMSHO
 70
     0
  9
$DIMPOST
  1

  9
$DIMAPOST
  1

  9
$DIMALT
 70
     0
  9
$DIMALTD
 70
     2
  9
$DIMALTF
 40
25.399999999999999
  9
$DIMLFAC
 40
1.0
  9
$DIMTOFL
 70
     1
  9
$DIMTVP
 40
1.6000000000000001
  9
$DIMTIX
 70
     1
  9
$DIMSOXD
 70
     0
  9
$DIMSAH
 70
     0
  9
$DIMBLK1
  1

  9
$DIMBLK2
  1

  9
$DIMSTYLE
  2
STANDARD
  9
$DIMCLRD
 70
     0
  9
$DIMCLRE
 70
     0
  9
$DIMCLRT
 70
     0
  9
$DIMTFAC
 40
1.0
  9
$DIMGAP
 40
0.09
  9
$LUNITS
 70
     2
  9
$LUPREC
 70
     4
  9
$SKETCHINC
 40
0.1
  9
$FILLETRAD
 40
0.0
  9
$AUNITS
 70
     0
  9
$AUPREC
 70
     4
  9
$MENU
  1
E:\r13\win\SUPPORT\ACAD
  9
$ELEVATION
 40
0.0
  9
$PELEVATION
 40
0.0
  9
$THICKNESS
 40
0.0
  9
$LIMCHECK
 70
     0
  9
$BLIPMODE
 70
     0
  9
$CHAMFERA
 40
0.0
  9
$CHAMFERB
 40
0.0
  9
$SKPOLY
 70
     0
  9
$TDCREATE
 40
2449839.7807060191
  9
$TDUPDATE
 40
2457637.5657444098
  9
$TDINDWG
 40
0.0126671181
  9
$TDUSRTIMER
 40
0.0126671181
  9
$USRTIMER
 70
     1
  9
$ANGBASE
 50
0.0
  9
$ANGDIR
 70
     0
  9
$PDMODE
 70
     0
  9
$PDSIZE
 40
0.0
  9
$PLINEWID
 40
0.0
  9
$COORDS
 70
     1
  9
$SPLFRAME
 70
     0
  9
$SPLINETYPE
 70
     6
  9
$SPLINESEGS
 70
     8
  9
$ATTDIA
 70
     0
  9
$ATTREQ
 70
     1
  9
$HANDLING
 70
     1
  9
$HANDSEED
  5
629
  9
$SURFTAB1
 70
     6
  9
$SURFTAB2
 70
     6
  9
$SURFTYPE
 70
     6
  9
$SURFU
 70
     6
  9
$SURFV
 70
     6
  9
$UCSNAME
  2

  9
$UCSORG
 10
0.0
 20
0.0
 30
0.0
  9
$UCSXDIR
 10
1.0
 20
0.0
 30
0.0
  9
$UCSYDIR
 10
0.0
 20
1.0
 30
0.0
  9
$PUCSNAME
  2

  9
$PUCSORG
 10
0.0
 20
0.0
 30
0.0
  9
$PUCSXDIR
 10
1.0
 20
0.0
 30
0.0
  9
$PUCSYDIR
 10
0.0
 20
1.0
 30
0.0
  9
$USERI1
 70
     0
  9
$USERI2
 70
     1
  9
$USERI3
 70
     1
  9
$USERI4
 70
     0
  9
$USERI5
 70
     0
  9
$USERR1
 40
0.0
  9
$USERR2
 40
0.0
  9
$USERR3
 40
0.0
  9
$USERR4
 40
0.0
  9
$USERR5
 40
0.0
  9
$WORLDVIEW
 70
     1
  9
$SHADEDGE
 70
     3
  9
$SHADEDIF
 70
    70
  9
$TILEMODE
 70
     1
  9
$MAXACTVP
 70
    16
  9
$PLIMCHECK
 70
     0
  9
$PEXTMIN
 10
1.0000000000000000E+020
 20
1.0000000000000000E+020
 30
1.0000000000000000E+020
  9
$PEXTMAX
 10
-1.0000000000000000E+020
 20
-1.0000000000000000E+020
 30
-1.0000000000000000E+020
  9
$PLIMMIN
 10
0.0
 20
0.0
  9
$PLIMMAX
 10
12.0
 20
9.0
  9
$UNITMODE
 70
     0
  9
$VISRETAIN
 70
     0
  9
$PLINEGEN
 70
     0
  9
$PSLTSCALE
 70
     0
  0
ENDSEC
  0
SECTION
  2
TABLES
  0
TABLE
  2
VPORT
 70
     1
  0
VPORT
  2
*ACTIVE
 70
     0
 10
0.0
 20
0.0
 11
1.0
 21
1.0
 12
468.33851925882209
 22
325.86823962480332
 13
0.0
 23
0.0
 14
20.0
 24
20.0
 15
20.0
 25
20.0
 16
0.0
 26
0.0
 36
1.0
 17
0.0
 27
0.0
 37
0.0
 40
565.28424863265127
 41
1.368715083798882
 42
50.0
 43
0.0
 44
0.0
 50
0.0
 51
0.0
 71
     0
 72
   500
 73
     1
 74
     0
 75
     0
 76
     0
 77
     0
 78
     2
  0
ENDTAB
  0
TABLE
  2
LTYPE
 70
     3
  0
LTYPE
  2
CONTINUOUS
 70
     0
  3
Solid Line
 72
    65
 73
     0
 40
0.0
  0
LTYPE
  2
CENTER
 70
     0
  3
____ _ ____ _ ____ _ ____ _ ____ _ ____ _ ____
 72
    65
 73
     4
 40
2.0
 49
1.25
 49
-0.25
 49
0.25
 49
-0.25
  0
LTYPE
  2
PHANTOM2
 70
     0
  3
___ _ _ ___ _ _ ___ _ _ ___ _ _
 72
    65
 73
     6
 40
1.25
 49
0.625
 49
-0.125
 49
0.125
 49
-0.125
 49
0.125
 49
-0.125
  0
ENDTAB
  0
TABLE
  2
LAYER
 70
     2
  0
LAYER
  2
0
 70
     0
 62
     7
  6
CONTINUOUS
  0
LAYER
  2
1
 70
     0
 62
     1
  6
CENTER
  0
ENDTAB
  0
TABLE
  2
STYLE
 70
     2
  0
STYLE
  2
STANDARD
 70
     0
 40
0.0
 41
1.0
 50
0.0
 71
     0
 42
0.2
  3
TXT
  4
BIGFONT
  0
STYLE
  2
STANDARD1
 70
     0
 40
0.0
 41
1.0
 50
0.0
 71
     0
 42
3.0
  3
txt
  4

  0
ENDTAB
  0
TABLE
  2
VIEW
 70
     1
  0
VIEW
  2
ALL
 70
     0
 40
540.0
 10
441.98319327731087
 20
270.0
 41
0.0
 11
0.0
 21
0.0
 31
1.0
 12
0.0
 22
0.0
 32
0.0
 42
0.0
 43
0.0
 44
0.0
 50
0.0
 71
     0
  0
ENDTAB
  0
TABLE
  2
UCS
 70
     0
  0
ENDTAB
  0
TABLE
  2
APPID
 70
     4
  0
APPID
  2
ACAD
 70
     0
  0
APPID
  2
ACAD_MLEADERVER
 70
     0
  0
APPID
  2
ACAD_EXEMPT_FROM_CAD_STANDARDS
 70
     0
  0
APPID
  2
ACAD_NAV_VCDISPLAY
 70
     0
  0
ENDTAB
  0
TABLE
  2
DIMSTYLE
 70
     2
  0
DIMSTYLE
  2
STANDARD
 70
     0
  3

  4

  5

  6

  7

 40
1.0
 41
0.18
 42
0.0625
 43
0.38
 44
0.18
 45
0.0
 46
0.0
 47
0.0
 48
0.0
140
0.18
141
0.09
142
0.0
143
25.399999999999999
144
1.0
145
0.0
146
1.0
147
0.09
 71
     0
 72
     0
 73
     1
 74
     1
 75
     0
 76
     0
 77
     0
 78
     0
170
     0
171
     2
172
     0
173
     0
174
     0
175
     0
176
     0
177
     0
178
     0
  0
DIMSTYLE
  2
ISO-25
 70
     0
  3

  4

  5

  6

  7

 40
1.0
 41
2.5
 42
0.625
 43
3.75
 44
1.25
 45
0.0
 46
0.0
 47
0.0
 48
0.0
140
2.5
141
2.5
142
0.0
143
0.0393700787
144
1.0
145
0.0
146
1.0
147
0.625
 71
     0
 72
     0
 73
     0
 74
     0
 75
     0
 76
     0
 77
     1
 78
     8
170
     0
171
     3
172
     1
173
     0
174
     0
175
     0
176
     0
177
     0
178
     0
  0
ENDTAB
  0
ENDSEC
  0
SECTION
  2
BLOCKS
  0
BLOCK
  8
0
  2
$MODEL_SPACE
 70
     0
 10
0.0
 20
0.0
 30
0.0
  3
$MODEL_SPACE
  1

  0
ENDBLK
  5
F5
  8
0
  0
BLOCK
 67
     1
  8
0
  2
$PAPER_SPACE
 70
     0
 10
0.0
 20
0.0
 30
0.0
  3
$PAPER_SPACE
  1

  0
ENDBLK
  5
F3
 67
     1
  8
0
  0
ENDSEC
  0
SECTION
  2
ENTITIES
  0
TEXT
  5
201
  8
0
 62
     3
 10
0.0
 20
0.0
 30
0.0
 40
10.0
  1
PSN300
  7
STANDARD1
  0
CIRCLE
  5
41B
  8
0
 10
347.67319419251908
 20
621.17739924087368
 30
0.0
 40
14.0
  0
CIRCLE
  5
41C
  8
0
 10
347.67319419251908
 20
489.17739924087368
 30
0.0
 40
146.303036779455
  0
CIRCLE
  5
41D
  8
0
 10
347.67319419251908
 20
489.17739924087368
 30
0.0
 40
104.33856052910809
  0
CIRCLE
  5
41E
  8
0
 10
347.67319419251908
 20
489.17739924087368
 30
0.0
 40
100.675731865934
  0
CIRCLE
  5
41F
  8
0
 10
347.67319419251908
 20
489.17739924087368
 30
0.0
 40
150.50000478528401
  0
CIRCLE
  5
420
  8
0
 10
347.67319419251908
 20
489.17739924087368
 30
0.0
 40
74.0
  0
CIRCLE
  5
421
  8
0
 10
347.67319419251908
 20
489.17739924087368
 30
0.0
 40
47.0
  0
LINE
  5
422
  8
0
 10
637.37319419251912
 20
607.17739924092382
 30
0.0
 11
667.37319419251912
 21
610.17739924092382
 31
0.0
  0
LINE
  5
423
  8
0
 10
667.37319419251912
 20
632.17739924092382
 30
0.0
 11
637.37319419251912
 21
635.17739924092382
 31
0.0
  0
LINE
  5
424
  8
0
 10
637.37319419251912
 20
635.17739924092382
 30
0.0
 11
580.62179936201915
 21
635.17739924092382
 31
0.0
  0
LINE
  5
425
  8
0
 10
580.62179936201915
 20
607.17739924092382
 30
0.0
 11
637.37319419251912
 21
607.17739924092382
 31
0.0
  0
ARC
  5
426
  8
0
 10
580.62179936201915
 20
608.5773992409238
 30
0.0
 40
1.4000000000000441
 50
194.01361556380041
 51
270.0
  0
ARC
  5
427
  8
0
 10
580.62179936201915
 20
633.77739924092373
 30
0.0
 40
1.4000000000000301
 50
90.0
 51
165.9863844361995
  0
ARC
  5
428
  8
0
 10
631.10652752581927
 20
621.17739924092382
 30
0.0
 40
53.43333333333107
 50
165.9863844361995
 51
194.01361556380041
  0
LINE
  5
429
  8
0
 10
667.67319419251896
 20
627.67739924092382
 30
0.0
 11
667.37319419251912
 21
627.67739924092382
 31
0.0
  0
LINE
  5
42A
  8
0
 10
667.37319419251912
 20
614.67739924092371
 30
0.0
 11
667.67319419251896
 21
614.67739924092371
 31
0.0
  0
LINE
  5
42B
  8
0
 10
701.873468341219
 20
338.6773944556237
 30
0.0
 11
703.67319419251896
 21
340.44598012402372
 31
0.0
  0
LINE
  5
42C
  8
0
 10
703.67319419251896
 20
637.90881835772382
 30
0.0
 11
701.87346834121911
 21
639.67740402622383
 31
0.0
  0
LINE
  5
42D
  8
0
 10
701.87346834121911
 20
639.67740402622383
 30
0.0
 11
671.2726458950192
 21
639.14326468352385
 31
0.0
  0
LINE
  5
42E
  8
0
 10
671.2726458950192
 20
339.21153379822368
 30
0.0
 11
701.873468341219
 21
338.6773944556237
 31
0.0
  0
LINE
  5
42F
  8
0
 10
671.2726458950192
 20
639.14326468352385
 30
0.0
 11
667.67319419251896
 21
635.48043602032374
 31
0.0
  0
LINE
  5
430
  8
0
 10
667.67319419251896
 20
342.87436246142369
 30
0.0
 11
671.2726458950192
 21
339.21153379822368
 31
0.0
  0
LINE
  5
431
  8
0
 10
703.67319419251896
 20
415.95250977952378
 30
0.0
 11
714.97102161031899
 21
446.99303549892358
 31
0.0
  0
LINE
  5
432
  8
0
 10
714.97102161031899
 20
531.36176298292366
 30
0.0
 11
703.67319419251896
 21
562.40228870232374
 31
0.0
  0
ARC
  5
433
  8
0
 10
716.66246832771913
 20
531.97739924092366
 30
0.0
 40
1.8000000000000109
 50
199.99999999999449
 51
269.99999914620031
  0
ARC
  5
434
  8
0
 10
716.66246832771913
 20
446.37739924092369
 30
0.0
 40
1.8000000000000109
 50
90.000000853799705
 51
160.0000000000054
  0
LINE
  5
435
  8
0
 10
716.66246830091904
 20
448.17739924092371
 30
0.0
 11
736.67319419251896
 21
448.17739924092371
 31
0.0
  0
LINE
  5
436
  8
0
 10
736.67319419251896
 20
530.17739924092382
 30
0.0
 11
716.66246830091904
 21
530.17739924092382
 31
0.0
  0
LINE
  5
437
  8
0
 10
753.77319419251899
 20
460.17739924092382
 30
0.0
 11
754.67319419251896
 21
461.07739924092368
 31
0.0
  0
LINE
  5
438
  8
0
 10
754.67319419251896
 20
517.27739924092373
 30
0.0
 11
753.77319419251899
 21
518.17739924092382
 31
0.0
  0
LINE
  5
439
  8
0
 10
736.67319419251896
 20
460.17739924092382
 30
0.0
 11
753.77319419251899
 21
460.17739924092382
 31
0.0
  0
LINE
  5
43A
  8
0
 10
753.77319419251899
 20
518.17739924092382
 30
0.0
 11
736.67319419251896
 21
518.17739924092382
 31
0.0
  0
LINE
  5
43B
  8
0
 10
637.37319419251912
 20
607.17739924092382
 30
0.0
 11
637.37319419251912
 21
635.17739924092382
 31
0.0
  0
LINE
  5
43C
  8
0
 10
667.37319419251912
 20
610.17739924092382
 30
0.0
 11
667.37319419251912
 21
632.17739924092382
 31
0.0
  0
LINE
  5
43D
  8
0
 10
703.67319419251896
 20
340.44598012402372
 30
0.0
 11
703.67319419251896
 21
637.90881835772382
 31
0.0
  0
LINE
  5
43E
  8
0
 10
701.87346834121911
 20
639.67740402622383
 30
0.0
 11
701.873468341219
 21
338.6773944556237
 31
0.0
  0
LINE
  5
43F
  8
0
 10
671.2726458950192
 20
639.14326468352385
 30
0.0
 11
671.2726458950192
 21
339.21153379822368
 31
0.0
  0
LINE
  5
440
  8
0
 10
667.67319419251896
 20
635.48043602032374
 30
0.0
 11
667.67319419251896
 21
342.87436246142369
 31
0.0
  0
LINE
  5
441
  8
0
 10
736.67319419251896
 20
448.17739924092371
 30
0.0
 11
736.67319419251896
 21
530.17739924092382
 31
0.0
  0
LINE
  5
442
  8
0
 10
754.67319419251896
 20
461.07739924092368
 30
0.0
 11
754.67319419251896
 21
517.27739924092373
 31
0.0
  0
LINE
  5
443
  8
0
 10
753.77319419251899
 20
460.17739924092382
 30
0.0
 11
753.77319419251899
 21
518.17739924092382
 31
0.0
  0
LINE
  5
444
  8
0
 10
580.62179936201915
 20
635.17739924092382
 30
0.0
 11
580.62179936201915
 21
607.17739924092382
 31
0.0
  0
LINE
  5
445
  8
0
 10
716.66246830091904
 20
530.17739924092382
 30
0.0
 11
716.66246830091904
 21
448.17739924092371
 31
0.0
  0
LINE
  5
446
  8
0
 10
333.6731941925691
 20
208.15861490818779
 30
0.0
 11
336.6731941925691
 21
178.1586149081877
 31
0.0
  0
LINE
  5
447
  8
0
 10
358.6731941925691
 20
178.1586149081877
 30
0.0
 11
361.6731941925691
 21
208.15861490818779
 31
0.0
  0
LINE
  5
448
  8
0
 10
361.6731941925691
 20
208.15861490818779
 30
0.0
 11
361.6731941925691
 21
264.91000973878778
 31
0.0
  0
LINE
  5
449
  8
0
 10
333.6731941925691
 20
264.91000973878778
 30
0.0
 11
333.6731941925691
 21
208.15861490818779
 31
0.0
  0
ARC
  5
44A
  8
0
 10
335.07319419256919
 20
264.91000973878778
 30
0.0
 40
1.400000000000085
 50
104.01361556379931
 51
180.0
  0
ARC
  5
44B
  8
0
 10
360.27319419256918
 20
264.91000973878778
 30
0.0
 40
1.400000000000085
 50
0.0
 51
75.986384436200709
  0
ARC
  5
44C
  8
0
 10
347.6731941925691
 20
214.4252815748878
 30
0.0
 40
53.433333333331163
 50
75.986384436200709
 51
104.01361556379931
  0
LINE
  5
44D
  8
0
 10
354.1731941925691
 20
177.85861490818769
 30
0.0
 11
354.1731941925691
 21
178.1586149081877
 31
0.0
  0
LINE
  5
44E
  8
0
 10
341.1731941925691
 20
178.1586149081877
 30
0.0
 11
341.1731941925691
 21
177.85861490818769
 31
0.0
  0
LINE
  5
44F
  8
0
 10
197.17318940726909
 20
143.6583407594878
 30
0.0
 11
198.9417750756692
 21
141.85861490818769
 31
0.0
  0
LINE
  5
450
  8
0
 10
496.40461330946908
 20
141.8586149081876
 30
0.0
 11
498.17319897786928
 21
143.6583407594876
 31
0.0
  0
LINE
  5
451
  8
0
 10
498.17319897786928
 20
143.6583407594876
 30
0.0
 11
497.63905963516908
 21
174.25916320568771
 31
0.0
  0
LINE
  5
452
  8
0
 10
197.70732874996929
 20
174.2591632056878
 30
0.0
 11
197.17318940726909
 21
143.6583407594878
 31
0.0
  0
LINE
  5
453
  8
0
 10
497.63905963516908
 20
174.25916320568771
 30
0.0
 11
493.97623097196919
 21
177.85861490818749
 31
0.0
  0
LINE
  5
454
  8
0
 10
201.37015741306919
 20
177.85861490818769
 30
0.0
 11
197.70732874996929
 21
174.2591632056878
 31
0.0
  0
LINE
  5
455
  8
0
 10
274.44830473116917
 20
141.85861490818769
 30
0.0
 11
305.48883045056942
 21
130.5607874903877
 31
0.0
  0
LINE
  5
456
  8
0
 10
389.85755793456929
 20
130.5607874903877
 30
0.0
 11
420.89808365396931
 21
141.85861490818769
 31
0.0
  0
ARC
  5
457
  8
0
 10
390.47319419256928
 20
128.8693407729877
 30
0.0
 40
1.8000000000000951
 50
110.0000000000035
 51
179.99999914620031
  0
ARC
  5
458
  8
0
 10
304.87319419256937
 20
128.8693407729877
 30
0.0
 40
1.8000000000000951
 50
0.0000008537997014
 51
69.999999999996504
  0
LINE
  5
459
  8
0
 10
306.6731941925691
 20
128.86934079978781
 30
0.0
 11
306.6731941925691
 21
108.8586149081877
 31
0.0
  0
LINE
  5
45A
  8
0
 10
388.6731941925691
 20
108.8586149081877
 30
0.0
 11
388.6731941925691
 21
128.86934079978781
 31
0.0
  0
LINE
  5
45B
  8
0
 10
318.6731941925691
 20
91.758614908187781
 30
0.0
 11
319.57319419256919
 21
90.858614908187704
 31
0.0
  0
LINE
  5
45C
  8
0
 10
375.77319419256918
 20
90.858614908187704
 30
0.0
 11
376.6731941925691
 21
91.758614908187781
 31
0.0
  0
LINE
  5
45D
  8
0
 10
318.6731941925691
 20
108.8586149081877
 30
0.0
 11
318.6731941925691
 21
91.758614908187781
 31
0.0
  0
LINE
  5
45E
  8
0
 10
376.6731941925691
 20
91.758614908187781
 30
0.0
 11
376.6731941925691
 21
108.8586149081877
 31
0.0
  0
LINE
  5
45F
  8
0
 10
333.6731941925691
 20
208.15861490818779
 30
0.0
 11
361.6731941925691
 21
208.15861490818779
 31
0.0
  0
LINE
  5
460
  8
0
 10
336.6731941925691
 20
178.1586149081877
 30
0.0
 11
358.6731941925691
 21
178.1586149081877
 31
0.0
  0
LINE
  5
461
  8
0
 10
198.9417750756692
 20
141.85861490818769
 30
0.0
 11
496.40461330946908
 21
141.8586149081876
 31
0.0
  0
LINE
  5
462
  8
0
 10
498.1731989778695
 20
143.6583407594878
 30
0.0
 11
197.17318940726909
 21
143.6583407594878
 31
0.0
  0
LINE
  5
463
  8
0
 10
497.63905963516908
 20
174.2591632056878
 30
0.0
 11
197.70732874996929
 21
174.2591632056878
 31
0.0
  0
LINE
  5
464
  8
0
 10
493.9762309719689
 20
177.85861490818769
 30
0.0
 11
201.37015741306919
 21
177.85861490818769
 31
0.0
  0
LINE
  5
465
  8
0
 10
306.6731941925691
 20
108.8586149081877
 30
0.0
 11
388.6731941925691
 21
108.8586149081877
 31
0.0
  0
LINE
  5
466
  8
0
 10
319.57319419256919
 20
90.858614908187704
 30
0.0
 11
375.77319419256918
 21
90.858614908187704
 31
0.0
  0
LINE
  5
467
  8
0
 10
318.6731941925691
 20
91.758614908187781
 30
0.0
 11
376.6731941925691
 21
91.758614908187781
 31
0.0
  0
LINE
  5
468
  8
0
 10
361.6731941925691
 20
264.91000973878778
 30
0.0
 11
333.6731941925691
 21
264.91000973878778
 31
0.0
  0
LINE
  5
469
  8
0
 10
388.6731941925691
 20
128.86934079978781
 30
0.0
 11
306.6731941925691
 21
128.86934079978781
 31
0.0
  0
LINE
  5
473
  8
1
 10
347.67319419251908
 20
282.85861490821901
 30
0.0
 11
347.67319419251908
 21
76.758614908187781
 31
0.0
  0
LINE
  5
474
  8
1
 10
182.17318940723499
 20
489.17739924087368
 30
0.0
 11
513.17319897780305
 21
489.17739924087368
 31
0.0
  0
LINE
  5
475
  8
1
 10
347.67319419251908
 20
654.67740402615755
 30
0.0
 11
347.67319419251908
 21
323.67739445558971
 31
0.0
  0
LINE
  5
476
  8
1
 10
318.67319419251908
 20
621.17739924087368
 30
0.0
 11
376.67319419251908
 21
621.17739924087368
 31
0.0
  0
LINE
  5
477
  8
1
 10
562.67319419248815
 20
621.17739924087368
 30
0.0
 11
718.67319419251908
 21
621.17739924087368
 31
0.0
  0
LINE
  5
478
  8
1
 10
652.67319419251885
 20
489.17739924087368
 30
0.0
 11
769.67319419251896
 21
489.17739924087363
 31
0.0
  0
CIRCLE
  5
47B
  8
0
 10
347.67319419251908
 20
489.17739924087368
 30
0.0
 40
29.0
  0
ENDSEC
  0
EOF
