  0
SECTION
  2
HEADER
  9
$ACADVER
  1
AC1009
  9
$INSBASE
 10
0.0
 20
0.0
 30
0.0
  9
$EXTMIN
 10
0.0
 20
-2.960436562073669
 30
0.0
  9
$EXTMAX
 10
663.99999999999977
 20
289.50000372188731
 30
0.0
  9
$LIMMIN
 10
0.0
 20
0.0
  9
$LIMMAX
 10
750.0
 20
540.0
  9
$ORTHOMODE
 70
     1
  9
$REGENMODE
 70
     1
  9
$FILLMODE
 70
     1
  9
$QTEXTMODE
 70
     0
  9
$MIRRTEXT
 70
     0
  9
$DRAGMODE
 70
     2
  9
$LTSCALE
 40
20.0
  9
$OSMODE
 70
    37
  9
$ATTMODE
 70
     1
  9
$TEXTSIZE
 40
4.000000000000048
  9
$TRACEWID
 40
0.05
  9
$TEXTSTYLE
  7
STANDARD
  9
$CLAYER
  8
0
  9
$CELTYPE
  6
BYLAYER
  9
$CECOLOR
 62
   256
  9
$DIMSCALE
 40
2.0
  9
$DIMASZ
 40
3.0
  9
$DIMEXO
 40
2.0
  9
$DIMDLI
 40
0.38
  9
$DIMRND
 40
0.0
  9
$DIMDLE
 40
0.0
  9
$DIMEXE
 40
2.0
  9
$DIMTP
 40
0.0
  9
$DIMTM
 40
0.0
  9
$DIMTXT
 40
3.2000000000000002
  9
$DIMCEN
 40
0.0
  9
$DIMTSZ
 40
0.0
  9
$DIMTOL
 70
     0
  9
$DIMLIM
 70
     0
  9
$DIMTIH
 70
     0
  9
$DIMTOH
 70
     0
  9
$DIMSE1
 70
     0
  9
$DIMSE2
 70
     0
  9
$DIMTAD
 70
     1
  9
$DIMZIN
 70
     0
  9
$DIMBLK
  1

  9
$DIMASO
 70
     1
  9
$DIMSHO
 70
     0
  9
$DIMPOST
  1

  9
$DIMAPOST
  1

  9
$DIMALT
 70
     0
  9
$DIMALTD
 70
     2
  9
$DIMALTF
 40
25.399999999999999
  9
$DIMLFAC
 40
1.0
  9
$DIMTOFL
 70
     1
  9
$DIMTVP
 40
1.6000000000000001
  9
$DIMTIX
 70
     1
  9
$DIMSOXD
 70
     0
  9
$DIMSAH
 70
     0
  9
$DIMBLK1
  1

  9
$DIMBLK2
  1

  9
$DIMSTYLE
  2
STANDARD
  9
$DIMCLRD
 70
     0
  9
$DIMCLRE
 70
     0
  9
$DIMCLRT
 70
     0
  9
$DIMTFAC
 40
1.0
  9
$DIMGAP
 40
0.09
  9
$LUNITS
 70
     2
  9
$LUPREC
 70
     4
  9
$SKETCHINC
 40
0.1
  9
$FILLETRAD
 40
0.0
  9
$AUNITS
 70
     1
  9
$AUPREC
 70
     4
  9
$MENU
  1
E:\r13\win\SUPPORT\ACAD
  9
$ELEVATION
 40
0.0
  9
$PELEVATION
 40
0.0
  9
$THICKNESS
 40
0.0
  9
$LIMCHECK
 70
     0
  9
$BLIPMODE
 70
     0
  9
$CHAMFERA
 40
0.0
  9
$CHAMFERB
 40
0.0
  9
$SKPOLY
 70
     0
  9
$TDCREATE
 40
2449839.7810300919
  9
$TDUPDATE
 40
2457637.5665896758
  9
$TDINDWG
 40
0.0429051389
  9
$TDUSRTIMER
 40
0.0429051389
  9
$USRTIMER
 70
     1
  9
$ANGBASE
 50
0.0
  9
$ANGDIR
 70
     0
  9
$PDMODE
 70
     0
  9
$PDSIZE
 40
0.0
  9
$PLINEWID
 40
0.0
  9
$COORDS
 70
     1
  9
$SPLFRAME
 70
     0
  9
$SPLINETYPE
 70
     6
  9
$SPLINESEGS
 70
     8
  9
$ATTDIA
 70
     0
  9
$ATTREQ
 70
     1
  9
$HANDLING
 70
     1
  9
$HANDSEED
  5
B35
  9
$SURFTAB1
 70
     6
  9
$SURFTAB2
 70
     6
  9
$SURFTYPE
 70
     6
  9
$SURFU
 70
     6
  9
$SURFV
 70
     6
  9
$UCSNAME
  2

  9
$UCSORG
 10
0.0
 20
0.0
 30
0.0
  9
$UCSXDIR
 10
1.0
 20
0.0
 30
0.0
  9
$UCSYDIR
 10
0.0
 20
1.0
 30
0.0
  9
$PUCSNAME
  2

  9
$PUCSORG
 10
0.0
 20
0.0
 30
0.0
  9
$PUCSXDIR
 10
1.0
 20
0.0
 30
0.0
  9
$PUCSYDIR
 10
0.0
 20
1.0
 30
0.0
  9
$USERI1
 70
     0
  9
$USERI2
 70
     1
  9
$USERI3
 70
     1
  9
$USERI4
 70
     0
  9
$USERI5
 70
     0
  9
$USERR1
 40
0.0
  9
$USERR2
 40
0.0
  9
$USERR3
 40
0.0
  9
$USERR4
 40
0.0
  9
$USERR5
 40
0.0
  9
$WORLDVIEW
 70
     1
  9
$SHADEDGE
 70
     3
  9
$SHADEDIF
 70
    70
  9
$TILEMODE
 70
     1
  9
$MAXACTVP
 70
    16
  9
$PLIMCHECK
 70
     0
  9
$PEXTMIN
 10
1.0000000000000000E+020
 20
1.0000000000000000E+020
 30
1.0000000000000000E+020
  9
$PEXTMAX
 10
-1.0000000000000000E+020
 20
-1.0000000000000000E+020
 30
-1.0000000000000000E+020
  9
$PLIMMIN
 10
0.0
 20
0.0
  9
$PLIMMAX
 10
12.0
 20
9.0
  9
$UNITMODE
 70
     0
  9
$VISRETAIN
 70
     0
  9
$PLINEGEN
 70
     0
  9
$PSLTSCALE
 70
     0
  0
ENDSEC
  0
SECTION
  2
TABLES
  0
TABLE
  2
VPORT
 70
     1
  0
VPORT
  2
*ACTIVE
 70
     0
 10
0.0
 20
0.0
 11
1.0
 21
1.0
 12
398.49322310550468
 22
143.27252332001339
 13
0.0
 23
0.0
 14
20.0
 24
20.0
 15
20.0
 25
20.0
 16
0.0
 26
0.0
 36
1.0
 17
0.0
 27
0.0
 37
0.0
 40
450.08930413432478
 41
1.368715083798882
 42
50.0
 43
0.0
 44
0.0
 50
0.0
 51
0.0
 71
     0
 72
   500
 73
     1
 74
     0
 75
     0
 76
     0
 77
     0
 78
     2
  0
ENDTAB
  0
TABLE
  2
LTYPE
 70
     3
  0
LTYPE
  2
CONTINUOUS
 70
     0
  3
Solid Line
 72
    65
 73
     0
 40
0.0
  0
LTYPE
  2
CENTER
 70
     0
  3
____ _ ____ _ ____ _ ____ _ ____ _ ____ _ ____
 72
    65
 73
     4
 40
2.0
 49
1.25
 49
-0.25
 49
0.25
 49
-0.25
  0
LTYPE
  2
PHANTOM2
 70
     0
  3
___ _ _ ___ _ _ ___ _ _ ___ _ _
 72
    65
 73
     6
 40
1.25
 49
0.625
 49
-0.125
 49
0.125
 49
-0.125
 49
0.125
 49
-0.125
  0
ENDTAB
  0
TABLE
  2
LAYER
 70
     2
  0
LAYER
  2
0
 70
     0
 62
     7
  6
CONTINUOUS
  0
LAYER
  2
1
 70
     0
 62
     1
  6
CENTER
  0
ENDTAB
  0
TABLE
  2
STYLE
 70
     2
  0
STYLE
  2
STANDARD
 70
     0
 40
0.0
 41
1.0
 50
0.0
 71
     0
 42
4.000000000000048
  3
TXT
  4
BIGFONT
  0
STYLE
  2
STANDARD1
 70
     0
 40
0.0
 41
1.0
 50
0.0
 71
     0
 42
3.0
  3
txt
  4

  0
ENDTAB
  0
TABLE
  2
VIEW
 70
     1
  0
VIEW
  2
ALL
 70
     0
 40
540.0
 10
441.98319327731087
 20
270.0
 41
0.0
 11
0.0
 21
0.0
 31
1.0
 12
0.0
 22
0.0
 32
0.0
 42
0.0
 43
0.0
 44
0.0
 50
0.0
 71
     0
  0
ENDTAB
  0
TABLE
  2
UCS
 70
     0
  0
ENDTAB
  0
TABLE
  2
APPID
 70
     4
  0
APPID
  2
ACAD
 70
     0
  0
APPID
  2
ACAD_MLEADERVER
 70
     0
  0
APPID
  2
ACAD_EXEMPT_FROM_CAD_STANDARDS
 70
     0
  0
APPID
  2
ACAD_NAV_VCDISPLAY
 70
     0
  0
ENDTAB
  0
TABLE
  2
DIMSTYLE
 70
     2
  0
DIMSTYLE
  2
STANDARD
 70
     0
  3

  4

  5

  6

  7

 40
1.0
 41
0.18
 42
0.0625
 43
0.38
 44
0.18
 45
0.0
 46
0.0
 47
0.0
 48
0.0
140
0.18
141
0.09
142
0.0
143
25.399999999999999
144
1.0
145
0.0
146
1.0
147
0.09
 71
     0
 72
     0
 73
     1
 74
     1
 75
     0
 76
     0
 77
     0
 78
     0
170
     0
171
     2
172
     0
173
     0
174
     0
175
     0
176
     0
177
     0
178
     0
  0
DIMSTYLE
  2
ISO-25
 70
     0
  3

  4

  5

  6

  7

 40
1.0
 41
2.5
 42
0.625
 43
3.75
 44
1.25
 45
0.0
 46
0.0
 47
0.0
 48
0.0
140
2.5
141
2.5
142
0.0
143
0.0393700787
144
1.0
145
0.0
146
1.0
147
0.625
 71
     0
 72
     0
 73
     0
 74
     0
 75
     0
 76
     0
 77
     1
 78
     8
170
     0
171
     3
172
     1
173
     0
174
     0
175
     0
176
     0
177
     0
178
     0
  0
ENDTAB
  0
ENDSEC
  0
SECTION
  2
BLOCKS
  0
BLOCK
  8
0
  2
$MODEL_SPACE
 70
     0
 10
0.0
 20
0.0
 30
0.0
  3
$MODEL_SPACE
  1

  0
ENDBLK
  5
1A4
  8
0
  0
BLOCK
 67
     1
  8
0
  2
$PAPER_SPACE
 70
     0
 10
0.0
 20
0.0
 30
0.0
  3
$PAPER_SPACE
  1

  0
ENDBLK
  5
1A2
 67
     1
  8
0
  0
ENDSEC
  0
SECTION
  2
ENTITIES
  0
TEXT
  5
28E
  8
0
 62
     3
 10
0.0
 20
0.0
 30
0.0
 40
10.0
  1
PSN125F
  7
STANDARD1
  0
LINE
  5
598
  8
0
 10
93.700000000000045
 20
275.75
 30
0.0
 11
68.158053254900096
 21
273.6540005533999
 31
0.0
  0
LINE
  5
599
  8
0
 10
68.158053254900096
 20
256.34599944659999
 30
0.0
 11
93.700000000000045
 21
254.25
 31
0.0
  0
LINE
  5
59A
  8
0
 10
93.700000000000045
 20
254.25
 30
0.0
 11
119.8744732729001
 21
254.25
 31
0.0
  0
LINE
  5
59B
  8
0
 10
119.8744732729001
 20
275.75
 30
0.0
 11
93.700000000000045
 21
275.75
 31
0.0
  0
ARC
  5
59C
  8
0
 10
119.8744732729001
 20
273.59999999999991
 30
0.0
 40
2.150000000000023
 50
19.471217558498349
 51
90.0
  0
ARC
  5
59D
  8
0
 10
119.8744732729001
 20
256.39999999999998
 30
0.0
 40
2.1500000000000341
 50
270.0
 51
340.52878244150168
  0
ARC
  5
59E
  8
0
 10
95.550000000000054
 20
265.0
 30
0.0
 40
27.94999999999974
 50
340.52877960210242
 51
19.471220397897572
  0
ARC
  5
59F
  8
0
 10
68.216666666700121
 20
272.93973479109991
 30
0.0
 40
0.7166666666666686
 50
94.691241439199018
 51
180.0
  0
ARC
  5
5A0
  8
0
 10
68.216666666700121
 20
257.06026520889998
 30
0.0
 40
0.7166666666666686
 50
180.0
 51
265.30875856080098
  0
LINE
  5
5A1
  8
0
 10
67.0
 20
257.47499999999991
 30
0.0
 11
67.5
 21
257.47499999999991
 31
0.0
  0
LINE
  5
5A2
  8
0
 10
67.5
 20
272.52499999999998
 30
0.0
 11
67.0
 21
272.52499999999998
 31
0.0
  0
LINE
  5
5A3
  8
0
 10
40.399786773300093
 20
154.49999627810001
 30
0.0
 11
64.20042645360013
 21
154.91543798910001
 31
0.0
  0
LINE
  5
5A4
  8
0
 10
64.20042645360013
 20
279.08456201090002
 30
0.0
 11
40.399786773300093
 21
279.50000372189987
 31
0.0
  0
LINE
  5
5A5
  8
0
 10
40.399786773300093
 20
279.50000372189987
 30
0.0
 11
39.0
 21
278.12443709090002
 31
0.0
  0
LINE
  5
5A6
  8
0
 10
39.0
 20
155.87556290910001
 30
0.0
 11
40.399786773300093
 21
154.49999627810001
 31
0.0
  0
LINE
  5
5A7
  8
0
 10
64.20042645360013
 20
154.91543798910001
 30
0.0
 11
67.0
 21
157.76430472710001
 31
0.0
  0
LINE
  5
5A8
  8
0
 10
67.0
 20
276.23569527289999
 30
0.0
 11
64.20042645360013
 21
279.08456201090002
 31
0.0
  0
LINE
  5
5A9
  8
0
 10
39.0
 20
245.65025773880001
 30
0.0
 11
36.546112550400039
 21
241.40000000000001
 31
0.0
  0
LINE
  5
5AA
  8
0
 10
36.546112550400039
 20
192.59999999999999
 30
0.0
 11
39.0
 21
188.34974226119999
 31
0.0
  0
ARC
  5
5AB
  8
0
 10
34.121241419800072
 20
191.1999999999999
 30
0.0
 40
2.80000000000003
 50
30.000000000000838
 51
89.999999146200295
  0
ARC
  5
5AC
  8
0
 10
34.121241419800072
 20
242.80000000000001
 30
0.0
 40
2.8000000000000158
 50
270.00000085379969
 51
329.99999999999909
  0
LINE
  5
5AD
  8
0
 10
34.121241461500063
 20
240.0
 30
0.0
 11
25.00000000000011
 21
240.0
 31
0.0
  0
LINE
  5
5AE
  8
0
 10
25.0
 20
193.99999999999989
 30
0.0
 11
34.121241461500063
 21
193.99999999999989
 31
0.0
  0
LINE
  5
5AF
  8
0
 10
25.00000000000011
 20
233.0
 30
0.0
 11
10.75000000000011
 21
233.0
 31
0.0
  0
LINE
  5
5B0
  8
0
 10
10.75
 20
201.0
 30
0.0
 11
25.0
 21
201.0
 31
0.0
  0
LINE
  5
5B1
  8
0
 10
10.75000000000011
 20
233.0
 30
0.0
 11
10.00000000000011
 21
232.25
 31
0.0
  0
LINE
  5
5B2
  8
0
 10
10.0
 20
201.75
 30
0.0
 11
10.75
 21
201.0
 31
0.0
  0
LINE
  5
5B3
  8
0
 10
93.700000000000045
 20
275.75
 30
0.0
 11
93.700000000000045
 21
254.25
 31
0.0
  0
LINE
  5
5B4
  8
0
 10
67.5
 20
272.93973479109991
 30
0.0
 11
67.5
 21
257.06026520889998
 31
0.0
  0
LINE
  5
5B5
  8
0
 10
40.399786773300093
 20
279.50000372189987
 30
0.0
 11
40.399786773300093
 21
154.49999627810001
 31
0.0
  0
LINE
  5
5B6
  8
0
 10
64.20042645360013
 20
154.91543798910001
 30
0.0
 11
64.20042645360013
 21
279.08456201090002
 31
0.0
  0
LINE
  5
5B8
  8
0
 10
39.0
 20
278.12443709090002
 30
0.0
 11
39.0
 21
155.87556290910001
 31
0.0
  0
LINE
  5
5B9
  8
0
 10
67.0
 20
157.76430472710001
 30
0.0
 11
67.0
 21
276.23569527289999
 31
0.0
  0
LINE
  5
5BB
  8
0
 10
25.00000000000011
 20
240.0
 30
0.0
 11
25.0
 21
193.99999999999989
 31
0.0
  0
LINE
  5
5BC
  8
0
 10
10.75000000000011
 20
233.0
 30
0.0
 11
10.75
 21
201.0
 31
0.0
  0
LINE
  5
5BD
  8
0
 10
10.00000000000011
 20
232.25
 30
0.0
 11
10.0
 21
201.75
 31
0.0
  0
LINE
  5
5BF
  8
0
 10
119.8744732729001
 20
254.25
 30
0.0
 11
119.8744732729001
 21
275.75
 31
0.0
  0
LINE
  5
5C2
  8
0
 10
34.121241461500063
 20
193.99999999999989
 30
0.0
 11
34.121241461500063
 21
240.0
 31
0.0
  0
CIRCLE
  5
5C4
  8
0
 10
217.0
 20
265.0
 30
0.0
 40
10.75
  0
CIRCLE
  5
5C5
  8
0
 10
217.0
 20
217.0
 30
0.0
 40
59.235695272909417
  0
LINE
  5
5C6
  8
0
 10
225.0
 20
257.78713496339998
 30
0.0
 11
225.0
 21
257.81929669179999
 31
0.0
  0
LINE
  5
5C7
  8
0
 10
209.0
 20
257.81929669179999
 30
0.0
 11
209.0
 21
257.78713496339998
 31
0.0
  0
ARC
  5
5C8
  8
0
 10
217.0
 20
217.0
 30
0.0
 40
41.564292108971927
 50
101.0971353412008
 51
78.902864658799217
  0
LINE
  5
5CA
  8
0
 10
209.0
 20
257.78713496339998
 30
0.0
 11
209.0
 21
254.67110348390011
 31
0.0
  0
ARC
  5
5CB
  8
0
 10
217.0
 20
217.0
 30
0.0
 40
38.715425370947507
 50
101.9252847580015
 51
78.074715241998462
  0
LINE
  5
5CC
  8
0
 10
225.0
 20
254.67110348390011
 30
0.0
 11
225.0
 21
257.78713496339998
 31
0.0
  0
CIRCLE
  5
5CD
  8
0
 10
217.0
 20
217.0
 30
0.0
 40
62.50000372188731
  0
POLYLINE
  5
5CE
  8
0
 66
     1
 10
0.0
 20
0.0
 30
0.0
 70
   128
  0
VERTEX
  5
B2D
  8
0
 10
209.0
 20
254.67110348390011
 30
0.0
  0
VERTEX
  5
B2E
  8
0
 10
210.9807681952002
 20
255.03788750940001
 30
0.0
  0
VERTEX
  5
B2F
  8
0
 10
212.4824256700999
 20
255.2453076843
 30
0.0
  0
SEQEND
  5
B30
  8
0
  0
POLYLINE
  5
5CF
  8
0
 66
     1
 10
0.0
 20
0.0
 30
0.0
 70
   128
  0
VERTEX
  5
B31
  8
0
 10
221.51757433000009
 20
255.2453076843
 30
0.0
  0
VERTEX
  5
B32
  8
0
 10
223.0192318049001
 20
255.03788750940001
 30
0.0
  0
VERTEX
  5
B33
  8
0
 10
225.0
 20
254.67110348390011
 30
0.0
  0
SEQEND
  5
B34
  8
0
  0
CIRCLE
  5
5D2
  8
0
 10
217.0
 20
217.0
 30
0.0
 40
22.00000000000006
  0
CIRCLE
  5
5D4
  8
0
 10
217.0
 20
217.0
 30
0.0
 40
34.99999999999995
  0
LINE
  5
5D9
  8
0
 10
206.24999999988231
 20
93.699999999999989
 30
0.0
 11
208.3459994465824
 21
68.158053254899983
 31
0.0
  0
LINE
  5
5DA
  8
0
 10
225.6540005532826
 20
68.158053254899983
 30
0.0
 11
227.74999999988231
 21
93.699999999999989
 31
0.0
  0
LINE
  5
5DB
  8
0
 10
227.74999999988231
 20
93.699999999999989
 30
0.0
 11
227.74999999988231
 21
119.8744732729
 31
0.0
  0
LINE
  5
5DC
  8
0
 10
206.24999999988231
 20
119.8744732729
 30
0.0
 11
206.24999999988231
 21
93.699999999999989
 31
0.0
  0
ARC
  5
5DD
  8
0
 10
208.3999999998824
 20
119.8744732729
 30
0.0
 40
2.1500000000000128
 50
109.4712175584978
 51
180.0
  0
ARC
  5
5DE
  8
0
 10
225.5999999998825
 20
119.8744732729
 30
0.0
 40
2.150000000000031
 50
0.0
 51
70.528782441502173
  0
ARC
  5
5E0
  8
0
 10
216.99999999999989
 20
95.549999999550153
 30
0.0
 40
27.950000000463081
 50
70.528779602716483
 51
109.4712203978151
  0
ARC
  5
5E1
  8
0
 10
209.0602652087824
 20
68.21666666669995
 30
0.0
 40
0.7166666666666686
 50
184.69124143919899
 51
270.0
  0
ARC
  5
5E2
  8
0
 10
224.93973479108229
 20
68.21666666669995
 30
0.0
 40
0.7166666666666686
 50
270.0
 51
355.30875856079439
  0
LINE
  5
5E3
  8
0
 10
224.5249999998824
 20
66.999999999999943
 30
0.0
 11
224.5249999998824
 21
67.499999999999943
 31
0.0
  0
LINE
  5
5E4
  8
0
 10
209.4749999998825
 20
67.499999999999943
 30
0.0
 11
209.4749999998825
 21
66.999999999999943
 31
0.0
  0
LINE
  5
5E5
  8
0
 10
279.50000372178249
 20
40.399786773299972
 30
0.0
 11
279.08456201088251
 21
64.20042645359996
 31
0.0
  0
LINE
  5
5E6
  8
0
 10
154.91543798898249
 20
64.200426453600016
 30
0.0
 11
154.4999962779824
 21
40.399786773300043
 31
0.0
  0
LINE
  5
5E7
  8
0
 10
154.4999962779824
 20
40.399786773300043
 30
0.0
 11
155.87556290898249
 21
39.0
 31
0.0
  0
LINE
  5
5E8
  8
0
 10
278.12443709078241
 20
38.99999999999995
 30
0.0
 11
279.50000372178249
 21
40.399786773299972
 31
0.0
  0
LINE
  5
5E9
  8
0
 10
279.08456201088251
 20
64.20042645359996
 30
0.0
 11
276.23569527278238
 21
66.999999999999943
 31
0.0
  0
LINE
  5
5EA
  8
0
 10
157.7643047269824
 20
67.0
 30
0.0
 11
154.91543798898249
 21
64.200426453600016
 31
0.0
  0
LINE
  5
5EB
  8
0
 10
188.3497422610825
 20
39.0
 30
0.0
 11
192.59999999988241
 21
36.546112550399982
 31
0.0
  0
LINE
  5
5EC
  8
0
 10
241.3999999998824
 20
36.546112550399982
 30
0.0
 11
245.6502577386824
 21
38.99999999999995
 31
0.0
  0
ARC
  5
5ED
  8
0
 10
242.79999999988249
 20
34.121241419800008
 30
0.0
 40
2.8000000000000012
 50
120.0000000000004
 51
179.99999914620031
  0
ARC
  5
5EE
  8
0
 10
191.19999999988229
 20
34.121241419800008
 30
0.0
 40
2.80000000000003
 50
0.0000008537997014
 51
59.99999999999951
  0
LINE
  5
5EF
  8
0
 10
193.99999999988231
 20
34.121241461500013
 30
0.0
 11
193.99999999988231
 21
25.0
 31
0.0
  0
LINE
  5
5F0
  8
0
 10
239.99999999988231
 20
25.0
 30
0.0
 11
239.99999999988231
 21
34.121241461500013
 31
0.0
  0
LINE
  5
5F1
  8
0
 10
200.99999999988231
 20
25.0
 30
0.0
 11
200.99999999988231
 21
10.75
 31
0.0
  0
LINE
  5
5F2
  8
0
 10
232.99999999988231
 20
10.75
 30
0.0
 11
232.99999999988231
 21
25.0
 31
0.0
  0
LINE
  5
5F3
  8
0
 10
200.99999999988231
 20
10.75
 30
0.0
 11
201.74999999988231
 21
10.0
 31
0.0
  0
LINE
  5
5F4
  8
0
 10
232.24999999988231
 20
10.0
 30
0.0
 11
232.99999999988231
 21
10.75
 31
0.0
  0
LINE
  5
5F5
  8
0
 10
206.24999999988231
 20
93.699999999999989
 30
0.0
 11
227.74999999988231
 21
93.699999999999989
 31
0.0
  0
LINE
  5
5F6
  8
0
 10
209.0602652087824
 20
67.499999999999943
 30
0.0
 11
224.93973479108229
 21
67.499999999999943
 31
0.0
  0
LINE
  5
5F7
  8
0
 10
154.4999962779824
 20
40.399786773300043
 30
0.0
 11
279.50000372178249
 21
40.399786773299972
 31
0.0
  0
LINE
  5
5F8
  8
0
 10
279.08456201088251
 20
64.20042645359996
 30
0.0
 11
154.91543798898249
 21
64.200426453600016
 31
0.0
  0
LINE
  5
5F9
  8
0
 10
155.87556290898249
 20
39.0
 30
0.0
 11
278.12443709078241
 21
38.99999999999995
 31
0.0
  0
LINE
  5
5FA
  8
0
 10
276.23569527278238
 20
66.999999999999943
 30
0.0
 11
157.7643047269824
 21
67.0
 31
0.0
  0
LINE
  5
5FB
  8
0
 10
193.99999999988231
 20
25.0
 30
0.0
 11
239.99999999988231
 21
25.0
 31
0.0
  0
LINE
  5
5FC
  8
0
 10
200.99999999988231
 20
10.75
 30
0.0
 11
232.99999999988231
 21
10.75
 31
0.0
  0
LINE
  5
5FD
  8
0
 10
201.74999999988231
 20
10.0
 30
0.0
 11
232.24999999988231
 21
10.0
 31
0.0
  0
LINE
  5
5FF
  8
0
 10
227.74999999988231
 20
119.8744732729
 30
0.0
 11
206.24999999988231
 21
119.8744732729
 31
0.0
  0
LINE
  5
602
  8
0
 10
239.99999999988231
 20
34.121241461500013
 30
0.0
 11
193.99999999988231
 21
34.121241461500013
 31
0.0
  0
LINE
  5
603
  8
0
 10
592.50000000000011
 20
228.7999999999999
 30
0.0
 11
594.5959994466001
 21
254.34194674509999
 31
0.0
  0
ARC
  5
604
  8
0
 10
594.64999999999986
 20
202.62552672719991
 30
0.0
 40
2.150000000000023
 50
180.0
 51
250.52878244149599
  0
LINE
  5
605
  8
0
 10
592.50000000000011
 20
202.62552672719991
 30
0.0
 11
592.50000000000011
 21
228.7999999999999
 31
0.0
  0
ARC
  5
607
  8
0
 10
595.31026520889998
 20
254.28333333329999
 30
0.0
 40
0.7166666666666925
 50
90.0
 51
175.30875856080101
  0
LINE
  5
608
  8
0
 10
595.72500000000002
 20
255.0
 30
0.0
 11
595.72500000000002
 21
255.5
 31
0.0
  0
LINE
  5
609
  8
0
 10
623.60021322680007
 20
154.49999627810001
 30
0.0
 11
599.79957354639998
 21
154.915437989
 31
0.0
  0
LINE
  5
60A
  8
0
 10
599.79957354639998
 20
279.08456201090007
 30
0.0
 11
623.60021322679984
 21
279.5000037219001
 31
0.0
  0
LINE
  5
60B
  8
0
 10
623.60021322679984
 20
279.5000037219001
 30
0.0
 11
624.99999999999989
 21
278.12443709090007
 31
0.0
  0
LINE
  5
60C
  8
0
 10
625.0
 20
155.87556290910001
 30
0.0
 11
623.60021322680007
 21
154.49999627810001
 31
0.0
  0
LINE
  5
60D
  8
0
 10
599.79957354639998
 20
154.915437989
 30
0.0
 11
597.00000000000011
 21
157.76430472710001
 31
0.0
  0
LINE
  5
60E
  8
0
 10
596.99999999999977
 20
276.23569527289999
 30
0.0
 11
599.79957354639998
 21
279.08456201090007
 31
0.0
  0
LINE
  5
60F
  8
0
 10
624.99999999999989
 20
245.65025773880001
 30
0.0
 11
627.45388744959996
 21
241.40000000000009
 31
0.0
  0
LINE
  5
610
  8
0
 10
627.45388744959996
 20
192.59999999999999
 30
0.0
 11
625.0
 21
188.34974226119999
 31
0.0
  0
ARC
  5
611
  8
0
 10
629.87875858020004
 20
191.19999999999999
 30
0.0
 40
2.8000000000000109
 50
90.000000853799705
 51
149.9999999999992
  0
ARC
  5
612
  8
0
 10
629.87875858020004
 20
242.7999999999999
 30
0.0
 40
2.8000000000000109
 50
210.0000000000008
 51
269.99999914620031
  0
LINE
  5
613
  8
0
 10
629.87875853849994
 20
240.0
 30
0.0
 11
638.99999999999977
 21
240.0
 31
0.0
  0
LINE
  5
614
  8
0
 10
639.00000000000011
 20
193.99999999999989
 30
0.0
 11
629.87875853849994
 21
193.99999999999989
 31
0.0
  0
LINE
  5
615
  8
0
 10
638.99999999999977
 20
233.0
 30
0.0
 11
653.24999999999977
 21
233.0
 31
0.0
  0
LINE
  5
616
  8
0
 10
653.25000000000011
 20
201.0
 30
0.0
 11
639.00000000000011
 21
201.0
 31
0.0
  0
LINE
  5
617
  8
0
 10
653.24999999999977
 20
233.0
 30
0.0
 11
653.99999999999989
 21
232.25
 31
0.0
  0
LINE
  5
618
  8
0
 10
654.0
 20
201.75
 30
0.0
 11
653.25000000000011
 21
201.0
 31
0.0
  0
LINE
  5
619
  8
0
 10
592.50000000000011
 20
228.7999999999999
 30
0.0
 11
597.00000000000011
 21
228.7999999999999
 31
0.0
  0
LINE
  5
61A
  8
0
 10
595.31026520889998
 20
255.0
 30
0.0
 11
596.99999999999977
 21
255.0
 31
0.0
  0
LINE
  5
61B
  8
0
 10
595.72500000000002
 20
255.5
 30
0.0
 11
596.99999999999977
 21
255.5
 31
0.0
  0
LINE
  5
61C
  8
0
 10
623.60021322679984
 20
279.5000037219001
 30
0.0
 11
623.60021322680007
 21
154.49999627810001
 31
0.0
  0
LINE
  5
61D
  8
0
 10
599.79957354639998
 20
154.915437989
 30
0.0
 11
599.79957354639998
 21
279.08456201090007
 31
0.0
  0
LINE
  5
61E
  8
0
 10
624.99999999999989
 20
278.12443709090007
 30
0.0
 11
625.0
 21
155.87556290910001
 31
0.0
  0
LINE
  5
620
  8
0
 10
597.00000000000011
 20
157.76430472710001
 30
0.0
 11
596.99999999999977
 21
276.23569527289999
 31
0.0
  0
LINE
  5
621
  8
0
 10
638.99999999999977
 20
240.0
 30
0.0
 11
639.00000000000011
 21
193.99999999999989
 31
0.0
  0
LINE
  5
623
  8
0
 10
653.24999999999977
 20
233.0
 30
0.0
 11
653.25000000000011
 21
201.0
 31
0.0
  0
LINE
  5
624
  8
0
 10
653.99999999999989
 20
232.25
 30
0.0
 11
654.0
 21
201.75
 31
0.0
  0
LINE
  5
625
  8
0
 10
594.5959994466001
 20
254.34194674509999
 30
0.0
 11
596.99999999999977
 21
254.34194674509999
 31
0.0
  0
LINE
  5
626
  8
0
 10
597.00000000000011
 20
202.62552672719991
 30
0.0
 11
592.50000000000011
 21
202.62552672719991
 31
0.0
  0
LINE
  5
629
  8
0
 10
629.87875853849994
 20
193.99999999999989
 30
0.0
 11
629.87875853849994
 21
240.0
 31
0.0
  0
LINE
  5
62A
  8
0
 10
509.5000037218997
 20
40.399786773200049
 30
0.0
 11
509.0845620109996
 21
64.200426453600016
 31
0.0
  0
LINE
  5
62B
  8
0
 10
384.9154379890997
 20
64.20042645360013
 30
0.0
 11
384.49999627819989
 21
40.399786773200049
 31
0.0
  0
LINE
  5
62C
  8
0
 10
384.49999627819989
 20
40.399786773200049
 30
0.0
 11
385.8755629090997
 21
39.0
 31
0.0
  0
LINE
  5
62D
  8
0
 10
508.12443709089962
 20
39.0
 30
0.0
 11
509.5000037218997
 21
40.399786773200049
 31
0.0
  0
LINE
  5
62E
  8
0
 10
509.0845620109996
 20
64.200426453600016
 30
0.0
 11
506.23569527299969
 21
67.0
 31
0.0
  0
LINE
  5
62F
  8
0
 10
387.7643047270999
 20
67.0
 30
0.0
 11
384.9154379890997
 21
64.20042645360013
 31
0.0
  0
LINE
  5
630
  8
0
 10
418.34974226119959
 20
39.0
 30
0.0
 11
422.59999999999968
 21
36.546112550400039
 31
0.0
  0
LINE
  5
631
  8
0
 10
471.39999999999958
 20
36.546112550400039
 30
0.0
 11
475.65025773879961
 21
39.0
 31
0.0
  0
ARC
  5
632
  8
0
 10
472.79999999999973
 20
34.121241419800072
 30
0.0
 40
2.800000000000018
 50
120.0000000000004
 51
179.99999914620031
  0
ARC
  5
633
  8
0
 10
421.1999999999997
 20
34.121241419800072
 30
0.0
 40
2.800000000000018
 50
0.0000008537997014
 51
59.99999999999951
  0
LINE
  5
634
  8
0
 10
423.99999999999972
 20
34.121241461500063
 30
0.0
 11
423.99999999999972
 21
25.0
 31
0.0
  0
LINE
  5
635
  8
0
 10
469.99999999999972
 20
25.0
 30
0.0
 11
469.99999999999972
 21
34.121241461500063
 31
0.0
  0
LINE
  5
636
  8
0
 10
430.99999999999972
 20
10.75
 30
0.0
 11
431.74999999999977
 21
10.0
 31
0.0
  0
LINE
  5
637
  8
0
 10
462.24999999999972
 20
10.0
 30
0.0
 11
462.99999999999977
 21
10.75
 31
0.0
  0
LINE
  5
638
  8
0
 10
430.99999999999972
 20
25.0
 30
0.0
 11
430.99999999999972
 21
10.75
 31
0.0
  0
LINE
  5
639
  8
0
 10
462.99999999999977
 20
10.75
 30
0.0
 11
462.99999999999977
 21
25.0
 31
0.0
  0
ARC
  5
63B
  8
0
 10
446.99999999999972
 20
60.75
 30
0.0
 40
10.749999999999989
 50
35.548744002869888
 51
144.45125599709709
  0
LINE
  5
63C
  8
0
 10
384.49999627819989
 20
40.399786773200049
 30
0.0
 11
509.5000037218997
 21
40.399786773200049
 31
0.0
  0
LINE
  5
63D
  8
0
 10
509.0845620109996
 20
64.200426453600016
 30
0.0
 11
384.9154379890997
 21
64.20042645360013
 31
0.0
  0
LINE
  5
63E
  8
0
 10
385.8755629090997
 20
39.0
 30
0.0
 11
508.12443709089962
 21
39.0
 31
0.0
  0
LINE
  5
63F
  8
0
 10
506.23569527299969
 20
67.0
 30
0.0
 11
387.7643047270999
 21
67.0
 31
0.0
  0
LINE
  5
640
  8
0
 10
423.99999999999972
 20
25.0
 30
0.0
 11
469.99999999999972
 21
25.0
 31
0.0
  0
LINE
  5
641
  8
0
 10
431.74999999999977
 20
10.0
 30
0.0
 11
462.24999999999972
 21
10.0
 31
0.0
  0
LINE
  5
642
  8
0
 10
430.99999999999972
 20
10.75
 30
0.0
 11
462.99999999999977
 21
10.75
 31
0.0
  0
LINE
  5
646
  8
0
 10
469.99999999999972
 20
34.121241461500063
 30
0.0
 11
423.99999999999972
 21
34.121241461500063
 31
0.0
  0
LINE
  5
647
  8
0
 10
436.2499999999996
 20
228.7999999999999
 30
0.0
 11
436.2499999999996
 21
202.62552672719991
 31
0.0
  0
LINE
  5
648
  8
0
 10
457.74999999999977
 20
202.62552672719991
 30
0.0
 11
457.74999999999977
 21
228.7999999999999
 31
0.0
  0
ARC
  5
649
  8
0
 10
455.5999999999998
 20
202.62552672719991
 30
0.0
 40
2.1500000000000501
 50
289.47121755850412
 51
0.0
  0
ARC
  5
64A
  8
0
 10
438.39999999999969
 20
202.62552672719991
 30
0.0
 40
2.1500000000000128
 50
180.0
 51
250.52878244149599
  0
LINE
  5
64B
  8
0
 10
457.74999999999977
 20
228.7999999999999
 30
0.0
 11
455.6540005532998
 21
254.34194674509999
 31
0.0
  0
LINE
  5
64C
  8
0
 10
438.34599944659982
 20
254.34194674509999
 30
0.0
 11
436.2499999999996
 21
228.7999999999999
 31
0.0
  0
ARC
  5
64D
  8
0
 10
446.99999999999977
 20
226.94999999999999
 30
0.0
 40
27.949999999999712
 50
250.5287796021029
 51
289.4712203978977
  0
ARC
  5
64E
  8
0
 10
454.93973479109968
 20
254.28333333329999
 30
0.0
 40
0.7166666666667231
 50
4.6912414391990227
 51
36.010383556399198
  0
LINE
  5
64F
  8
0
 10
455.00108018409981
 20
254.99736964460001
 30
0.0
 11
454.93973479109968
 21
255.0
 31
0.0
  0
LINE
  5
650
  8
0
 10
439.06026520879971
 20
255.0
 30
0.0
 11
438.9984337885997
 21
254.9973277215999
 31
0.0
  0
ARC
  5
651
  8
0
 10
439.06026520879971
 20
254.28333333329999
 30
0.0
 40
0.7166666666666948
 50
143.9896164436008
 51
175.30875856080101
  0
LINE
  5
652
  8
0
 10
439.4749999999998
 20
255.5
 30
0.0
 11
439.4749999999998
 21
255.0
 31
0.0
  0
LINE
  5
653
  8
0
 10
454.52499999999969
 20
255.0
 30
0.0
 11
454.52499999999969
 21
255.5
 31
0.0
  0
LINE
  5
654
  8
0
 10
452.37499999999977
 20
255.5
 30
0.0
 11
452.0491768706998
 21
258.60000000000002
 31
0.0
  0
LINE
  5
655
  8
0
 10
441.95082312929992
 20
258.60000000000002
 30
0.0
 11
441.62499999999972
 21
255.5
 31
0.0
  0
LINE
  5
658
  8
0
 10
457.74999999999972
 20
228.7999999999999
 30
0.0
 11
436.2499999999996
 21
228.7999999999999
 31
0.0
  0
LINE
  5
65A
  8
0
 10
446.99999999999977
 20
255.0
 30
0.0
 11
439.06026520879971
 21
255.0
 31
0.0
  0
LINE
  5
65B
  8
0
 10
454.93973479109968
 20
255.0
 30
0.0
 11
446.99999999999977
 21
255.0
 31
0.0
  0
LINE
  5
65C
  8
0
 10
454.52499999999969
 20
255.5
 30
0.0
 11
439.4749999999998
 21
255.5
 31
0.0
  0
ARC
  5
661
  8
0
 10
446.99999999999977
 20
265.0
 30
0.0
 40
5.3750000000009219
 50
309.28975166779952
 51
230.71024833220051
  0
ARC
  5
663
  8
0
 10
446.99999999999977
 20
265.0
 30
0.0
 40
7.420000000000031
 50
300.39773275671882
 51
239.60226724327791
  0
LINE
  5
669
  8
0
 10
450.4036781574996
 20
260.83999999999997
 30
0.0
 11
449.68749999999989
 21
260.35165376719999
 31
0.0
  0
ARC
  5
66D
  8
0
 10
446.99999999999977
 20
265.0
 30
0.0
 40
5.0491768706741116
 50
302.15861817130309
 51
237.84138182869691
  0
LINE
  5
66F
  8
0
 10
444.3124999999996
 20
260.35165376719999
 30
0.0
 11
443.59632184249978
 21
260.83999999999997
 31
0.0
  0
LINE
  5
673
  8
0
 10
449.04249999999962
 20
269.27452112179998
 30
0.0
 11
444.95749999999981
 21
269.27452112179998
 31
0.0
  0
ARC
  5
674
  8
0
 10
444.95749999999981
 20
268.62952112180011
 30
0.0
 40
0.6450000000000103
 50
90.0
 51
180.0
  0
ARC
  5
675
  8
0
 10
449.04249999999962
 20
268.62952112180011
 30
0.0
 40
0.6449999999999818
 50
0.0
 51
90.0
  0
LINE
  5
676
  8
0
 10
444.3124999999996
 20
268.62952112180011
 30
0.0
 11
444.3124999999996
 21
258.60000000000002
 31
0.0
  0
LINE
  5
677
  8
0
 10
449.68750000000011
 20
258.60000000000002
 30
0.0
 11
449.68749999999989
 21
268.62952112180011
 31
0.0
  0
CIRCLE
  5
678
  8
0
 10
446.99999999999977
 20
217.0
 30
0.0
 40
59.235695272909361
  0
ARC
  5
67A
  8
0
 10
446.99999999999977
 20
265.0
 30
0.0
 40
8.0
 50
306.86989764584678
 51
233.13010235415319
  0
ARC
  5
67C
  8
0
 10
446.99999999999977
 20
217.0
 30
0.0
 40
41.564292108971948
 50
101.0971353412008
 51
78.902864658798805
  0
LINE
  5
67E
  8
0
 10
438.99999999999977
 20
265.0
 30
0.0
 11
438.99999999999972
 21
254.87986485789989
 31
0.0
  0
ARC
  5
67F
  8
0
 10
446.99999999999977
 20
217.0
 30
0.0
 40
38.715425370947592
 50
101.9252847580011
 51
78.074715241998859
  0
LINE
  5
680
  8
0
 10
454.99999999999977
 20
254.87986485789989
 30
0.0
 11
454.99999999999977
 21
265.0
 31
0.0
  0
CIRCLE
  5
681
  8
0
 10
446.99999999999977
 20
217.0
 30
0.0
 40
62.500003721887261
  0
LINE
  5
682
  8
0
 10
438.99999999999972
 20
254.87986485789989
 30
0.0
 11
438.99999999999972
 21
254.86177587290001
 31
0.0
  0
LINE
  5
683
  8
0
 10
454.99999999999977
 20
254.86177587290001
 30
0.0
 11
454.99999999999977
 21
254.87986485789989
 31
0.0
  0
ARC
  5
684
  8
0
 10
446.99999999999977
 20
217.0
 30
0.0
 40
21.999999999999972
 50
117.37277824141221
 51
62.627221758602303
  0
ARC
  5
688
  8
0
 10
446.99999999999977
 20
217.0
 30
0.0
 40
35.000000000000057
 50
104.8015048085543
 51
75.198495191499632
  0
LINE
  5
68B
  8
0
 10
436.2499999999996
 20
202.62552672719991
 30
0.0
 11
457.74999999999972
 21
202.62552672719991
 31
0.0
  0
ARC
  5
694
  8
0
 10
447.00999999999982
 20
264.98999999990002
 30
0.0
 40
3.6450000000000089
 50
42.35504165550833
 51
90.0
  0
ARC
  5
695
  8
0
 10
446.9899999999999
 20
264.98999999990002
 30
0.0
 40
3.645000000000016
 50
90.0
 51
137.67682595289199
  0
LINE
  5
696
  8
0
 10
447.00999999999982
 20
268.63499999989989
 30
0.0
 11
446.9899999999999
 21
268.63499999989989
 31
0.0
  0
LINE
  5
6E2
  8
0
 10
441.95082312929992
 20
258.60000000000002
 30
0.0
 11
452.0491768706998
 21
258.60000000000002
 31
0.0
  0
LINE
  5
771
  8
1
 10
144.49999627811269
 20
217.0
 30
0.0
 11
289.50000372188742
 21
217.0
 31
0.0
  0
LINE
  5
772
  8
1
 10
217.0
 20
289.50000372188731
 30
0.0
 11
217.0
 21
144.4999962781126
 31
0.0
  0
LINE
  5
773
  8
1
 10
216.99999999988231
 20
133.49999999999969
 30
0.0
 11
216.99999999988231
 21
0.0
 31
0.0
  0
LINE
  5
775
  8
1
 10
196.25
 20
265.0
 30
0.0
 11
237.75
 21
265.0
 31
0.0
  0
LINE
  5
77A
  8
1
 10
0.0
 20
217.0
 30
0.0
 11
77.0
 21
217.0
 31
0.0
  0
LINE
  5
77B
  8
1
 10
133.49999999999969
 20
265.0
 30
0.0
 11
29.0
 21
265.0
 31
0.0
  0
LINE
  5
77C
  8
1
 10
374.49999627811269
 20
217.0
 30
0.0
 11
519.50000372188731
 21
217.0
 31
0.0
  0
LINE
  5
77D
  8
1
 10
446.99999999999977
 20
289.50000372188731
 30
0.0
 11
446.99999999999977
 21
144.4999962781126
 31
0.0
  0
LINE
  5
77E
  8
1
 10
426.24999999999989
 20
265.0
 30
0.0
 11
467.74999999999989
 21
265.0
 31
0.0
  0
LINE
  5
77F
  8
1
 10
586.99999999999989
 20
217.0
 30
0.0
 11
663.99999999999977
 21
217.0
 31
0.0
  0
LINE
  5
780
  8
1
 10
587.0
 20
265.0
 30
0.0
 11
634.99999999999977
 21
265.0
 31
0.0
  0
LINE
  5
785
  8
1
 10
603.25000000000034
 20
283.0
 30
0.0
 11
603.25000000000034
 21
189.00000000000031
 31
0.0
  0
LINE
  5
788
  8
1
 10
446.99999999999972
 20
81.5
 30
0.0
 11
446.99999999999972
 21
0.0
 31
0.0
  0
LINE
  5
78B
  8
1
 10
426.24999999999972
 20
60.75
 30
0.0
 11
467.74999999999972
 21
60.75
 31
0.0
  0
LINE
  5
7BC
  8
1
 10
60.749999999999709
 20
275.0
 30
0.0
 11
60.749999999999709
 21
255.0
 31
0.0
  0
CIRCLE
  5
7BE
  8
0
 10
217.00000000000011
 20
217.0
 30
0.0
 40
13.25
  0
ARC
  5
7BF
  8
0
 10
447.00000000000011
 20
217.0
 30
0.0
 40
13.25
 50
144.22517416117739
 51
215.77482583882261
  0
ARC
  5
7C0
  8
0
 10
447.00000000000011
 20
217.0
 30
0.0
 40
13.25
 50
324.2251741611733
 51
35.774825838826693
  0
LINE
  5
8DF
  8
1
 10
196.24999999988231
 20
60.75
 30
0.0
 11
237.74999999988231
 21
60.75
 31
0.0
  0
ARC
  5
923
  8
0
 10
603.25000000000955
 20
226.9500000000134
 30
0.0
 40
27.949999999999712
 50
250.5287796021023
 51
257.07863400543351
  0
ENDSEC
  0
EOF
