  0
SECTION
  2
HEADER
  9
$ACADVER
  1
AC1009
  9
$INSBASE
 10
0.0
 20
0.0
 30
0.0
  9
$EXTMIN
 10
0.0
 20
-2.960436562073669
 30
0.0
  9
$EXTMAX
 10
362.35777572751522
 20
325.16530887574982
 30
0.0
  9
$LIMMIN
 10
0.0
 20
0.0
  9
$LIMMAX
 10
750.0
 20
540.0
  9
$ORTHOMODE
 70
     1
  9
$REGENMODE
 70
     1
  9
$FILLMODE
 70
     1
  9
$QTEXTMODE
 70
     0
  9
$MIRRTEXT
 70
     0
  9
$DRAGMODE
 70
     2
  9
$LTSCALE
 40
20.0
  9
$OSMODE
 70
    37
  9
$ATTMODE
 70
     1
  9
$TEXTSIZE
 40
0.2
  9
$TRACEWID
 40
0.05
  9
$TEXTSTYLE
  7
STANDARD
  9
$CLAYER
  8
0
  9
$CELTYPE
  6
BYLAYER
  9
$CECOLOR
 62
   256
  9
$DIMSCALE
 40
2.0
  9
$DIMASZ
 40
3.0
  9
$DIMEXO
 40
2.0
  9
$DIMDLI
 40
0.3799999999999999
  9
$DIMRND
 40
0.0
  9
$DIMDLE
 40
0.0
  9
$DIMEXE
 40
2.0
  9
$DIMTP
 40
0.0
  9
$DIMTM
 40
0.0
  9
$DIMTXT
 40
3.2000000000000002
  9
$DIMCEN
 40
0.09
  9
$DIMTSZ
 40
0.0
  9
$DIMTOL
 70
     0
  9
$DIMLIM
 70
     0
  9
$DIMTIH
 70
     0
  9
$DIMTOH
 70
     0
  9
$DIMSE1
 70
     0
  9
$DIMSE2
 70
     0
  9
$DIMTAD
 70
     1
  9
$DIMZIN
 70
     0
  9
$DIMBLK
  1

  9
$DIMASO
 70
     1
  9
$DIMSHO
 70
     0
  9
$DIMPOST
  1

  9
$DIMAPOST
  1

  9
$DIMALT
 70
     0
  9
$DIMALTD
 70
     2
  9
$DIMALTF
 40
25.399999999999999
  9
$DIMLFAC
 40
1.0
  9
$DIMTOFL
 70
     0
  9
$DIMTVP
 40
1.6000000000000001
  9
$DIMTIX
 70
     1
  9
$DIMSOXD
 70
     0
  9
$DIMSAH
 70
     0
  9
$DIMBLK1
  1

  9
$DIMBLK2
  1

  9
$DIMSTYLE
  2
STANDARD
  9
$DIMCLRD
 70
     0
  9
$DIMCLRE
 70
     0
  9
$DIMCLRT
 70
     0
  9
$DIMTFAC
 40
1.0
  9
$DIMGAP
 40
0.09
  9
$LUNITS
 70
     2
  9
$LUPREC
 70
     4
  9
$SKETCHINC
 40
0.1
  9
$FILLETRAD
 40
1.0
  9
$AUNITS
 70
     0
  9
$AUPREC
 70
     0
  9
$MENU
  1
E:\r13\win\SUPPORT\ACAD
  9
$ELEVATION
 40
0.0
  9
$PELEVATION
 40
0.0
  9
$THICKNESS
 40
0.0
  9
$LIMCHECK
 70
     0
  9
$BLIPMODE
 70
     0
  9
$CHAMFERA
 40
0.0
  9
$CHAMFERB
 40
0.0
  9
$SKPOLY
 70
     0
  9
$TDCREATE
 40
2449839.7805439821
  9
$TDUPDATE
 40
2457637.5644766092
  9
$TDINDWG
 40
0.0234022106
  9
$TDUSRTIMER
 40
0.0234022106
  9
$USRTIMER
 70
     1
  9
$ANGBASE
 50
0.0
  9
$ANGDIR
 70
     0
  9
$PDMODE
 70
     0
  9
$PDSIZE
 40
0.0
  9
$PLINEWID
 40
0.0
  9
$COORDS
 70
     1
  9
$SPLFRAME
 70
     0
  9
$SPLINETYPE
 70
     6
  9
$SPLINESEGS
 70
     8
  9
$ATTDIA
 70
     0
  9
$ATTREQ
 70
     1
  9
$HANDLING
 70
     1
  9
$HANDSEED
  5
78F
  9
$SURFTAB1
 70
     6
  9
$SURFTAB2
 70
     6
  9
$SURFTYPE
 70
     6
  9
$SURFU
 70
     6
  9
$SURFV
 70
     6
  9
$UCSNAME
  2

  9
$UCSORG
 10
0.0
 20
0.0
 30
0.0
  9
$UCSXDIR
 10
1.0
 20
0.0
 30
0.0
  9
$UCSYDIR
 10
0.0
 20
1.0
 30
0.0
  9
$PUCSNAME
  2

  9
$PUCSORG
 10
0.0
 20
0.0
 30
0.0
  9
$PUCSXDIR
 10
1.0
 20
0.0
 30
0.0
  9
$PUCSYDIR
 10
0.0
 20
1.0
 30
0.0
  9
$USERI1
 70
     0
  9
$USERI2
 70
     1
  9
$USERI3
 70
     1
  9
$USERI4
 70
     0
  9
$USERI5
 70
     0
  9
$USERR1
 40
0.0
  9
$USERR2
 40
0.0
  9
$USERR3
 40
0.0
  9
$USERR4
 40
0.0
  9
$USERR5
 40
0.0
  9
$WORLDVIEW
 70
     1
  9
$SHADEDGE
 70
     3
  9
$SHADEDIF
 70
    70
  9
$TILEMODE
 70
     1
  9
$MAXACTVP
 70
    16
  9
$PLIMCHECK
 70
     0
  9
$PEXTMIN
 10
1.0000000000000000E+020
 20
1.0000000000000000E+020
 30
1.0000000000000000E+020
  9
$PEXTMAX
 10
-1.0000000000000000E+020
 20
-1.0000000000000000E+020
 30
-1.0000000000000000E+020
  9
$PLIMMIN
 10
0.0
 20
0.0
  9
$PLIMMAX
 10
12.0
 20
9.0
  9
$UNITMODE
 70
     0
  9
$VISRETAIN
 70
     0
  9
$PLINEGEN
 70
     0
  9
$PSLTSCALE
 70
     0
  0
ENDSEC
  0
SECTION
  2
TABLES
  0
TABLE
  2
VPORT
 70
     1
  0
VPORT
  2
*ACTIVE
 70
     0
 10
0.0
 20
0.0
 11
1.0
 21
1.0
 12
222.84855497418309
 22
161.10178220972469
 13
0.0
 23
0.0
 14
20.0
 24
20.0
 15
20.0
 25
20.0
 16
0.0
 26
0.0
 36
1.0
 17
0.0
 27
0.0
 37
0.0
 40
282.06582261435028
 41
1.368715083798882
 42
50.0
 43
0.0
 44
0.0
 50
0.0
 51
0.0
 71
     0
 72
   500
 73
     1
 74
     0
 75
     0
 76
     0
 77
     0
 78
     2
  0
ENDTAB
  0
TABLE
  2
LTYPE
 70
     3
  0
LTYPE
  2
CONTINUOUS
 70
     0
  3
Solid Line
 72
    65
 73
     0
 40
0.0
  0
LTYPE
  2
CENTER
 70
     0
  3
____ _ ____ _ ____ _ ____ _ ____ _ ____ _ ____
 72
    65
 73
     4
 40
2.0
 49
1.25
 49
-0.25
 49
0.25
 49
-0.25
  0
LTYPE
  2
PHANTOM2
 70
     0
  3
___ _ _ ___ _ _ ___ _ _ ___ _ _
 72
    65
 73
     6
 40
1.25
 49
0.625
 49
-0.125
 49
0.125
 49
-0.125
 49
0.125
 49
-0.125
  0
ENDTAB
  0
TABLE
  2
LAYER
 70
     2
  0
LAYER
  2
0
 70
     0
 62
     7
  6
CONTINUOUS
  0
LAYER
  2
1
 70
     0
 62
     1
  6
CENTER
  0
ENDTAB
  0
TABLE
  2
STYLE
 70
     2
  0
STYLE
  2
STANDARD
 70
     0
 40
0.0
 41
1.0
 50
0.0
 71
     0
 42
0.2
  3
TXT
  4
BIGFONT
  0
STYLE
  2
STANDARD1
 70
     0
 40
0.0
 41
1.0
 50
0.0
 71
     0
 42
3.0
  3
txt
  4

  0
ENDTAB
  0
TABLE
  2
VIEW
 70
     1
  0
VIEW
  2
ALL
 70
     0
 40
540.0
 10
440.73319327731087
 20
270.0
 41
0.0
 11
0.0
 21
0.0
 31
1.0
 12
0.0
 22
0.0
 32
0.0
 42
0.0
 43
0.0
 44
0.0
 50
0.0
 71
     0
  0
ENDTAB
  0
TABLE
  2
UCS
 70
     0
  0
ENDTAB
  0
TABLE
  2
APPID
 70
     4
  0
APPID
  2
ACAD
 70
     0
  0
APPID
  2
ACAD_MLEADERVER
 70
     0
  0
APPID
  2
ACAD_EXEMPT_FROM_CAD_STANDARDS
 70
     0
  0
APPID
  2
ACAD_NAV_VCDISPLAY
 70
     0
  0
ENDTAB
  0
TABLE
  2
DIMSTYLE
 70
     2
  0
DIMSTYLE
  2
STANDARD
 70
     0
  3

  4

  5

  6

  7

 40
1.0
 41
0.18
 42
0.0625
 43
0.38
 44
0.18
 45
0.0
 46
0.0
 47
0.0
 48
0.0
140
0.18
141
0.09
142
0.0
143
25.399999999999999
144
1.0
145
0.0
146
1.0
147
0.09
 71
     0
 72
     0
 73
     1
 74
     1
 75
     0
 76
     0
 77
     0
 78
     0
170
     0
171
     2
172
     0
173
     0
174
     0
175
     0
176
     0
177
     0
178
     0
  0
DIMSTYLE
  2
ISO-25
 70
     0
  3

  4

  5

  6

  7

 40
1.0
 41
2.5
 42
0.625
 43
3.75
 44
1.25
 45
0.0
 46
0.0
 47
0.0
 48
0.0
140
2.5
141
2.5
142
0.0
143
0.0393700787
144
1.0
145
0.0
146
1.0
147
0.625
 71
     0
 72
     0
 73
     0
 74
     0
 75
     0
 76
     0
 77
     1
 78
     8
170
     0
171
     3
172
     1
173
     0
174
     0
175
     0
176
     0
177
     0
178
     0
  0
ENDTAB
  0
ENDSEC
  0
SECTION
  2
BLOCKS
  0
BLOCK
  8
0
  2
$MODEL_SPACE
 70
     0
 10
0.0
 20
0.0
 30
0.0
  3
$MODEL_SPACE
  1

  0
ENDBLK
  5
150
  8
0
  0
BLOCK
 67
     1
  8
0
  2
$PAPER_SPACE
 70
     0
 10
0.0
 20
0.0
 30
0.0
  3
$PAPER_SPACE
  1

  0
ENDBLK
  5
14E
 67
     1
  8
0
  0
ENDSEC
  0
SECTION
  2
ENTITIES
  0
TEXT
  5
25A
  8
0
 62
     3
 10
0.0
 20
0.0
 30
0.0
 40
10.0
  1
PSN100
  7
STANDARD1
  0
CIRCLE
  5
53F
  8
0
 10
120.4170216562475
 20
304.1653060843343
 30
0.0
 40
10.50000000000006
  0
ARC
  5
540
  8
0
 10
120.4170216562475
 20
265.16530608433419
 30
0.0
 40
47.551771454682097
 50
98.112551213699348
 51
81.887448786267754
  0
ARC
  5
541
  8
0
 10
120.4170216562475
 20
265.16530608433419
 30
0.0
 40
35.629613010660691
 50
105.3305712857
 51
74.669428714299954
  0
ARC
  5
542
  8
0
 10
120.4170216562475
 20
265.16530608433419
 30
0.0
 40
33.492962957142417
 50
104.20893898469789
 51
75.791061015322171
  0
CIRCLE
  5
543
  8
0
 10
120.4170216562475
 20
265.16530608433419
 30
0.0
 40
50.000002791415561
  0
CIRCLE
  5
544
  8
0
 10
120.4170216562475
 20
265.16530608433419
 30
0.0
 40
27.0
  0
CIRCLE
  5
545
  8
0
 10
120.4170216562475
 20
265.16530608433419
 30
0.0
 40
17.500000000000028
  0
LINE
  5
546
  8
0
 10
289.39110906091508
 20
293.66530608438433
 30
0.0
 11
306.05777572751532
 21
295.66530608438433
 31
0.0
  0
LINE
  5
547
  8
0
 10
306.05777572751532
 20
312.66530608438433
 30
0.0
 11
289.39110906091508
 21
314.66530608438433
 31
0.0
  0
LINE
  5
548
  8
0
 10
289.39110906091508
 20
314.66530608438433
 30
0.0
 11
258.5692296046152
 21
314.66530608438433
 31
0.0
  0
LINE
  5
549
  8
0
 10
258.5692296046152
 20
293.66530608438433
 30
0.0
 11
289.39110906091508
 21
293.66530608438433
 31
0.0
  0
ARC
  5
54A
  8
0
 10
258.5692296046152
 20
294.71530608438428
 30
0.0
 40
1.05000000000001
 50
194.01361133869861
 51
270.0
  0
ARC
  5
54B
  8
0
 10
258.5692296046152
 20
313.61530608438431
 30
0.0
 40
1.05000000000001
 50
90.0
 51
165.98638866130131
  0
ARC
  5
54C
  8
0
 10
296.43277572751532
 20
304.16530608438433
 30
0.0
 40
40.07499999999952
 50
165.9863845469001
 51
194.01361545309979
  0
LINE
  5
54D
  8
0
 10
306.35777572751522
 20
308.06530608438442
 30
0.0
 11
306.05777572751532
 21
308.06530608438442
 31
0.0
  0
LINE
  5
54E
  8
0
 10
306.05777572751532
 20
300.26530608438441
 30
0.0
 11
306.35777572751522
 21
300.26530608438441
 31
0.0
  0
LINE
  5
54F
  8
0
 10
326.30793564761518
 20
315.16530887578432
 30
0.0
 11
308.45745588741522
 21
314.85372759258428
 31
0.0
  0
LINE
  5
550
  8
0
 10
308.45745588741522
 20
215.47688457618429
 30
0.0
 11
326.30793564761518
 21
215.1653032928844
 31
0.0
  0
LINE
  5
551
  8
0
 10
326.30793564761518
 20
215.1653032928844
 30
0.0
 11
327.35777572751522
 21
216.19697826618429
 31
0.0
  0
LINE
  5
552
  8
0
 10
327.35777572751522
 20
314.13363390248441
 30
0.0
 11
326.30793564761518
 21
315.16530887578432
 31
0.0
  0
LINE
  5
553
  8
0
 10
308.45745588741522
 20
314.85372759258428
 30
0.0
 11
306.35777572751522
 21
312.71707753898431
 31
0.0
  0
LINE
  5
554
  8
0
 10
306.35777572751522
 20
217.6135346296843
 30
0.0
 11
308.45745588741522
 21
215.47688457618429
 31
0.0
  0
LINE
  5
555
  8
0
 10
327.35777572751522
 20
238.0673556582843
 30
0.0
 11
331.44134556001518
 21
245.14030608438441
 31
0.0
  0
LINE
  5
556
  8
0
 10
331.44134556001518
 20
285.19030608438442
 30
0.0
 11
327.35777572751522
 21
292.26325651038428
 31
0.0
  0
ARC
  5
557
  8
0
 10
332.35067223401518
 20
285.71530608438439
 30
0.0
 40
1.0500000000000671
 50
210.00000000000091
 51
270.0
  0
ARC
  5
558
  8
0
 10
332.35067223401518
 20
244.61530608438429
 30
0.0
 40
1.0499999999999541
 50
90.0
 51
149.99999999999901
  0
LINE
  5
559
  8
0
 10
332.35067223401518
 20
245.6653060843843
 30
0.0
 11
340.35777572751522
 21
245.6653060843843
 31
0.0
  0
LINE
  5
55A
  8
0
 10
340.35777572751522
 20
284.66530608438433
 30
0.0
 11
332.35067223401518
 21
284.66530608438433
 31
0.0
  0
LINE
  5
55B
  8
0
 10
351.7577757275152
 20
253.1653060843843
 30
0.0
 11
352.35777572751522
 21
253.76530608438429
 31
0.0
  0
LINE
  5
55C
  8
0
 10
352.35777572751522
 20
276.56530608438442
 30
0.0
 11
351.7577757275152
 21
277.16530608438433
 31
0.0
  0
LINE
  5
55D
  8
0
 10
340.35777572751522
 20
253.1653060843843
 30
0.0
 11
351.7577757275152
 21
253.1653060843843
 31
0.0
  0
LINE
  5
55E
  8
0
 10
351.7577757275152
 20
277.16530608438433
 30
0.0
 11
340.35777572751522
 21
277.16530608438433
 31
0.0
  0
LINE
  5
55F
  8
0
 10
289.39110906091508
 20
293.66530608438433
 30
0.0
 11
289.39110906091508
 21
314.66530608438433
 31
0.0
  0
LINE
  5
560
  8
0
 10
306.05777572751532
 20
295.66530608438433
 30
0.0
 11
306.05777572751532
 21
312.66530608438433
 31
0.0
  0
LINE
  5
561
  8
0
 10
326.30793564761518
 20
215.1653032928844
 30
0.0
 11
326.30793564761518
 21
315.16530887578432
 31
0.0
  0
LINE
  5
562
  8
0
 10
308.45745588741522
 20
314.85372759258428
 30
0.0
 11
308.45745588741522
 21
215.47688457618429
 31
0.0
  0
LINE
  5
563
  8
0
 10
327.35777572751522
 20
216.19697826618429
 30
0.0
 11
327.35777572751522
 21
314.13363390248441
 31
0.0
  0
LINE
  5
564
  8
0
 10
306.35777572751522
 20
312.71707753898431
 30
0.0
 11
306.35777572751522
 21
217.61353462968421
 31
0.0
  0
LINE
  5
565
  8
0
 10
340.35777572751522
 20
245.6653060843843
 30
0.0
 11
340.35777572751522
 21
284.66530608438433
 31
0.0
  0
LINE
  5
566
  8
0
 10
352.35777572751522
 20
253.76530608438429
 30
0.0
 11
352.35777572751522
 21
276.56530608438442
 31
0.0
  0
LINE
  5
567
  8
0
 10
351.7577757275152
 20
253.1653060843843
 30
0.0
 11
351.7577757275152
 21
277.16530608438433
 31
0.0
  0
LINE
  5
568
  8
0
 10
258.5692296046152
 20
314.66530608438433
 30
0.0
 11
258.5692296046152
 21
293.66530608438433
 31
0.0
  0
LINE
  5
569
  8
0
 10
332.35067223401518
 20
284.66530608438433
 30
0.0
 11
332.35067223401518
 21
245.6653060843843
 31
0.0
  0
LINE
  5
56A
  8
0
 10
109.9170216562476
 20
116.19121867976649
 30
0.0
 11
111.9170216562476
 21
99.524552013066483
 31
0.0
  0
LINE
  5
56B
  8
0
 10
128.91702165624761
 20
99.524552013066483
 30
0.0
 11
130.91702165624761
 21
116.19121867976649
 31
0.0
  0
LINE
  5
56C
  8
0
 10
130.91702165624761
 20
116.19121867976649
 30
0.0
 11
130.91702165624761
 21
147.0130981359664
 31
0.0
  0
LINE
  5
56D
  8
0
 10
109.9170216562476
 20
147.0130981359664
 30
0.0
 11
109.9170216562476
 21
116.19121867976649
 31
0.0
  0
ARC
  5
56E
  8
0
 10
110.9670216562476
 20
147.0130981359664
 30
0.0
 40
1.0499999999999821
 50
104.01361133869899
 51
180.0
  0
ARC
  5
56F
  8
0
 10
129.86702165624749
 20
147.0130981359664
 30
0.0
 40
1.0499999999999821
 50
0.0
 51
75.986388661300936
  0
ARC
  5
570
  8
0
 10
120.4170216562476
 20
109.1495520130665
 30
0.0
 40
40.074999999999463
 50
75.986384546900993
 51
104.01361545309901
  0
LINE
  5
571
  8
0
 10
124.3170216562475
 20
99.224552013066472
 30
0.0
 11
124.3170216562475
 21
99.524552013066483
 31
0.0
  0
LINE
  5
572
  8
0
 10
116.51702165624761
 20
99.524552013066483
 30
0.0
 11
116.51702165624761
 21
99.224552013066472
 31
0.0
  0
LINE
  5
573
  8
0
 10
170.41702444764761
 20
79.274392092966565
 30
0.0
 11
170.10544316444759
 21
97.124871853266512
 31
0.0
  0
LINE
  5
574
  8
0
 10
70.728600148047576
 20
97.124871853266583
 30
0.0
 11
70.417018864847591
 21
79.274392092966622
 31
0.0
  0
LINE
  5
575
  8
0
 10
70.417018864847591
 20
79.274392092966622
 30
0.0
 11
71.448693838147619
 21
78.224552013066514
 31
0.0
  0
LINE
  5
576
  8
0
 10
169.38534947444759
 20
78.224552013066472
 30
0.0
 11
170.41702444764761
 21
79.274392092966565
 31
0.0
  0
LINE
  5
577
  8
0
 10
170.10544316444759
 20
97.124871853266512
 30
0.0
 11
167.9687931109475
 21
99.224552013066472
 31
0.0
  0
LINE
  5
578
  8
0
 10
72.865250201547497
 20
99.224552013066543
 30
0.0
 11
70.728600148047576
 21
97.124871853266583
 31
0.0
  0
LINE
  5
579
  8
0
 10
93.319071230147529
 20
78.224552013066514
 30
0.0
 11
100.39202165624761
 21
74.140982180566567
 31
0.0
  0
LINE
  5
57A
  8
0
 10
140.4420216562475
 20
74.14098218056651
 30
0.0
 11
147.5149720823475
 21
78.224552013066472
 31
0.0
  0
ARC
  5
57B
  8
0
 10
140.96702165624751
 20
73.231655506666499
 30
0.0
 40
1.05000000000001
 50
120.0
 51
180.0
  0
ARC
  5
57C
  8
0
 10
99.867021656247516
 20
73.231655506666556
 30
0.0
 40
1.05000000000001
 50
0.0
 51
60.0
  0
LINE
  5
57D
  8
0
 10
100.9170216562476
 20
73.231655506666556
 30
0.0
 11
100.9170216562476
 21
65.224552013066528
 31
0.0
  0
LINE
  5
57E
  8
0
 10
139.91702165624761
 20
65.224552013066472
 30
0.0
 11
139.91702165624761
 21
73.231655506666499
 31
0.0
  0
LINE
  5
57F
  8
0
 10
108.4170216562476
 20
53.824552013066487
 30
0.0
 11
109.01702165624761
 21
53.224552013066472
 31
0.0
  0
LINE
  5
580
  8
0
 10
131.8170216562475
 20
53.224552013066472
 30
0.0
 11
132.41702165624761
 21
53.824552013066487
 31
0.0
  0
LINE
  5
581
  8
0
 10
108.4170216562476
 20
65.224552013066472
 30
0.0
 11
108.4170216562476
 21
53.824552013066487
 31
0.0
  0
LINE
  5
582
  8
0
 10
132.41702165624761
 20
53.824552013066487
 30
0.0
 11
132.41702165624761
 21
65.224552013066472
 31
0.0
  0
LINE
  5
583
  8
0
 10
109.9170216562476
 20
116.19121867976649
 30
0.0
 11
130.9170216562477
 21
116.19121867976649
 31
0.0
  0
LINE
  5
584
  8
0
 10
111.9170216562476
 20
99.524552013066483
 30
0.0
 11
128.91702165624741
 21
99.524552013066454
 31
0.0
  0
LINE
  5
585
  8
0
 10
70.417018864847591
 20
79.274392092966622
 30
0.0
 11
170.41702444764741
 21
79.27439209296648
 31
0.0
  0
LINE
  5
586
  8
0
 10
170.10544316444759
 20
97.124871853266455
 30
0.0
 11
70.728600148047576
 21
97.124871853266583
 31
0.0
  0
LINE
  5
587
  8
0
 10
71.448693838147619
 20
78.224552013066514
 30
0.0
 11
169.38534947444759
 21
78.224552013066472
 31
0.0
  0
LINE
  5
588
  8
0
 10
167.9687931109475
 20
99.224552013066472
 30
0.0
 11
72.865250201547497
 21
99.224552013066543
 31
0.0
  0
LINE
  5
589
  8
0
 10
100.9170216562476
 20
65.224552013066528
 30
0.0
 11
139.91702165624761
 21
65.224552013066472
 31
0.0
  0
LINE
  5
58A
  8
0
 10
109.01702165624761
 20
53.224552013066472
 30
0.0
 11
131.8170216562475
 21
53.224552013066472
 31
0.0
  0
LINE
  5
58B
  8
0
 10
108.4170216562476
 20
53.824552013066487
 30
0.0
 11
132.41702165624761
 21
53.824552013066487
 31
0.0
  0
LINE
  5
58C
  8
0
 10
130.9170216562477
 20
147.01309813596649
 30
0.0
 11
109.9170216562476
 21
147.0130981359664
 31
0.0
  0
LINE
  5
58D
  8
0
 10
139.91702165624741
 20
73.231655506666428
 30
0.0
 11
100.9170216562476
 21
73.231655506666556
 31
0.0
  0
LINE
  5
596
  8
1
 10
120.4170216562476
 20
159.2245520130665
 30
0.0
 11
120.4170216562476
 21
43.224552013066479
 31
0.0
  0
LINE
  5
597
  8
1
 10
99.917021656247371
 20
304.16530608433419
 30
0.0
 11
140.9170216562475
 21
304.16530608433419
 31
0.0
  0
LINE
  5
598
  8
1
 10
180.41702444766301
 20
265.16530608433419
 30
0.0
 11
60.417018864831903
 21
265.16530608433419
 31
0.0
  0
LINE
  5
599
  8
1
 10
120.4170216562475
 20
325.16530887574982
 30
0.0
 11
120.4170216562475
 21
205.16530329291871
 31
0.0
  0
LINE
  5
59A
  8
1
 10
246.35777572751519
 20
304.16530608433419
 30
0.0
 11
337.35777572751522
 21
304.1653060843343
 31
0.0
  0
LINE
  5
59B
  8
1
 10
296.35777572751522
 20
265.16530608433419
 30
0.0
 11
362.35777572751522
 21
265.1653060843343
 31
0.0
  0
CIRCLE
  5
5A4
  8
0
 10
120.4170216562475
 20
265.16530608433419
 30
0.0
 40
10.0
  0
ENDSEC
  0
EOF
