  0
SECTION
  2
HEADER
  9
$ACADVER
  1
AC1009
  9
$INSBASE
 10
0.0
 20
0.0
 30
0.0
  9
$EXTMIN
 10
0.0
 20
-2.960436562073669
 30
0.0
  9
$EXTMAX
 10
445.0
 20
390.0
 30
0.0
  9
$LIMMIN
 10
0.0
 20
0.0
  9
$LIMMAX
 10
770.0
 20
540.0
  9
$ORTHOMODE
 70
     0
  9
$REGENMODE
 70
     1
  9
$FILLMODE
 70
     1
  9
$QTEXTMODE
 70
     0
  9
$MIRRTEXT
 70
     0
  9
$DRAGMODE
 70
     2
  9
$LTSCALE
 40
10.0
  9
$OSMODE
 70
    37
  9
$ATTMODE
 70
     1
  9
$TEXTSIZE
 40
4.000000000000048
  9
$TRACEWID
 40
0.05
  9
$TEXTSTYLE
  7
STANDARD
  9
$CLAYER
  8
0
  9
$CELTYPE
  6
BYLAYER
  9
$CECOLOR
 62
   256
  9
$DIMSCALE
 40
2.0
  9
$DIMASZ
 40
3.0
  9
$DIMEXO
 40
2.0
  9
$DIMDLI
 40
0.38
  9
$DIMRND
 40
0.0
  9
$DIMDLE
 40
0.0
  9
$DIMEXE
 40
2.0
  9
$DIMTP
 40
0.0
  9
$DIMTM
 40
0.0
  9
$DIMTXT
 40
3.0
  9
$DIMCEN
 40
0.0
  9
$DIMTSZ
 40
0.0
  9
$DIMTOL
 70
     0
  9
$DIMLIM
 70
     0
  9
$DIMTIH
 70
     0
  9
$DIMTOH
 70
     0
  9
$DIMSE1
 70
     0
  9
$DIMSE2
 70
     0
  9
$DIMTAD
 70
     1
  9
$DIMZIN
 70
     8
  9
$DIMBLK
  1

  9
$DIMASO
 70
     0
  9
$DIMSHO
 70
     0
  9
$DIMPOST
  1

  9
$DIMAPOST
  1

  9
$DIMALT
 70
     0
  9
$DIMALTD
 70
     2
  9
$DIMALTF
 40
25.3999999999999986
  9
$DIMLFAC
 40
1.0
  9
$DIMTOFL
 70
     0
  9
$DIMTVP
 40
1.6000000000000001
  9
$DIMTIX
 70
     1
  9
$DIMSOXD
 70
     0
  9
$DIMSAH
 70
     0
  9
$DIMBLK1
  1

  9
$DIMBLK2
  1

  9
$DIMSTYLE
  2
STANDARD
  9
$DIMCLRD
 70
     4
  9
$DIMCLRE
 70
     4
  9
$DIMCLRT
 70
     4
  9
$DIMTFAC
 40
1.0
  9
$DIMGAP
 40
0.09
  9
$LUNITS
 70
     2
  9
$LUPREC
 70
     1
  9
$SKETCHINC
 40
0.1
  9
$FILLETRAD
 40
0.0
  9
$AUNITS
 70
     0
  9
$AUPREC
 70
     1
  9
$MENU
  1
E:\r13\win\SUPPORT\ACAD
  9
$ELEVATION
 40
0.0
  9
$PELEVATION
 40
0.0
  9
$THICKNESS
 40
0.0
  9
$LIMCHECK
 70
     0
  9
$BLIPMODE
 70
     0
  9
$CHAMFERA
 40
1.1999999999999991
  9
$CHAMFERB
 40
1.1999999999999991
  9
$SKPOLY
 70
     0
  9
$TDCREATE
 40
2450158.5834259260445833
  9
$TDUPDATE
 40
2460376.4502662038430572
  9
$TDINDWG
 40
0.6533624884
  9
$TDUSRTIMER
 40
0.6533624884
  9
$USRTIMER
 70
     1
  9
$ANGBASE
 50
0.0
  9
$ANGDIR
 70
     0
  9
$PDMODE
 70
     0
  9
$PDSIZE
 40
0.0
  9
$PLINEWID
 40
0.0
  9
$COORDS
 70
     1
  9
$SPLFRAME
 70
     0
  9
$SPLINETYPE
 70
     6
  9
$SPLINESEGS
 70
     8
  9
$ATTDIA
 70
     1
  9
$ATTREQ
 70
     1
  9
$HANDLING
 70
     1
  9
$HANDSEED
  5
E58B
  9
$SURFTAB1
 70
     6
  9
$SURFTAB2
 70
     6
  9
$SURFTYPE
 70
     6
  9
$SURFU
 70
     6
  9
$SURFV
 70
     6
  9
$UCSNAME
  2

  9
$UCSORG
 10
0.0
 20
0.0
 30
0.0
  9
$UCSXDIR
 10
1.0
 20
0.0
 30
0.0
  9
$UCSYDIR
 10
0.0
 20
1.0
 30
0.0
  9
$PUCSNAME
  2

  9
$PUCSORG
 10
0.0
 20
0.0
 30
0.0
  9
$PUCSXDIR
 10
1.0
 20
0.0
 30
0.0
  9
$PUCSYDIR
 10
0.0
 20
1.0
 30
0.0
  9
$USERI1
 70
     3
  9
$USERI2
 70
     1
  9
$USERI3
 70
     0
  9
$USERI4
 70
     0
  9
$USERI5
 70
     0
  9
$USERR1
 40
2.0
  9
$USERR2
 40
3.0
  9
$USERR3
 40
3.0
  9
$USERR4
 40
3.0
  9
$USERR5
 40
10.0
  9
$WORLDVIEW
 70
     1
  9
$SHADEDGE
 70
     3
  9
$SHADEDIF
 70
    70
  9
$TILEMODE
 70
     1
  9
$MAXACTVP
 70
    16
  9
$PLIMCHECK
 70
     0
  9
$PEXTMIN
 10
1.0000000000000000E+20
 20
1.0000000000000000E+20
 30
1.0000000000000000E+20
  9
$PEXTMAX
 10
-1.0000000000000000E+20
 20
-1.0000000000000000E+20
 30
-1.0000000000000000E+20
  9
$PLIMMIN
 10
0.0
 20
0.0
  9
$PLIMMAX
 10
12.0
 20
9.0
  9
$UNITMODE
 70
     0
  9
$VISRETAIN
 70
     0
  9
$PLINEGEN
 70
     0
  9
$PSLTSCALE
 70
     0
  0
ENDSEC
  0
SECTION
  2
TABLES
  0
TABLE
  2
VPORT
 70
     1
  0
VPORT
  2
*ACTIVE
 70
     0
 10
0.0
 20
0.0
 11
1.0
 21
1.0
 12
469.7044334975369111
 22
200.0
 13
0.0
 23
0.0
 14
10.0
 24
10.0
 15
10.0
 25
10.0
 16
0.0
 26
0.0
 36
1.0
 17
0.0
 27
0.0
 37
0.0
 40
400.0
 41
2.3485221674876842
 42
50.0
 43
0.0
 44
0.0
 50
0.0
 51
0.0
 71
     0
 72
   500
 73
     1
 74
     0
 75
     0
 76
     0
 77
     0
 78
     2
  0
ENDTAB
  0
TABLE
  2
LTYPE
 70
     4
  0
LTYPE
  2
CONTINUOUS
 70
     0
  3
Solid Line
 72
    65
 73
     0
 40
0.0
  0
LTYPE
  2
CENTER
 70
     0
  3
____ _ ____ _ ____ _ ____ _ ____ _ ____ _ ____
 72
    65
 73
     4
 40
2.0
 49
1.25
 49
-0.25
 49
0.25
 49
-0.25
  0
LTYPE
  2
HIDDEN
 70
     0
  3
_ _ _ _ _ _ _ _ _ _ _ _ _ _ _ _ _ _ _ _ _ _ _
 72
    65
 73
     2
 40
0.375
 49
0.25
 49
-0.125
  0
LTYPE
  2
PHANTOM2
 70
     0
  3
___ _ _ ___ _ _ ___ _ _ ___ _ _
 72
    65
 73
     6
 40
1.25
 49
0.625
 49
-0.125
 49
0.125
 49
-0.125
 49
0.125
 49
-0.125
  0
ENDTAB
  0
TABLE
  2
LAYER
 70
     5
  0
LAYER
  2
0
 70
     0
 62
     7
  6
CONTINUOUS
  0
LAYER
  2
1
 70
     0
 62
     1
  6
CENTER
  0
LAYER
  2
2
 70
     0
 62
     2
  6
HIDDEN
  0
LAYER
  2
3
 70
     0
 62
     3
  6
CONTINUOUS
  0
LAYER
  2
DEFPOINTS
 70
     0
 62
     7
  6
CONTINUOUS
  0
ENDTAB
  0
TABLE
  2
STYLE
 70
     2
  0
STYLE
  2
STANDARD
 70
     0
 40
0.0
 41
1.0
 50
0.0
 71
     0
 42
4.000000000000048
  3
SIMPLEX
  4
BIGFONT
  0
STYLE
  2
STANDARD1
 70
     0
 40
0.0
 41
1.0
 50
0.0
 71
     0
 42
3.0
  3
txt
  4

  0
ENDTAB
  0
TABLE
  2
VIEW
 70
     1
  0
VIEW
  2
ALL
 70
     0
 40
179.538466448915301
 10
146.9499716985239104
 20
89.7692332244576647
 41
0.0
 11
0.0
 21
0.0
 31
1.0
 12
0.0
 22
0.0
 32
0.0
 42
50.0
 43
0.0
 44
0.0
 50
0.0
 71
     0
  0
ENDTAB
  0
TABLE
  2
UCS
 70
     0
  0
ENDTAB
  0
TABLE
  2
APPID
 70
     8
  0
APPID
  2
ACAD
 70
     0
  0
APPID
  2
ACAD_MLEADERVER
 70
     0
  0
APPID
  2
ACAD_NAV_VCDISPLAY
 70
     0
  0
APPID
  2
ACAD_EXEMPT_FROM_CAD_STANDARDS
 70
     0
  0
APPID
  2
ACAD_DSTYLE_DIMRADIAL_EXTENSION
 70
     0
  0
APPID
  2
ACAD_DSTYLE_DIMJAG
 70
     0
  0
APPID
  2
ACAD_DSTYLE_DIMTALN
 70
     0
  0
APPID
  2
ACAD_TC
 70
     0
  0
ENDTAB
  0
TABLE
  2
DIMSTYLE
 70
     1
  0
DIMSTYLE
  2
STANDARD
 70
     0
  3

  4

  5

  6

  7

 40
1.0
 41
0.18
 42
0.0625
 43
0.38
 44
0.18
 45
0.0
 46
0.0
 47
0.0
 48
0.0
140
0.18
141
0.09
142
0.0
143
25.3999999999999986
144
1.0
145
0.0
146
1.0
147
0.09
 71
     0
 72
     0
 73
     1
 74
     1
 75
     0
 76
     0
 77
     0
 78
     0
170
     0
171
     2
172
     0
173
     0
174
     0
175
     0
176
     0
177
     0
178
     0
  0
ENDTAB
  0
ENDSEC
  0
SECTION
  2
BLOCKS
  0
BLOCK
  8
0
  2
$MODEL_SPACE
 70
     0
 10
0.0
 20
0.0
 30
0.0
  3
$MODEL_SPACE
  1

  0
ENDBLK
  5
644
  8
0
  0
BLOCK
 67
     1
  8
0
  2
$PAPER_SPACE
 70
     0
 10
0.0
 20
0.0
 30
0.0
  3
$PAPER_SPACE
  1

  0
ENDBLK
  5
642
 67
     1
  8
0
  0
ENDSEC
  0
SECTION
  2
ENTITIES
  0
TEXT
  5
2975
  8
0
 62
     3
 10
0.0
 20
0.0
 30
0.0
 40
10.0
  1
PSLC30-3M-S
  7
STANDARD1
  0
LINE
  5
CD17
  8
0
 10
310.0
 20
259.5
 30
0.0
 11
180.0
 21
259.5
 31
0.0
  0
LINE
  5
CD1A
  8
0
 10
180.0
 20
180.5
 30
0.0
 11
180.0
 21
259.5
 31
0.0
  0
LINE
  5
CD1D
  8
0
 10
180.0
 20
180.5
 30
0.0
 11
180.5
 21
180.0
 31
0.0
  0
LINE
  5
CD21
  8
0
 10
309.5
 20
180.0
 30
0.0
 11
180.4999999999996874
 21
180.0
 31
0.0
  0
LINE
  5
CD22
  8
0
 10
180.0
 20
180.5
 30
0.0
 11
310.0
 21
180.5
 31
0.0
  0
LINE
  5
CD23
  8
0
 10
309.5
 20
180.0
 30
0.0
 11
310.0
 21
180.5
 31
0.0
  0
LINE
  5
CD27
  8
0
 10
310.0
 20
259.5
 30
0.0
 11
310.0
 21
180.5
 31
0.0
  0
LINE
  5
CD2C
  8
0
 10
309.5
 20
260.0
 30
0.0
 11
310.0
 21
259.5
 31
0.0
  0
LINE
  5
CD2D
  8
0
 10
180.0
 20
259.5
 30
0.0
 11
180.5
 21
260.0
 31
0.0
  0
LINE
  5
CD2E
  8
0
 10
180.5
 20
260.0
 30
0.0
 11
309.5
 21
260.0
 31
0.0
  0
LINE
  5
CD2F
  8
2
 10
206.0
 20
259.0
 30
0.0
 11
224.0
 21
259.0
 31
0.0
  0
LINE
  5
CD31
  8
2
 10
206.0
 20
245.0000000000001137
 30
0.0
 11
224.0
 21
245.0000000000001137
 31
0.0
  0
LINE
  5
CD32
  8
2
 10
209.5
 20
181.0
 30
0.0
 11
220.5
 21
181.0
 31
0.0
  0
LINE
  5
CD3B
  8
2
 10
205.0
 20
260.0
 30
0.0
 11
206.0
 21
259.0
 31
0.0
  0
LINE
  5
CD3C
  8
2
 10
224.0
 20
259.0
 30
0.0
 11
225.0
 21
260.0
 31
0.0
  0
LINE
  5
CD3D
  8
2
 10
206.0
 20
259.0
 30
0.0
 11
206.0
 21
245.0000000000001137
 31
0.0
  0
LINE
  5
CD3E
  8
2
 10
224.0
 20
245.0000000000001137
 30
0.0
 11
224.0
 21
259.0
 31
0.0
  0
LINE
  5
CD3F
  8
2
 10
221.5
 20
180.0
 30
0.0
 11
220.5
 21
181.0
 31
0.0
  0
LINE
  5
CD40
  8
2
 10
209.5
 20
181.0
 30
0.0
 11
208.5
 21
180.0
 31
0.0
  0
LINE
  5
CD41
  8
2
 10
209.5
 20
245.0000000000001137
 30
0.0
 11
209.5
 21
181.0
 31
0.0
  0
LINE
  5
CD42
  8
2
 10
220.5
 20
181.0
 30
0.0
 11
220.5
 21
245.0000000000001137
 31
0.0
  0
LINE
  5
CD53
  8
0
 10
50.4999999999999787
 20
260.0
 30
0.0
 11
49.9999999999999929
 21
259.5
 31
0.0
  0
LINE
  5
CD55
  8
0
 10
49.9999999999999929
 20
180.5
 30
0.0
 11
129.9999999999998863
 21
180.5
 31
0.0
  0
LINE
  5
CD56
  8
0
 10
49.9999999999999929
 20
180.5
 30
0.0
 11
49.9999999999999929
 21
259.5
 31
0.0
  0
LINE
  5
CD57
  8
0
 10
129.4999999999998863
 20
180.0
 30
0.0
 11
50.4999999999999787
 21
180.0
 31
0.0
  0
LINE
  5
CD58
  8
0
 10
50.4999999999999787
 20
180.0
 30
0.0
 11
49.9999999999999929
 21
180.5
 31
0.0
  0
LINE
  5
CD64
  8
0
 10
130.0
 20
180.5
 30
0.0
 11
129.5
 21
180.0
 31
0.0
  0
LINE
  5
CD66
  8
0
 10
130.0
 20
259.5
 30
0.0
 11
49.9999999999999929
 21
259.5
 31
0.0
  0
LINE
  5
CD67
  8
0
 10
130.0
 20
259.5
 30
0.0
 11
130.0
 21
180.5
 31
0.0
  0
LINE
  5
CD68
  8
0
 10
50.4999999999999787
 20
260.0
 30
0.0
 11
129.5
 21
260.0
 31
0.0
  0
LINE
  5
CD69
  8
0
 10
130.0
 20
259.5
 30
0.0
 11
129.5
 21
260.0
 31
0.0
  0
ARC
  5
CD6C
  8
0
 10
417.2749999999999773
 20
190.0788222992472924
 30
0.0
 40
3.7000000000002871
 50
22.6973843901475902
 51
206.930595981299291
  0
ARC
  5
CD6D
  8
0
 10
400.0
 20
218.0199999999996976
 30
0.0
 40
33.630000000000372
 50
307.9648983800955762
 51
232.035101619904907
  0
ARC
  5
CD6E
  8
0
 10
382.7250000000001933
 20
190.0788222992472072
 30
0.0
 40
3.7000000000002871
 50
333.0694040187008227
 51
157.3026156098524098
  0
LINE
  5
CD6F
  8
0
 10
385.294744948175321
 20
187.14036710702959
 30
0.0
 11
386.0237564676010038
 21
188.4030520979779055
 31
0.0
  0
LINE
  5
CD70
  8
0
 10
413.9762435323992236
 20
188.4030520979779055
 30
0.0
 11
414.7052550518249063
 21
187.1403671070297037
 31
0.0
  0
CIRCLE
  5
CD71
  8
0
 10
417.2749999999999773
 20
190.0788222992478893
 30
0.0
 40
1.25
  0
CIRCLE
  5
CD72
  8
0
 10
382.7250000000001933
 20
190.0788222992478893
 30
0.0
 40
1.2499999999999429
  0
CIRCLE
  5
CD73
  8
0
 10
400.0
 20
220.0000000000001137
 30
0.0
 40
20.0000000000000604
  0
CIRCLE
  5
CD7D
  8
0
 10
400.0
 20
220.0000000000001137
 30
0.0
 40
36.0000000000000568
  0
LINE
  5
CD83
  8
0
 10
439.5
 20
180.0
 30
0.0
 11
440.0
 21
180.5
 31
0.0
  0
LINE
  5
CD84
  8
0
 10
440.0
 20
259.5
 30
0.0
 11
360.0
 21
259.5
 31
0.0
  0
LINE
  5
CD85
  8
0
 10
440.0
 20
259.5
 30
0.0
 11
440.0
 21
180.5
 31
0.0
  0
LINE
  5
CD86
  8
0
 10
360.5000000000002274
 20
260.0
 30
0.0
 11
439.5
 21
260.0
 31
0.0
  0
LINE
  5
CD87
  8
0
 10
439.5
 20
260.0
 30
0.0
 11
440.0
 21
259.5
 31
0.0
  0
LINE
  5
CD89
  8
0
 10
360.0
 20
180.5
 30
0.0
 11
440.0
 21
180.5
 31
0.0
  0
LINE
  5
CD8A
  8
0
 10
360.0
 20
180.5
 30
0.0
 11
360.0
 21
259.5
 31
0.0
  0
LINE
  5
CD8C
  8
0
 10
360.0
 20
259.5
 30
0.0
 11
360.5
 21
260.0
 31
0.0
  0
LINE
  5
CD8D
  8
0
 10
439.5
 20
180.0
 30
0.0
 11
360.5
 21
180.0
 31
0.0
  0
LINE
  5
CD8E
  8
0
 10
360.0
 20
180.5
 30
0.0
 11
360.5
 21
180.0
 31
0.0
  0
LINE
  5
CD94
  8
0
 10
191.4433756729740139
 20
92.4999999999999574
 30
0.0
 11
188.5566243270260998
 21
92.5000000000001847
 31
0.0
  0
LINE
  5
CD95
  8
0
 10
188.5566243270260998
 20
92.5000000000001847
 30
0.0
 11
187.1132486540518016
 21
89.9999999999999574
 31
0.0
  0
LINE
  5
CD96
  8
0
 10
187.1132486540518016
 20
89.9999999999999574
 30
0.0
 11
188.5566243270259008
 21
87.4999999999999574
 31
0.0
  0
LINE
  5
CD97
  8
0
 10
188.5566243270259008
 20
87.4999999999999574
 30
0.0
 11
191.4433756729740139
 21
87.5000000000001847
 31
0.0
  0
LINE
  5
CD98
  8
0
 10
191.4433756729740139
 20
87.5000000000001847
 30
0.0
 11
192.8867513459481131
 21
89.9999999999999574
 31
0.0
  0
LINE
  5
CD99
  8
0
 10
192.8867513459481131
 20
89.9999999999999574
 30
0.0
 11
191.4433756729740139
 21
92.4999999999999574
 31
0.0
  0
LINE
  5
CDA6
  8
0
 10
310.0
 20
51.9999999999999929
 30
0.0
 11
308.0
 21
49.9999999999999929
 31
0.0
  0
LINE
  5
CDAA
  8
0
 10
182.0
 20
50.0000000000000071
 30
0.0
 11
180.0
 21
52.0000000000000071
 31
0.0
  0
LINE
  5
CDAD
  8
0
 10
308.0
 20
49.9999999999999929
 30
0.0
 11
182.0
 21
50.0000000000000071
 31
0.0
  0
LINE
  5
CDB8
  8
0
 10
310.0
 20
128.0
 30
0.0
 11
310.0
 21
51.9999999999999929
 31
0.0
  0
LINE
  5
CDB9
  8
0
 10
180.0
 20
52.0000000000000071
 30
0.0
 11
180.0
 21
128.0
 31
0.0
  0
CIRCLE
  5
CDBB
  8
0
 10
215.0
 20
61.9999999999999929
 30
0.0
 40
5.4999999999999432
  0
CIRCLE
  5
CDBE
  8
0
 10
215.0
 20
118.0
 30
0.0
 40
5.4999999999999432
  0
LINE
  5
CDC0
  8
0
 10
308.0
 20
130.0
 30
0.0
 11
310.0
 21
128.0
 31
0.0
  0
LINE
  5
CDC1
  8
0
 10
180.0
 20
128.0
 30
0.0
 11
182.0
 21
130.0
 31
0.0
  0
LINE
  5
CDC3
  8
0
 10
182.0
 20
130.0
 30
0.0
 11
308.0
 21
130.0
 31
0.0
  0
LINE
  5
D231
  8
1
 10
89.9999999999999858
 20
175.0
 30
0.0
 11
89.9999999999999858
 21
265.0
 31
0.0
  0
LINE
  5
D232
  8
1
 10
44.9999999999999929
 20
220.0000000000001137
 30
0.0
 11
135.0
 21
220.0000000000001137
 31
0.0
  0
LINE
  5
D23E
  8
1
 10
400.0
 20
175.0
 30
0.0
 11
400.0
 21
265.0000000000001137
 31
0.0
  0
LINE
  5
D23F
  8
1
 10
355.0
 20
220.0000000000001137
 30
0.0
 11
445.0
 21
220.0000000000001137
 31
0.0
  0
LINE
  5
D243
  8
1
 10
215.0
 20
177.0
 30
0.0
 11
215.0
 21
263.0
 31
0.0
  0
CIRCLE
  5
D271
  8
0
 10
400.0
 20
220.0000000000001137
 30
0.0
 40
2.0669999999999988
  0
CIRCLE
  5
D272
  8
3
 10
400.0
 20
220.0000000000001137
 30
0.0
 40
2.5
  0
CIRCLE
  5
D2F3
  8
0
 10
190.0
 20
89.9999999999999858
 30
0.0
 40
6.5
  0
LINE
  5
D2FE
  8
1
 10
315.0
 20
89.9999999999999858
 30
0.0
 11
175.0
 21
89.9999999999999858
 31
0.0
  0
LINE
  5
D2FF
  8
1
 10
206.5
 20
118.0
 30
0.0
 11
223.5
 21
118.0
 31
0.0
  0
LINE
  5
D300
  8
1
 10
206.5
 20
61.9999999999999929
 30
0.0
 11
223.5
 21
61.9999999999999929
 31
0.0
  0
LINE
  5
D301
  8
1
 10
215.0
 20
53.5000000000000426
 30
0.0
 11
215.0
 21
126.4999999999999005
 31
0.0
  0
LINE
  5
DD6A
  8
0
 10
188.9175943285227106
 20
341.9226672500371933
 30
0.0
 11
189.3794614076614096
 21
341.9230174273251919
 31
0.0
  0
ARC
  5
DD6B
  8
0
 10
187.8898083794229024
 20
341.628363445931825
 30
0.0
 40
1.069091653027044
 50
15.9789143799550697
 51
93.1393259730211156
  0
LINE
  5
DD6C
  8
0
 10
187.5837969779967978
 20
342.6956626586616039
 30
0.0
 11
187.8312605619429974
 21
342.6958507858216763
 31
0.0
  0
LINE
  5
DD6D
  8
0
 10
187.583487778901997
 20
343.1010957807301907
 30
0.0
 11
187.5837969779967978
 21
342.6956626586616039
 31
0.0
  0
LINE
  5
DD6E
  8
0
 10
187.8309532254934027
 20
343.1012839078903198
 30
0.0
 11
187.583487778901997
 21
343.1010957807301907
 31
0.0
  0
ARC
  5
DD6F
  8
0
 10
187.9143876178515029
 20
341.6042564048224222
 30
0.0
 40
1.4993507366617349
 50
12.2747357622805406
 51
93.1900154748809655
  0
CIRCLE
  5
DD70
  8
0
 10
187.9421074377374055
 20
358.4475531423369716
 30
0.0
 40
0.645007439993492
  0
CIRCLE
  5
DD71
  8
0
 10
187.9421074377374055
 20
358.4475531423369716
 30
0.0
 40
1.8346020000000181
  0
LINE
  5
DD72
  8
0
 10
187.4659902602433874
 20
348.4678796026856276
 30
0.0
 11
189.7515974193811132
 21
348.4696158207952976
 31
0.0
  0
ARC
  5
DD73
  8
0
 10
187.3993547381192002
 20
349.8973303429772272
 30
0.0
 40
1.4310030442798289
 50
144.6890974464606074
 51
272.6689698913070856
  0
ARC
  5
DD74
  8
0
 10
187.3980967043031001
 20
351.5533800301221277
 30
0.0
 40
1.431003044279842
 50
87.4180806541416757
 51
215.39795309900029
  0
LINE
  5
DD75
  8
0
 10
189.7481682896614075
 20
352.9846667312086197
 30
0.0
 11
187.462559267878504
 21
352.9829302802681923
 31
0.0
  0
LINE
  5
DD76
  8
0
 10
189.7489841282367991
 20
351.9096545875071911
 30
0.0
 11
189.7481682896614075
 21
352.9846667312086197
 31
0.0
  0
LINE
  5
DD77
  8
0
 10
187.463376969098988
 20
351.9079182529821992
 30
0.0
 11
189.7489841282367991
 21
351.9096545875071911
 31
0.0
  0
ARC
  5
DD78
  8
0
 10
187.4636217988353053
 20
351.5854146536087228
 30
0.0
 40
0.3225037199967565
 50
90.0435252727199185
 51
270.0435252727198758
  0
LINE
  5
DD79
  8
0
 10
189.7494740039109899
 20
351.2646473478525877
 30
0.0
 11
187.4638668447732925
 21
351.2629110133274821
 31
0.0
  0
LINE
  5
DD7A
  8
0
 10
189.7502917051315023
 20
350.189635218703188
 30
0.0
 11
189.7494740039109899
 21
351.2646473478525877
 31
0.0
  0
LINE
  5
DD7B
  8
0
 10
187.4646826833485989
 20
350.1878989423858002
 30
0.0
 11
189.7502917051315023
 21
350.189635218703188
 31
0.0
  0
ARC
  5
DD7C
  8
0
 10
187.4649284278061998
 20
349.8653953099224054
 30
0.0
 40
0.3225037199967565
 50
90.0435252727199185
 51
270.0435252727393731
  0
LINE
  5
DD7D
  8
0
 10
189.7507815808058069
 20
349.5446279644966125
 30
0.0
 11
187.4651725590229034
 21
349.5428916881792247
 31
0.0
  0
LINE
  5
DD7E
  8
0
 10
189.7515974193811132
 20
348.4696158207952976
 30
0.0
 11
189.7507815808058069
 21
349.5446279644966125
 31
0.0
  0
LINE
  5
DD7F
  8
0
 10
189.7527410835027979
 20
346.9645990058779716
 30
0.0
 11
189.7519252449274063
 21
348.0396111495792866
 31
0.0
  0
LINE
  5
DD80
  8
0
 10
185.9032961726188944
 20
346.961674652993679
 30
0.0
 11
189.7527410835027979
 21
346.9645990058779716
 31
0.0
  0
LINE
  5
DD81
  8
0
 10
185.9024803340435028
 20
348.036686796694994
 30
0.0
 11
185.9032961726188944
 21
346.961674652993679
 31
0.0
  0
LINE
  5
DD82
  8
0
 10
189.7519252449274063
 20
348.0396111495792866
 30
0.0
 11
185.9024803340435028
 21
348.036686796694994
 31
0.0
  0
LINE
  5
DD83
  8
0
 10
187.461417466401997
 20
354.4879470951855183
 30
0.0
 11
187.9425983130932138
 21
354.488312639295998
 31
0.0
  0
ARC
  5
DD84
  8
0
 10
187.4611715677399957
 20
354.8104509227915173
 30
0.0
 40
0.322503719996958
 50
90.0434716596316491
 51
270.0435788858081878
  0
LINE
  5
DD85
  8
0
 10
187.9421065747737885
 20
355.1333201117814156
 30
0.0
 11
187.4609275907278061
 21
355.1329545676708221
 31
0.0
  0
LINE
  5
DD86
  8
0
 10
189.7457170486449911
 20
356.2097026966512203
 30
0.0
 11
187.4601098895072937
 21
356.2079667113720802
 31
0.0
  0
LINE
  5
DD87
  8
0
 10
189.7465347498655035
 20
355.1346910186111927
 30
0.0
 11
189.7457170486449911
 21
356.2097026966512203
 31
0.0
  0
LINE
  5
DD88
  8
0
 10
188.9044682681559948
 20
355.134051200002375
 30
0.0
 11
189.7465347498655035
 21
355.1346910186111927
 31
0.0
  0
LINE
  5
DD89
  8
0
 10
188.9049581438302994
 20
354.489043727517128
 30
0.0
 11
188.9044682681559948
 21
355.134051200002375
 31
0.0
  0
LINE
  5
DD8A
  8
0
 10
189.7470246255398081
 20
354.4896835461258888
 30
0.0
 11
188.9049581438302994
 21
354.489043727517128
 31
0.0
  0
LINE
  5
DD8B
  8
0
 10
187.9425983130932138
 20
354.488312639295998
 30
0.0
 11
187.9421065747737885
 21
355.1333201117814156
 31
0.0
  0
LINE
  5
DD8C
  8
0
 10
189.747840464115086
 20
353.4146714024245739
 30
0.0
 11
189.7470246255398081
 21
354.4896835461258888
 31
0.0
  0
LINE
  5
DD8D
  8
0
 10
187.4622333049773886
 20
353.4129351843147901
 30
0.0
 11
189.747840464115086
 21
353.4146714024245739
 31
0.0
  0
ARC
  5
DD8E
  8
0
 10
187.4611715677399957
 20
354.8104509227915173
 30
0.0
 40
1.3975161199861059
 50
90.0435129004697785
 51
270.0435376449764817
  0
ARC
  5
DD8F
  8
0
 10
188.0246437639517012
 20
344.0213530031841742
 30
0.0
 40
1.8354474660023929
 50
9.3360185736946395
 51
37.5838190855813608
  0
ARC
  5
DD90
  8
0
 10
184.7251199160338899
 20
344.0188464886697943
 30
0.0
 40
1.8354474660023941
 50
9.3360185736882126
 51
37.5838190855813608
  0
LINE
  5
DD91
  8
0
 10
187.8327730298042013
 20
340.7055422663689228
 30
0.0
 11
187.5853075832127956
 21
340.7053550705314251
 31
0.0
  0
ARC
  5
DD92
  8
0
 10
187.9013760852359098
 20
341.4477745566479143
 30
0.0
 40
2.457249347033811
 50
71.4964832766607685
 51
81.1295979818157491
  0
LINE
  5
DD93
  8
0
 10
189.3797985464333919
 20
341.4807267487049103
 30
0.0
 11
188.9179296046494869
 21
341.480376571416798
 31
0.0
  0
LINE
  5
DD94
  8
0
 10
188.6676497012377069
 20
343.8759286887943745
 30
0.0
 11
188.2802847027778057
 21
343.875634390860796
 31
0.0
  0
ARC
  5
DD95
  8
0
 10
187.8896984155294092
 20
341.7731176401637185
 30
0.0
 40
1.06909165302706
 50
266.9477245724348791
 51
344.1081361654997863
  0
LINE
  5
DD96
  8
0
 10
185.8242790400981903
 20
344.3160596303641796
 30
0.0
 11
186.5362546592951105
 21
344.3166002631186871
 31
0.0
  0
ARC
  5
DD97
  8
0
 10
187.6358635383533908
 20
344.0210576626067223
 30
0.0
 40
1.83544746600244
 50
142.5032314598593075
 51
170.7510319717545997
  0
ARC
  5
DD98
  8
0
 10
188.0000001490116119
 20
341.5000000000001137
 30
0.0
 40
2.3699569172245831
 50
47.2338198269096097
 51
59.346264167629073
  0
ARC
  5
DD99
  8
0
 10
190.9208273749528075
 20
344.1451909541902978
 30
0.0
 40
1.816702504598452
 50
188.5124314108223018
 51
199.4991308438222006
  0
LINE
  5
DD9A
  8
0
 10
187.5825639069080069
 20
344.3173951469361782
 30
0.0
 11
187.5813699513674067
 21
345.8886797539889812
 31
0.0
  0
LINE
  5
DD9B
  8
0
 10
189.1238021850585938
 20
344.318566285073814
 30
0.0
 11
189.8357796669006063
 21
344.3191069178283215
 31
0.0
  0
ARC
  5
DD9C
  8
0
 10
190.9353873862712021
 20
344.0235641771211021
 30
0.0
 40
1.8354474660022879
 50
142.5032314598514063
 51
170.7510319717482048
  0
LINE
  5
DD9D
  8
0
 10
189.8361149430274963
 20
343.876816239207983
 30
0.0
 11
189.1241374611853985
 21
343.8762756064534187
 31
0.0
  0
ARC
  5
DD9E
  8
0
 10
188.0313769561402069
 20
344.160802252928022
 30
0.0
 40
1.8269445998977429
 50
329.7290583165403177
 51
351.0575023933178045
  0
ARC
  5
DD9F
  8
0
 10
190.8946908910479863
 20
344.0051903732809251
 30
0.0
 40
2.2492656475153141
 50
140.0711552631528036
 51
172.0002145625915944
  0
LINE
  5
DDA0
  8
0
 10
188.0774929374456121
 20
344.3177714012563229
 30
0.0
 11
188.6673144251107885
 21
344.3182193674147129
 31
0.0
  0
LINE
  5
DDA1
  8
0
 10
188.0762989819050119
 20
345.8890555426477817
 30
0.0
 11
188.0774929374456121
 21
344.3177714012563229
 31
0.0
  0
ARC
  5
DDA2
  8
0
 10
184.7657021089767113
 20
344.1876854493849009
 30
0.0
 40
2.2492656475154211
 50
320.0711552631607901
 51
352.0002145625979892
  0
ARC
  5
DDA3
  8
0
 10
187.7587596135900867
 20
344.284268759052793
 30
0.0
 40
1.9951801012092609
 50
230.5321756082983029
 51
272.0913362175398902
  0
ARC
  5
DDA4
  8
0
 10
190.8685431832248867
 20
344.1308932667243994
 30
0.0
 40
2.215612518239245
 50
186.6080300229224065
 51
189.1650058665863128
  0
LINE
  5
DDA5
  8
0
 10
186.992742419242802
 20
344.3169471807777882
 30
0.0
 11
187.5825639069080069
 21
344.3173951469361782
 31
0.0
  0
ARC
  5
DDA6
  8
0
 10
184.765844279938392
 20
344.0005345369553993
 30
0.0
 40
2.249265647515422
 50
8.0868359828569094
 51
40.0158952822984233
  0
ARC
  5
DDA7
  8
0
 10
187.745884959862309
 20
343.9092974731896106
 30
0.0
 40
1.9862070722351231
 50
94.7511618222697933
 51
129.2768480987454041
  0
ARC
  5
DDA8
  8
0
 10
187.9147922686987044
 20
343.9094257852250962
 30
0.0
 40
1.9862070722349969
 50
50.810202446701318
 51
85.3358887231787975
  0
ARC
  5
DDA9
  8
0
 10
187.6357492360731101
 20
344.1715228194817087
 30
0.0
 40
1.8354474660023721
 50
189.336018573694588
 51
217.5838190855916991
  0
LINE
  5
DDAA
  8
0
 10
186.5365917980670929
 20
343.8743095844984055
 30
0.0
 11
185.824614316224995
 21
343.8737689517437843
 31
0.0
  0
ARC
  5
DDAB
  8
0
 10
184.7250056137536092
 20
344.1693116455447239
 30
0.0
 40
1.8354474660023781
 50
322.5032314598593075
 51
350.751031971751388
  0
ARC
  5
DDAC
  8
0
 10
187.8320160824357004
 20
341.7006966823502125
 30
0.0
 40
0.5897210879941293
 50
270.0435607421815121
 51
90.0434451930253346
  0
LINE
  5
DDAD
  8
0
 10
187.5850002467632009
 20
341.1107877269387245
 30
0.0
 11
187.8324638307094006
 21
341.1109758540987968
 31
0.0
  0
LINE
  5
DDAE
  8
0
 10
187.5853075832127956
 20
340.7053550705314251
 30
0.0
 11
187.5850002467632009
 21
341.1107877269387245
 31
0.0
  0
ARC
  5
DDAF
  8
0
 10
187.9142409993268075
 20
341.7972619971301924
 30
0.0
 40
1.499350736661742
 50
266.8970350705628221
 51
347.8123147831698816
  0
LINE
  5
DDB0
  8
0
 10
187.5856167823075964
 20
340.2999214828013805
 30
0.0
 11
187.833080366253796
 21
340.3001096099615097
 31
0.0
  0
LINE
  5
DDB1
  8
0
 10
187.5859241187571911
 20
339.8944888263940811
 30
0.0
 11
187.5856167823075964
 21
340.2999214828013805
 31
0.0
  0
LINE
  5
DDB2
  8
0
 10
187.8333877027035044
 20
339.8946760222315788
 30
0.0
 11
187.5859241187571911
 21
339.8944888263940811
 31
0.0
  0
ARC
  5
DDB3
  8
0
 10
187.9385851090434869
 20
341.8214062033248979
 30
0.0
 40
1.929599489474457
 50
266.8748350594030967
 51
349.8413737440034197
  0
LINE
  5
DDB4
  8
0
 10
190.2944225072861002
 20
341.4814215153455734
 30
0.0
 11
189.837934747338295
 21
341.4810750633478165
 31
0.0
  0
ARC
  5
DDB5
  8
0
 10
187.8523780433527008
 20
341.6425911147367174
 30
0.0
 40
2.4473576041129981
 50
149.1660893084404051
 51
356.2240871269868876
  0
ARC
  5
DDB6
  8
0
 10
187.8300882022386133
 20
344.2389988601967161
 30
0.0
 40
2.474643599975265
 50
327.2463569769096807
 51
212.8406935685389954
  0
ARC
  5
DDB7
  8
0
 10
188.0736333398517104
 20
341.6164402338225159
 30
0.0
 40
2.2416134484653032
 50
7.8787040467263409
 51
34.9367018652782733
  0
LINE
  5
DDB8
  8
0
 10
189.837599471211405
 20
341.9233657419680981
 30
0.0
 11
190.2940872311592102
 21
341.9237121939659119
 31
0.0
  0
ARC
  5
DDB9
  8
0
 10
187.9387683821992994
 20
341.580149212939375
 30
0.0
 40
1.9295994894743349
 50
10.2456768014429898
 51
93.212215486051349
  0
LINE
  5
DDBA
  8
0
 10
187.5831804424524023
 20
343.5065289027988911
 30
0.0
 11
187.8306440263986019
 21
343.5067170299590202
 31
0.0
  0
LINE
  5
DDBB
  8
0
 10
187.5829010456799892
 20
343.8751044683157829
 30
0.0
 11
187.5831804424524023
 21
343.5065289027988911
 31
0.0
  0
LINE
  5
DDBC
  8
0
 10
186.9930795580148981
 20
343.8746565021573929
 30
0.0
 11
187.5829010456799892
 21
343.8751044683157829
 31
0.0
  0
ARC
  5
DDBD
  8
0
 10
188.0000001490116119
 20
340.5000000000001137
 30
0.0
 40
3.5
 50
180.0
 51
0.0
  0
LINE
  5
DDBE
  8
0
 10
191.500000953674288
 20
359.4999996945261955
 30
0.0
 11
191.500000953674288
 21
340.5000003054738045
 31
0.0
  0
ARC
  5
DDBF
  8
0
 10
188.0000001490116119
 20
359.5
 30
0.0
 40
3.5
 50
0.0
 51
180.0
  0
LINE
  5
DDC0
  8
0
 10
184.4999998062849045
 20
340.5000003054738045
 30
0.0
 11
184.4999998062849045
 21
359.4999996945261955
 31
0.0
  0
LINE
  5
DDC1
  8
0
 10
180.0
 20
312.0000012218952179
 30
0.0
 11
180.0
 21
387.9999987781047821
 31
0.0
  0
ARC
  5
DDC2
  8
0
 10
260.0000001490114983
 20
356.0
 30
0.0
 40
3.1499999999999768
 50
90.0
 51
270.0
  0
ARC
  5
DDC3
  8
0
 10
260.0000001490114983
 20
344.0
 30
0.0
 40
3.1499999999999768
 50
90.0
 51
270.0
  0
CIRCLE
  5
DDC4
  8
3
 10
273.0000001490116119
 20
332.0
 30
0.0
 40
1.75
  0
CIRCLE
  5
DDC5
  8
3
 10
273.0000001490116119
 20
368.0
 30
0.0
 40
1.75
  0
ARC
  5
DDC6
  8
0
 10
288.0000001490116119
 20
356.0
 30
0.0
 40
3.1499999999999768
 50
270.0
 51
90.0
  0
LINE
  5
DDC7
  8
0
 10
260.000001937151012
 20
340.8499997109174728
 30
0.0
 11
287.999999076128006
 21
340.8499997109174728
 31
0.0
  0
ARC
  5
DDC8
  8
0
 10
288.0000001490116119
 20
344.0
 30
0.0
 40
3.1499999999999768
 50
270.0
 51
90.0
  0
LINE
  5
DDC9
  8
0
 10
287.999999076128006
 20
347.1499999519436983
 30
0.0
 11
260.000001937151012
 21
347.1499999519436983
 31
0.0
  0
LINE
  5
DDCA
  8
0
 10
260.000001937151012
 20
352.850000048056188
 30
0.0
 11
287.999999076128006
 21
352.850000048056188
 31
0.0
  0
LINE
  5
DDCB
  8
0
 10
287.999999076128006
 20
359.1500002890825272
 30
0.0
 11
260.000001937151012
 21
359.1500002890825272
 31
0.0
  0
LINE
  5
DDCC
  8
0
 10
182.0000003278254894
 20
389.9999991059303284
 30
0.0
 11
308.0000023543835255
 21
389.9999991059303284
 31
0.0
  0
LINE
  5
DDCD
  8
0
 10
180.0
 20
387.9999987781047821
 30
0.0
 11
182.0000003278254894
 21
389.9999991059303284
 31
0.0
  0
CIRCLE
  5
DDCE
  8
0
 10
273.0000001490116119
 20
332.0
 30
0.0
 40
1.2499999999998861
  0
CIRCLE
  5
DDCF
  8
0
 10
273.0000001490116119
 20
368.0
 30
0.0
 40
1.2499999999998861
  0
LINE
  5
DDD0
  8
0
 10
308.0000023543835255
 20
389.9999991059303284
 30
0.0
 11
309.9999989569187164
 21
387.9999987781047821
 31
0.0
  0
LINE
  5
DDD1
  8
0
 10
182.0000003278254894
 20
310.0000008940696716
 30
0.0
 11
180.0
 21
312.0000012218952179
 31
0.0
  0
LINE
  5
DDD2
  8
0
 10
309.9999989569187164
 20
387.9999987781047821
 30
0.0
 11
309.9999989569187164
 21
312.0000012218952179
 31
0.0
  0
LINE
  5
DDD3
  8
0
 10
309.9999989569187164
 20
312.0000012218952179
 30
0.0
 11
308.0000023543835255
 21
310.0000008940696716
 31
0.0
  0
LINE
  5
DDD4
  8
0
 10
308.0000023543835255
 20
310.0000008940696716
 30
0.0
 11
182.0000003278254894
 21
310.0000008940696716
 31
0.0
  0
CIRCLE
  5
DDD7
  8
0
 10
215.0
 20
322.0
 30
0.0
 40
8.9999999999999432
  0
CIRCLE
  5
DDD8
  8
0
 10
215.0
 20
378.0000000000001137
 30
0.0
 40
8.9999999999999432
  0
CIRCLE
  5
DDD9
  8
0
 10
215.0
 20
322.0
 30
0.0
 40
5.4999999999999432
  0
CIRCLE
  5
DDDA
  8
0
 10
215.0
 20
378.0000000000001137
 30
0.0
 40
5.4999999999999432
  0
LINE
  5
DDDB
  8
1
 10
175.0
 20
350.0
 30
0.0
 11
315.0
 21
350.0
 31
0.0
  0
LINE
  5
DDDC
  8
1
 10
215.0
 20
310.0
 30
0.0
 11
215.0
 21
390.0
 31
0.0
  0
LINE
  5
DDDD
  8
1
 10
203.0
 20
378.0000000000001137
 30
0.0
 11
227.0
 21
378.0000000000001137
 31
0.0
  0
LINE
  5
DDDE
  8
1
 10
203.0
 20
322.0
 30
0.0
 11
227.0
 21
322.0
 31
0.0
  0
LINE
  5
DDDF
  8
1
 10
273.0000001490116119
 20
372.75
 30
0.0
 11
273.0000001490116119
 21
363.25
 31
0.0
  0
LINE
  5
DDE0
  8
1
 10
268.2500001490116119
 20
368.0
 30
0.0
 11
277.7500001490116119
 21
368.0
 31
0.0
  0
LINE
  5
DDE1
  8
1
 10
273.0000001490116119
 20
336.75
 30
0.0
 11
273.0000001490116119
 21
327.25
 31
0.0
  0
LINE
  5
DDE2
  8
1
 10
268.2500001490116119
 20
332.0
 30
0.0
 11
277.7500001490116119
 21
332.0
 31
0.0
  0
LINE
  5
DDE3
  8
1
 10
253.8500001490114926
 20
356.0
 30
0.0
 11
294.1500001490117029
 21
356.0
 31
0.0
  0
LINE
  5
DDE4
  8
1
 10
260.0000001490114983
 20
362.1500002890825272
 30
0.0
 11
260.0000001490116119
 21
337.849999710917416
 31
0.0
  0
LINE
  5
DDE5
  8
1
 10
288.0000001490116119
 20
362.149999999999693
 30
0.0
 11
288.0000001490116119
 21
337.850000000000307
 31
0.0
  0
LINE
  5
DDE6
  8
1
 10
253.8500001490114073
 20
344.0
 30
0.0
 11
294.1500001490115892
 21
344.0
 31
0.0
  0
CIRCLE
  5
E450
  8
0
 10
89.9999999999999858
 20
220.0000000000001137
 30
0.0
 40
18.0000000000000604
  0
CIRCLE
  5
E45E
  8
0
 10
215.0
 20
90.0
 30
0.0
 40
17.0000000000000213
  0
CIRCLE
  5
E45F
  8
0
 10
215.0
 20
90.0
 30
0.0
 40
14.9999999999999698
  0
CIRCLE
  5
E460
  8
0
 10
215.0
 20
350.0
 30
0.0
 40
17.0000000000000391
  0
CIRCLE
  5
E461
  8
0
 10
215.0
 20
350.0
 30
0.0
 40
14.9999999999999698
  0
ENDSEC
  0
EOF
