  0
SECTION
  2
HEADER
  9
$ACADVER
  1
AC1009
  9
$INSBASE
 10
0.0
 20
0.0
 30
0.0
  9
$EXTMIN
 10
0.0
 20
-2.960436562073669
 30
0.0
  9
$EXTMAX
 10
76.0709413369713587
 20
74.0000002384499567
 30
0.0
  9
$LIMMIN
 10
0.0
 20
0.0
  9
$LIMMAX
 10
375.0
 20
270.0
  9
$ORTHOMODE
 70
     0
  9
$REGENMODE
 70
     1
  9
$FILLMODE
 70
     1
  9
$QTEXTMODE
 70
     0
  9
$MIRRTEXT
 70
     0
  9
$DRAGMODE
 70
     2
  9
$LTSCALE
 40
10.0
  9
$OSMODE
 70
    37
  9
$ATTMODE
 70
     1
  9
$TEXTSIZE
 40
4.000000000000048
  9
$TRACEWID
 40
0.05
  9
$TEXTSTYLE
  7
STANDARD
  9
$CLAYER
  8
0
  9
$CELTYPE
  6
BYLAYER
  9
$CECOLOR
 62
   256
  9
$DIMSCALE
 40
1.0
  9
$DIMASZ
 40
3.0
  9
$DIMEXO
 40
2.0
  9
$DIMDLI
 40
0.38
  9
$DIMRND
 40
0.0
  9
$DIMDLE
 40
0.0
  9
$DIMEXE
 40
2.0
  9
$DIMTP
 40
0.0
  9
$DIMTM
 40
0.0
  9
$DIMTXT
 40
3.2000000000000002
  9
$DIMCEN
 40
0.0
  9
$DIMTSZ
 40
0.0
  9
$DIMTOL
 70
     0
  9
$DIMLIM
 70
     0
  9
$DIMTIH
 70
     0
  9
$DIMTOH
 70
     0
  9
$DIMSE1
 70
     0
  9
$DIMSE2
 70
     0
  9
$DIMTAD
 70
     1
  9
$DIMZIN
 70
     0
  9
$DIMBLK
  1

  9
$DIMASO
 70
     0
  9
$DIMSHO
 70
     0
  9
$DIMPOST
  1

  9
$DIMAPOST
  1

  9
$DIMALT
 70
     0
  9
$DIMALTD
 70
     2
  9
$DIMALTF
 40
25.3999999999999986
  9
$DIMLFAC
 40
1.0
  9
$DIMTOFL
 70
     0
  9
$DIMTVP
 40
1.6000000000000001
  9
$DIMTIX
 70
     1
  9
$DIMSOXD
 70
     0
  9
$DIMSAH
 70
     0
  9
$DIMBLK1
  1

  9
$DIMBLK2
  1

  9
$DIMSTYLE
  2
STANDARD
  9
$DIMCLRD
 70
     4
  9
$DIMCLRE
 70
     4
  9
$DIMCLRT
 70
     4
  9
$DIMTFAC
 40
1.0
  9
$DIMGAP
 40
0.09
  9
$LUNITS
 70
     2
  9
$LUPREC
 70
     2
  9
$SKETCHINC
 40
0.1
  9
$FILLETRAD
 40
22.0
  9
$AUNITS
 70
     0
  9
$AUPREC
 70
     0
  9
$MENU
  1
E:\r13\win\SUPPORT\ACAD
  9
$ELEVATION
 40
0.0
  9
$PELEVATION
 40
0.0
  9
$THICKNESS
 40
0.0
  9
$LIMCHECK
 70
     0
  9
$BLIPMODE
 70
     0
  9
$CHAMFERA
 40
1.1999999999999991
  9
$CHAMFERB
 40
1.1999999999999991
  9
$SKPOLY
 70
     0
  9
$TDCREATE
 40
2449954.6020138887688518
  9
$TDUPDATE
 40
2460376.4502083328552544
  9
$TDINDWG
 40
0.4263760995
  9
$TDUSRTIMER
 40
0.4263760995
  9
$USRTIMER
 70
     1
  9
$ANGBASE
 50
0.0
  9
$ANGDIR
 70
     0
  9
$PDMODE
 70
     0
  9
$PDSIZE
 40
0.0
  9
$PLINEWID
 40
0.0
  9
$COORDS
 70
     1
  9
$SPLFRAME
 70
     0
  9
$SPLINETYPE
 70
     6
  9
$SPLINESEGS
 70
     8
  9
$ATTDIA
 70
     1
  9
$ATTREQ
 70
     1
  9
$HANDLING
 70
     1
  9
$HANDSEED
  5
3834
  9
$SURFTAB1
 70
     6
  9
$SURFTAB2
 70
     6
  9
$SURFTYPE
 70
     6
  9
$SURFU
 70
     6
  9
$SURFV
 70
     6
  9
$UCSNAME
  2

  9
$UCSORG
 10
0.0
 20
0.0
 30
0.0
  9
$UCSXDIR
 10
1.0
 20
0.0
 30
0.0
  9
$UCSYDIR
 10
0.0
 20
1.0
 30
0.0
  9
$PUCSNAME
  2

  9
$PUCSORG
 10
0.0
 20
0.0
 30
0.0
  9
$PUCSXDIR
 10
1.0
 20
0.0
 30
0.0
  9
$PUCSYDIR
 10
0.0
 20
1.0
 30
0.0
  9
$USERI1
 70
     0
  9
$USERI2
 70
     1
  9
$USERI3
 70
     0
  9
$USERI4
 70
     0
  9
$USERI5
 70
     0
  9
$USERR1
 40
0.0
  9
$USERR2
 40
0.0
  9
$USERR3
 40
0.0
  9
$USERR4
 40
0.0
  9
$USERR5
 40
0.0
  9
$WORLDVIEW
 70
     1
  9
$SHADEDGE
 70
     3
  9
$SHADEDIF
 70
    70
  9
$TILEMODE
 70
     1
  9
$MAXACTVP
 70
    16
  9
$PLIMCHECK
 70
     0
  9
$PEXTMIN
 10
1.0000000000000000E+20
 20
1.0000000000000000E+20
 30
1.0000000000000000E+20
  9
$PEXTMAX
 10
-1.0000000000000000E+20
 20
-1.0000000000000000E+20
 30
-1.0000000000000000E+20
  9
$PLIMMIN
 10
0.0
 20
0.0
  9
$PLIMMAX
 10
12.0
 20
9.0
  9
$UNITMODE
 70
     0
  9
$VISRETAIN
 70
     0
  9
$PLINEGEN
 70
     0
  9
$PSLTSCALE
 70
     0
  0
ENDSEC
  0
SECTION
  2
TABLES
  0
TABLE
  2
VPORT
 70
     1
  0
VPORT
  2
*ACTIVE
 70
     0
 10
0.0
 20
0.0
 11
1.0
 21
1.0
 12
93.9408866995073737
 22
40.0
 13
0.0
 23
0.0
 14
10.0
 24
10.0
 15
10.0
 25
10.0
 16
0.0
 26
0.0
 36
1.0
 17
0.0
 27
0.0
 37
0.0
 40
80.0
 41
2.3485221674876842
 42
50.0
 43
0.0
 44
0.0
 50
0.0
 51
0.0
 71
     0
 72
   500
 73
     1
 74
     0
 75
     0
 76
     0
 77
     0
 78
     2
  0
ENDTAB
  0
TABLE
  2
LTYPE
 70
     3
  0
LTYPE
  2
CONTINUOUS
 70
     0
  3
Solid Line
 72
    65
 73
     0
 40
0.0
  0
LTYPE
  2
CENTER
 70
     0
  3
____ _ ____ _ ____ _ ____ _ ____ _ ____ _ ____
 72
    65
 73
     4
 40
2.0
 49
1.25
 49
-0.25
 49
0.25
 49
-0.25
  0
LTYPE
  2
PHANTOM2
 70
     0
  3
___ _ _ ___ _ _ ___ _ _ ___ _ _
 72
    65
 73
     6
 40
1.25
 49
0.625
 49
-0.125
 49
0.125
 49
-0.125
 49
0.125
 49
-0.125
  0
ENDTAB
  0
TABLE
  2
LAYER
 70
     3
  0
LAYER
  2
0
 70
     0
 62
     7
  6
CONTINUOUS
  0
LAYER
  2
1
 70
     0
 62
     1
  6
CENTER
  0
LAYER
  2
DEFPOINTS
 70
     0
 62
     7
  6
CONTINUOUS
  0
ENDTAB
  0
TABLE
  2
STYLE
 70
     2
  0
STYLE
  2
STANDARD
 70
     0
 40
0.0
 41
1.0
 50
0.0
 71
     0
 42
4.000000000000048
  3
SIMPLEX
  4
BIGFONT
  0
STYLE
  2
STANDARD1
 70
     0
 40
0.0
 41
1.0
 50
0.0
 71
     0
 42
3.0
  3
txt
  4

  0
ENDTAB
  0
TABLE
  2
VIEW
 70
     1
  0
VIEW
  2
ALL
 70
     0
 40
270.0
 10
220.785953177257511
 20
135.0
 41
441.571906354515022
 11
0.0
 21
0.0
 31
1.0
 12
0.0
 22
0.0
 32
0.0
 42
50.0
 43
0.0
 44
0.0
 50
0.0
 71
     0
  0
ENDTAB
  0
TABLE
  2
UCS
 70
     0
  0
ENDTAB
  0
TABLE
  2
APPID
 70
    13
  0
APPID
  2
ACAD
 70
     0
  0
APPID
  2
ACAD_EXEMPT_FROM_CAD_STANDARDS
 70
     0
  0
APPID
  2
ACAD_MLEADERVER
 70
     0
  0
APPID
  2
ACAD_NAV_VCDISPLAY
 70
     0
  0
APPID
  2
ACAD_PSEXT
 70
     0
  0
APPID
  2
ACAD_DSTYLE_DIMJAG
 70
     0
  0
APPID
  2
ACAD_DSTYLE_DIMTALN
 70
     0
  0
APPID
  2
ACAD_DSTYLE_DIMBREAK
 70
     0
  0
APPID
  2
ACAECLAYERSTANDARD
 70
     0
  0
APPID
  2
ACCMTRANSPARENCY
 70
     0
  0
APPID
  2
GRADIENTCOLOR1ACI
 70
     0
  0
APPID
  2
GRADIENTCOLOR2ACI
 70
     0
  0
APPID
  2
ACAD_TC
 70
     0
  0
ENDTAB
  0
TABLE
  2
DIMSTYLE
 70
     1
  0
DIMSTYLE
  2
STANDARD
 70
     0
  3

  4

  5

  6

  7

 40
1.0
 41
0.18
 42
0.0625
 43
0.38
 44
0.18
 45
0.0
 46
0.0
 47
0.0
 48
0.0
140
0.18
141
0.09
142
0.0
143
25.3999999999999986
144
1.0
145
0.0
146
1.0
147
0.09
 71
     0
 72
     0
 73
     1
 74
     1
 75
     0
 76
     0
 77
     0
 78
     0
170
     0
171
     2
172
     0
173
     0
174
     0
175
     0
176
     0
177
     0
178
     0
  0
ENDTAB
  0
ENDSEC
  0
SECTION
  2
BLOCKS
  0
BLOCK
  8
0
  2
$MODEL_SPACE
 70
     0
 10
0.0
 20
0.0
 30
0.0
  3
$MODEL_SPACE
  1

  0
ENDBLK
  5
1126
  8
0
  0
BLOCK
 67
     1
  8
0
  2
$PAPER_SPACE
 70
     0
 10
0.0
 20
0.0
 30
0.0
  3
$PAPER_SPACE
  1

  0
ENDBLK
  5
1124
 67
     1
  8
0
  0
ENDSEC
  0
SECTION
  2
ENTITIES
  0
TEXT
  5
1F1A
  8
0
 62
     3
 10
0.0
 20
0.0
 30
0.0
 40
10.0
  1
PSLC-M-SB
  7
STANDARD1
  0
LINE
  5
35CA
  8
0
 10
40.7499999999999716
 20
53.1999999999999602
 30
0.0
 11
44.2499999999999716
 21
53.2000000000000171
 31
0.0
  0
LINE
  5
35CF
  8
0
 10
40.7499999999999716
 20
52.4999999999999716
 30
0.0
 11
44.2499999999999716
 21
52.4999999999999716
 31
0.0
  0
LINE
  5
35D3
  8
0
 10
25.7499999999998614
 20
53.2000000000000171
 30
0.0
 11
29.2499999999998614
 21
53.2000000000000668
 31
0.0
  0
LINE
  5
35D9
  8
0
 10
25.7499999999998614
 20
52.4999999999999716
 30
0.0
 11
29.2499999999998614
 21
52.5000000000000284
 31
0.0
  0
LINE
  5
35F2
  8
0
 10
54.7500002272499486
 20
57.9999999999999432
 30
0.0
 11
54.2500002272499486
 21
57.9999999999999432
 31
0.0
  0
LINE
  5
35F7
  8
0
 10
57.2500002272498421
 20
40.4999999999999929
 30
0.0
 11
57.7500002272499486
 21
40.4999999999999929
 31
0.0
  0
ARC
  5
3719
  8
0
 10
28.7499999999999716
 20
58.0
 30
0.0
 40
0.5000000000000071
 50
0.0
 51
90.0
  0
LINE
  5
371A
  8
0
 10
29.2499999888500213
 20
57.9999992251500203
 30
0.0
 11
29.2499999888500213
 21
52.5000001863000421
 31
0.0
  0
LINE
  5
371B
  8
0
 10
25.7499998808000008
 20
52.5000001863000421
 30
0.0
 11
25.7499998808000008
 21
57.9999992251500203
 31
0.0
  0
ARC
  5
371C
  8
0
 10
26.2499999999999716
 20
58.0
 30
0.0
 40
0.5000000000000071
 50
90.0
 51
180.0
  0
LINE
  5
371D
  8
0
 10
26.2499999627500316
 20
58.5000002384500206
 30
0.0
 11
28.7499999069000012
 21
58.5000002384500206
 31
0.0
  0
ARC
  5
371F
  8
0
 10
43.7499999999999716
 20
58.0
 30
0.0
 40
0.5000000000000071
 50
0.0
 51
90.0
  0
LINE
  5
3720
  8
0
 10
44.2500001192499468
 20
52.5000001863000421
 30
0.0
 11
44.2500001192499468
 21
57.9999992251500203
 31
0.0
  0
LINE
  5
3721
  8
0
 10
40.7500000112000507
 20
52.5000001863000421
 30
0.0
 11
40.7500000112000009
 21
57.9999992251500203
 31
0.0
  0
LINE
  5
3722
  8
0
 10
41.2500000931499571
 20
58.5000002384500206
 30
0.0
 11
43.7500000372499827
 21
58.5000002384500206
 31
0.0
  0
ARC
  5
3723
  8
0
 10
41.2499999999999716
 20
58.0
 30
0.0
 40
0.5000000000000071
 50
90.0
 51
180.0
  0
ARC
  5
3725
  8
0
 10
26.2499999999999716
 20
40.4999999999999929
 30
0.0
 40
0.5
 50
180.0
 51
270.0
  0
ARC
  5
3726
  8
0
 10
29.7499999999999716
 20
51.0
 30
0.0
 40
0.5000000000000071
 50
180.0
 51
270.0
  0
LINE
  5
3727
  8
0
 10
40.2499999292499808
 20
50.4999998584499892
 30
0.0
 11
29.750000070799981
 21
50.4999998584499892
 31
0.0
  0
ARC
  5
3728
  8
0
 10
40.2499999999999716
 20
51.0
 30
0.0
 40
0.5
 50
270.0
 51
0.0
  0
ARC
  5
3729
  8
0
 10
43.7499999999999716
 20
40.4999999999999929
 30
0.0
 40
0.5
 50
270.0
 51
0.0
  0
LINE
  5
372A
  8
0
 10
26.2499999627500316
 20
40.0
 30
0.0
 11
43.7500000372499827
 21
40.0
 31
0.0
  0
LINE
  5
372B
  8
1
 10
29.2499999999999716
 20
44.0
 30
0.0
 11
40.7499999999999716
 21
44.0
 31
0.0
  0
LINE
  5
372C
  8
0
 10
31.9999999999999716
 20
45.75
 30
0.0
 11
37.9999999999999716
 21
45.75
 31
0.0
  0
LINE
  5
372D
  8
0
 10
31.9999999999999716
 20
42.25
 30
0.0
 11
37.9999999999999716
 21
42.2500000000000497
 31
0.0
  0
LINE
  5
372E
  8
0
 10
44.2500001192499468
 20
40.5000000237499691
 30
0.0
 11
44.2500001192499468
 21
52.5000001862999781
 31
0.0
  0
LINE
  5
372F
  8
0
 10
40.7500000112000507
 20
52.5000001862999781
 30
0.0
 11
40.7500000112000009
 21
50.9999999404000093
 31
0.0
  0
LINE
  5
3730
  8
0
 10
29.2499999888500213
 20
50.9999999404000093
 30
0.0
 11
29.2499999888500213
 21
52.5000001862999781
 31
0.0
  0
LINE
  5
3731
  8
0
 10
25.7499998808000008
 20
40.5000000237499691
 30
0.0
 11
25.7499998808000008
 21
52.5000001862999781
 31
0.0
  0
LINE
  5
3732
  8
1
 10
34.9999999999999218
 20
38.0
 30
0.0
 11
34.9999999999999716
 21
60.5000002384500704
 31
0.0
  0
LINE
  5
3733
  8
1
 10
31.9999999999999716
 20
41.25
 30
0.0
 11
31.9999999999999716
 21
46.7499999999999929
 31
0.0
  0
LINE
  5
3734
  8
1
 10
37.9999999999999716
 20
41.25
 30
0.0
 11
37.9999999999999716
 21
46.7499999999999929
 31
0.0
  0
ARC
  5
3735
  8
0
 10
31.9999999999999716
 20
44.0
 30
0.0
 40
1.75
 50
90.0
 51
270.0
  0
ARC
  5
3736
  8
0
 10
37.9999999999999716
 20
44.0
 30
0.0
 40
1.75
 50
270.0
 51
90.0
  0
LINE
  5
3737
  8
0
 10
54.250000119249961
 20
58.5000002384500206
 30
0.0
 11
54.7500002011999172
 21
58.5000002384500206
 31
0.0
  0
ARC
  5
3738
  8
0
 10
57.0500002272499103
 20
52.3000000000000114
 30
0.0
 40
0.2000000000000028
 50
0.0
 51
90.0
  0
LINE
  5
3739
  8
0
 10
57.0500002521999079
 20
52.5000001862999781
 30
0.0
 11
54.9500003270999002
 21
52.5000001862999781
 31
0.0
  0
ARC
  5
373A
  8
0
 10
54.9500002272498875
 20
53.1999999999999886
 30
0.0
 40
0.700000000000003
 50
180.0
 51
270.0
  0
ARC
  5
373B
  8
0
 10
54.9500002272498875
 20
53.1999999999999886
 30
0.0
 40
0.2000000000000028
 50
180.0
 51
270.0
  0
LINE
  5
373C
  8
0
 10
57.0500002521999079
 20
53.0000002682499982
 30
0.0
 11
54.9500003270999002
 21
53.0000002682499982
 31
0.0
  0
ARC
  5
373D
  8
0
 10
57.0500002272499103
 20
52.3000000000000114
 30
0.0
 40
0.700000000000003
 50
0.0
 51
90.0
  0
LINE
  5
373E
  8
0
 10
57.7500002272499486
 20
40.0
 30
0.0
 11
57.7500002272499486
 21
52.2999995947000116
 31
0.0
  0
LINE
  5
373F
  8
0
 10
57.2500002034999227
 20
40.0
 30
0.0
 11
57.2500002034999227
 21
52.2999995947000116
 31
0.0
  0
LINE
  5
3740
  8
0
 10
54.7500002011999172
 20
53.1999999284999987
 30
0.0
 11
54.7500002011999172
 21
58.5000002384500206
 31
0.0
  0
LINE
  5
3741
  8
0
 10
54.250000119249961
 20
53.1999999284999987
 30
0.0
 11
54.250000119249961
 21
58.5000002384500206
 31
0.0
  0
LINE
  5
3742
  8
0
 10
57.7500002272499486
 20
40.0
 30
0.0
 11
57.2500002034999227
 21
40.0
 31
0.0
  0
LINE
  5
3777
  8
0
 10
26.2499999348250093
 20
69.0000002384500135
 30
0.0
 11
26.2499999348250093
 21
68.5000002384500135
 31
0.0
  0
LINE
  5
3778
  8
0
 10
26.2499999348250093
 20
68.5000002384500135
 30
0.0
 11
25.7499999348250199
 21
68.5000002384500135
 31
0.0
  0
LINE
  5
3779
  8
0
 10
25.7499999348250199
 20
68.5000002384500135
 30
0.0
 11
25.7499999348250199
 21
69.0000002384500135
 31
0.0
  0
LINE
  5
377A
  8
0
 10
25.7499999348250199
 20
69.0000002384500135
 30
0.0
 11
26.2499999348250093
 21
69.0000002384500135
 31
0.0
  0
LINE
  5
377B
  8
0
 10
28.7499999348250093
 20
68.5000002384500135
 30
0.0
 11
28.7499999348250093
 21
69.0000002384500135
 31
0.0
  0
LINE
  5
377C
  8
0
 10
26.2499999348250093
 20
68.5000002384500135
 30
0.0
 11
28.7499999348250093
 21
68.5000002384500135
 31
0.0
  0
LINE
  5
377D
  8
0
 10
26.2499999348250093
 20
69.0000002384500135
 30
0.0
 11
28.7499999348250093
 21
69.0000002384500135
 31
0.0
  0
LINE
  5
377E
  8
0
 10
41.2499999348251265
 20
69.0000002384500135
 30
0.0
 11
41.2499999348251265
 21
68.5000002384500135
 31
0.0
  0
LINE
  5
377F
  8
0
 10
41.2499999348251265
 20
68.5000002384500135
 30
0.0
 11
40.7499999348250128
 21
68.5000002384500135
 31
0.0
  0
LINE
  5
3780
  8
0
 10
40.7499999348250128
 20
68.5000002384500135
 30
0.0
 11
40.7499999348250128
 21
69.0000002384500135
 31
0.0
  0
LINE
  5
3781
  8
0
 10
40.7499999348250128
 20
69.0000002384500135
 30
0.0
 11
41.2499999348251265
 21
69.0000002384500135
 31
0.0
  0
LINE
  5
3782
  8
0
 10
43.7499999348250128
 20
68.5000002384500135
 30
0.0
 11
43.7499999348250128
 21
69.0000002384500135
 31
0.0
  0
LINE
  5
3783
  8
0
 10
41.2499999348251265
 20
68.5000002384500135
 30
0.0
 11
43.7499999348250128
 21
68.5000002384500135
 31
0.0
  0
LINE
  5
3784
  8
0
 10
41.2499999348251265
 20
69.0000002384500135
 30
0.0
 11
43.7499999348250128
 21
69.0000002384500135
 31
0.0
  0
LINE
  5
3785
  8
0
 10
29.2499999348250093
 20
69.0000002384500135
 30
0.0
 11
29.2499999348250093
 21
68.5000002384500135
 31
0.0
  0
LINE
  5
3786
  8
0
 10
29.2499999348250093
 20
68.5000002384500135
 30
0.0
 11
28.7499999348250093
 21
68.5000002384500135
 31
0.0
  0
LINE
  5
3787
  8
0
 10
28.7499999348250093
 20
69.0000002384500135
 30
0.0
 11
29.2499999348250093
 21
69.0000002384500135
 31
0.0
  0
LINE
  5
3788
  8
0
 10
44.2499999348251194
 20
69.0000002384500135
 30
0.0
 11
44.2499999348251194
 21
68.5000002384500135
 31
0.0
  0
LINE
  5
3789
  8
0
 10
44.2499999348251194
 20
68.5000002384500135
 30
0.0
 11
43.7499999348250128
 21
68.5000002384500135
 31
0.0
  0
LINE
  5
378A
  8
0
 10
43.7499999348250128
 20
69.0000002384500135
 30
0.0
 11
44.2499999348251194
 21
69.0000002384500135
 31
0.0
  0
LINE
  5
378C
  8
0
 10
29.2499999348250093
 20
69.2000002384500021
 30
0.0
 11
29.2499999348250093
 21
69.0000002384500135
 31
0.0
  0
LINE
  5
378D
  8
0
 10
25.7499999348250199
 20
69.2000002384500021
 30
0.0
 11
25.7499999348250199
 21
69.0000002384500135
 31
0.0
  0
LINE
  5
378F
  8
0
 10
44.2499999348251194
 20
69.2000002384500021
 30
0.0
 11
44.2499999348251194
 21
69.0000002384500135
 31
0.0
  0
LINE
  5
3790
  8
0
 10
40.7499999348251265
 20
69.0000002384500135
 30
0.0
 11
40.7499999348251265
 21
69.2000002384500021
 31
0.0
  0
LINE
  5
3791
  8
0
 10
25.7499999348250199
 20
71.3000002384499538
 30
0.0
 11
29.2499999348250093
 21
71.3000002384499538
 31
0.0
  0
LINE
  5
3792
  8
0
 10
29.2499999348250093
 20
71.3000002384499538
 30
0.0
 11
29.2499999348250093
 21
69.2000002384500021
 31
0.0
  0
LINE
  5
3793
  8
0
 10
25.7499999348250199
 20
71.3000002384499538
 30
0.0
 11
25.7499999348250199
 21
69.2000002384500021
 31
0.0
  0
LINE
  5
3794
  8
0
 10
25.7499999348250199
 20
72.0000002384500135
 30
0.0
 11
29.2499999348250093
 21
72.0000002384499567
 31
0.0
  0
LINE
  5
3795
  8
0
 10
29.2499999348250093
 20
72.0000002384499567
 30
0.0
 11
29.2499999348250093
 21
71.3000002384499538
 31
0.0
  0
LINE
  5
3796
  8
0
 10
25.7499999348250199
 20
72.0000002384500135
 30
0.0
 11
25.7499999348250199
 21
71.3000002384499538
 31
0.0
  0
LINE
  5
3797
  8
0
 10
40.7499999348251265
 20
72.0000002384499567
 30
0.0
 11
44.2499999348251194
 21
72.0000002384499567
 31
0.0
  0
LINE
  5
3798
  8
0
 10
40.7499999348251265
 20
71.3000002384499538
 30
0.0
 11
44.2499999348251194
 21
71.3000002384499538
 31
0.0
  0
LINE
  5
3799
  8
0
 10
44.2499999348251194
 20
72.0000002384499567
 30
0.0
 11
44.2499999348251194
 21
71.3000002384499538
 31
0.0
  0
LINE
  5
379A
  8
0
 10
40.7499999348251265
 20
71.3000002384499538
 30
0.0
 11
40.7499999348251265
 21
72.0000002384499567
 31
0.0
  0
LINE
  5
379B
  8
0
 10
44.2499999348251194
 20
71.3000002384499538
 30
0.0
 11
44.2499999348251194
 21
69.2000002384500021
 31
0.0
  0
LINE
  5
379C
  8
0
 10
40.7499999348251265
 20
69.2000002384500021
 30
0.0
 11
40.7499999348251265
 21
71.3000002384499538
 31
0.0
  0
LINE
  5
379D
  8
0
 10
29.7499999348250093
 20
72.0000002384499567
 30
0.0
 11
29.7499999348250093
 21
71.5000002384499567
 31
0.0
  0
LINE
  5
379E
  8
0
 10
29.7499999348250093
 20
71.5000002384499567
 30
0.0
 11
29.2499999348250093
 21
71.5000002384499567
 31
0.0
  0
LINE
  5
379F
  8
0
 10
29.2499999348250093
 20
72.0000002384499567
 30
0.0
 11
29.7499999348250093
 21
72.0000002384499567
 31
0.0
  0
LINE
  5
37A0
  8
0
 10
40.2499999348251194
 20
71.5000002384499567
 30
0.0
 11
40.2499999348251194
 21
72.0000002384499567
 31
0.0
  0
LINE
  5
37A1
  8
0
 10
40.7499999348250128
 20
71.5000002384499567
 30
0.0
 11
40.2499999348251194
 21
71.5000002384499567
 31
0.0
  0
LINE
  5
37A2
  8
0
 10
40.2499999348251194
 20
72.0000002384499567
 30
0.0
 11
40.7499999348250128
 21
72.0000002384499567
 31
0.0
  0
LINE
  5
37A3
  8
0
 10
40.2499999348251194
 20
71.5000002384499567
 30
0.0
 11
29.7499999348250093
 21
71.5000002384499567
 31
0.0
  0
LINE
  5
37A4
  8
0
 10
29.7499999348250093
 20
72.0000002384499567
 30
0.0
 11
40.2499999348251194
 21
72.0000002384499567
 31
0.0
  0
LINE
  5
37C0
  8
1
 10
34.9999999999999503
 20
66.5000002384500135
 30
0.0
 11
35.0000000000000213
 21
74.0000002384499567
 31
0.0
  0
ENDSEC
  0
EOF
