  0
SECTION
  2
HEADER
  9
$ACADVER
  1
AC1009
  9
$INSBASE
 10
0.0
 20
0.0
 30
0.0
  9
$EXTMIN
 10
0.0
 20
-2.960436562073669
 30
0.0
  9
$EXTMAX
 10
148.94143391424001
 20
126.89082231529891
 30
0.0
  9
$LIMMIN
 10
0.0
 20
0.0
  9
$LIMMAX
 10
375.0
 20
270.0
  9
$ORTHOMODE
 70
     0
  9
$REGENMODE
 70
     1
  9
$FILLMODE
 70
     1
  9
$QTEXTMODE
 70
     0
  9
$MIRRTEXT
 70
     0
  9
$DRAGMODE
 70
     2
  9
$LTSCALE
 40
10.0
  9
$OSMODE
 70
  3071
  9
$ATTMODE
 70
     1
  9
$TEXTSIZE
 40
2.0
  9
$TRACEWID
 40
0.05
  9
$TEXTSTYLE
  7
STANDARD
  9
$CLAYER
  8
0
  9
$CELTYPE
  6
BYLAYER
  9
$CECOLOR
 62
   256
  9
$DIMSCALE
 40
1.0
  9
$DIMASZ
 40
2.5
  9
$DIMEXO
 40
2.0
  9
$DIMDLI
 40
0.38
  9
$DIMRND
 40
0.0
  9
$DIMDLE
 40
0.0
  9
$DIMEXE
 40
2.0
  9
$DIMTP
 40
0.0
  9
$DIMTM
 40
0.0
  9
$DIMTXT
 40
3.0
  9
$DIMCEN
 40
0.09
  9
$DIMTSZ
 40
0.0
  9
$DIMTOL
 70
     0
  9
$DIMLIM
 70
     0
  9
$DIMTIH
 70
     0
  9
$DIMTOH
 70
     0
  9
$DIMSE1
 70
     0
  9
$DIMSE2
 70
     0
  9
$DIMTAD
 70
     1
  9
$DIMZIN
 70
     0
  9
$DIMBLK
  1

  9
$DIMASO
 70
     1
  9
$DIMSHO
 70
     0
  9
$DIMPOST
  1

  9
$DIMAPOST
  1

  9
$DIMALT
 70
     0
  9
$DIMALTD
 70
     2
  9
$DIMALTF
 40
25.399999999999999
  9
$DIMLFAC
 40
1.0
  9
$DIMTOFL
 70
     0
  9
$DIMTVP
 40
1.6000000000000001
  9
$DIMTIX
 70
     1
  9
$DIMSOXD
 70
     0
  9
$DIMSAH
 70
     0
  9
$DIMBLK1
  1

  9
$DIMBLK2
  1

  9
$DIMSTYLE
  2
STANDARD
  9
$DIMCLRD
 70
     0
  9
$DIMCLRE
 70
     0
  9
$DIMCLRT
 70
     0
  9
$DIMTFAC
 40
1.0
  9
$DIMGAP
 40
0.09
  9
$LUNITS
 70
     2
  9
$LUPREC
 70
     4
  9
$SKETCHINC
 40
0.1
  9
$FILLETRAD
 40
2.5
  9
$AUNITS
 70
     0
  9
$AUPREC
 70
     0
  9
$MENU
  1
E:\r13\win\SUPPORT\ACAD
  9
$ELEVATION
 40
0.0
  9
$PELEVATION
 40
0.0
  9
$THICKNESS
 40
0.0
  9
$LIMCHECK
 70
     0
  9
$BLIPMODE
 70
     0
  9
$CHAMFERA
 40
0.0
  9
$CHAMFERB
 40
0.0
  9
$SKPOLY
 70
     0
  9
$TDCREATE
 40
2448650.5678784722
  9
$TDUPDATE
 40
2456597.728075197
  9
$TDINDWG
 40
0.0244551852
  9
$TDUSRTIMER
 40
0.0244551852
  9
$USRTIMER
 70
     1
  9
$ANGBASE
 50
0.0
  9
$ANGDIR
 70
     0
  9
$PDMODE
 70
     0
  9
$PDSIZE
 40
0.0
  9
$PLINEWID
 40
0.0
  9
$COORDS
 70
     1
  9
$SPLFRAME
 70
     0
  9
$SPLINETYPE
 70
     6
  9
$SPLINESEGS
 70
     8
  9
$ATTDIA
 70
     0
  9
$ATTREQ
 70
     1
  9
$HANDLING
 70
     1
  9
$HANDSEED
  5
1267
  9
$SURFTAB1
 70
     6
  9
$SURFTAB2
 70
     6
  9
$SURFTYPE
 70
     6
  9
$SURFU
 70
     6
  9
$SURFV
 70
     6
  9
$UCSNAME
  2

  9
$UCSORG
 10
0.0
 20
0.0
 30
0.0
  9
$UCSXDIR
 10
1.0
 20
0.0
 30
0.0
  9
$UCSYDIR
 10
0.0
 20
1.0
 30
0.0
  9
$PUCSNAME
  2

  9
$PUCSORG
 10
0.0
 20
0.0
 30
0.0
  9
$PUCSXDIR
 10
1.0
 20
0.0
 30
0.0
  9
$PUCSYDIR
 10
0.0
 20
1.0
 30
0.0
  9
$USERI1
 70
     0
  9
$USERI2
 70
     1
  9
$USERI3
 70
     1
  9
$USERI4
 70
     0
  9
$USERI5
 70
     0
  9
$USERR1
 40
0.0
  9
$USERR2
 40
0.0
  9
$USERR3
 40
0.0
  9
$USERR4
 40
0.0
  9
$USERR5
 40
0.0
  9
$WORLDVIEW
 70
     1
  9
$SHADEDGE
 70
     3
  9
$SHADEDIF
 70
    70
  9
$TILEMODE
 70
     1
  9
$MAXACTVP
 70
    16
  9
$PLIMCHECK
 70
     0
  9
$PEXTMIN
 10
1.0000000000000000E+020
 20
1.0000000000000000E+020
 30
1.0000000000000000E+020
  9
$PEXTMAX
 10
-1.0000000000000000E+020
 20
-1.0000000000000000E+020
 30
-1.0000000000000000E+020
  9
$PLIMMIN
 10
0.0
 20
0.0
  9
$PLIMMAX
 10
12.0
 20
9.0
  9
$UNITMODE
 70
     0
  9
$VISRETAIN
 70
     0
  9
$PLINEGEN
 70
     1
  9
$PSLTSCALE
 70
     0
  0
ENDSEC
  0
SECTION
  2
TABLES
  0
TABLE
  2
VPORT
 70
     1
  0
VPORT
  2
*ACTIVE
 70
     0
 10
0.0
 20
0.0
 11
1.0
 21
1.0
 12
187.4942783906524
 22
149.37525922376949
 13
0.0
 23
0.0
 14
10.0
 24
10.0
 15
10.0
 25
10.0
 16
0.0
 26
0.0
 36
1.0
 17
0.0
 27
0.0
 37
0.0
 40
308.52635987286669
 41
2.304913294797688
 42
50.0
 43
0.0
 44
0.0
 50
0.0
 51
0.0
 71
     0
 72
   500
 73
     1
 74
     0
 75
     0
 76
     0
 77
     0
 78
     2
  0
ENDTAB
  0
TABLE
  2
LTYPE
 70
     3
  0
LTYPE
  2
CONTINUOUS
 70
     0
  3
Solid Line
 72
    65
 73
     0
 40
0.0
  0
LTYPE
  2
CENTER
 70
     0
  3
____ _ ____ _ ____ _ ____ _ ____ _ ____ _ ____
 72
    65
 73
     4
 40
2.0
 49
1.25
 49
-0.25
 49
0.25
 49
-0.25
  0
LTYPE
  2
PHANTOM2
 70
     0
  3
___ _ _ ___ _ _ ___ _ _ ___ _ _
 72
    65
 73
     6
 40
1.25
 49
0.625
 49
-0.125
 49
0.125
 49
-0.125
 49
0.125
 49
-0.125
  0
ENDTAB
  0
TABLE
  2
LAYER
 70
     3
  0
LAYER
  2
0
 70
     0
 62
     7
  6
CONTINUOUS
  0
LAYER
  2
1
 70
     0
 62
     1
  6
CENTER
  0
LAYER
  2
3
 70
     0
 62
     3
  6
CONTINUOUS
  0
ENDTAB
  0
TABLE
  2
STYLE
 70
     2
  0
STYLE
  2
STANDARD
 70
     0
 40
0.0
 41
1.0
 50
0.0
 71
     0
 42
2.0
  3
TXT
  4
BIGFONT
  0
STYLE
  2
STANDARD1
 70
     0
 40
0.0
 41
1.0
 50
0.0
 71
     0
 42
3.0
  3
txt
  4

  0
ENDTAB
  0
TABLE
  2
VIEW
 70
     1
  0
VIEW
  2
ALL
 70
     0
 40
270.0
 10
220.99159663865549
 20
135.0
 41
0.0
 11
0.0
 21
0.0
 31
1.0
 12
0.0
 22
0.0
 32
0.0
 42
0.0
 43
0.0
 44
0.0
 50
0.0
 71
     0
  0
ENDTAB
  0
TABLE
  2
UCS
 70
     0
  0
ENDTAB
  0
TABLE
  2
APPID
 70
     3
  0
APPID
  2
ACAD
 70
     0
  0
APPID
  2
ACAD_MLEADERVER
 70
     0
  0
APPID
  2
ACAD_NAV_VCDISPLAY
 70
     0
  0
ENDTAB
  0
TABLE
  2
DIMSTYLE
 70
     1
  0
DIMSTYLE
  2
STANDARD
 70
     0
  3

  4

  5

  6

  7

 40
1.0
 41
0.18
 42
0.0625
 43
0.38
 44
0.18
 45
0.0
 46
0.0
 47
0.0
 48
0.0
140
0.18
141
0.09
142
0.0
143
25.399999999999999
144
1.0
145
0.0
146
1.0
147
0.09
 71
     0
 72
     0
 73
     1
 74
     1
 75
     0
 76
     0
 77
     0
 78
     0
170
     0
171
     2
172
     0
173
     0
174
     0
175
     0
176
     0
177
     0
178
     0
  0
ENDTAB
  0
ENDSEC
  0
SECTION
  2
BLOCKS
  0
BLOCK
  8
0
  2
$MODEL_SPACE
 70
     0
 10
0.0
 20
0.0
 30
0.0
  3
$MODEL_SPACE
  1

  0
ENDBLK
  5
217
  8
0
  0
BLOCK
 67
     1
  8
0
  2
$PAPER_SPACE
 70
     0
 10
0.0
 20
0.0
 30
0.0
  3
$PAPER_SPACE
  1

  0
ENDBLK
  5
215
 67
     1
  8
0
  0
ENDSEC
  0
SECTION
  2
ENTITIES
  0
CIRCLE
  5
E7B
  8
0
 10
135.44143391424001
 20
113.39082231529891
 30
0.0
 40
10.74999999999998
  0
ARC
  5
E7C
  8
0
 10
107.52729807130081
 20
58.640822315299062
 30
0.0
 40
21.014344247227651
 50
166.9361891275349
 51
193.06381087246569
  0
LINE
  5
E7D
  8
0
 10
87.056827531008139
 20
63.390822315298927
 30
0.0
 11
90.141433914240125
 21
63.390822315298927
 31
0.0
  0
ARC
  5
E7E
  8
0
 10
107.52729807130081
 20
68.140822315298806
 30
0.0
 40
21.014344247227651
 50
166.93618912753419
 51
193.0638108724651
  0
LINE
  5
E7F
  8
0
 10
86.512953826702244
 20
53.890822315298941
 30
0.0
 11
90.141433914240125
 21
53.890822315298941
 31
0.0
  0
LINE
  5
E80
  8
0
 10
86.512953826702244
 20
72.890822315298948
 30
0.0
 11
90.141433914240125
 21
72.890822315298948
 31
0.0
  0
LINE
  5
E81
  8
0
 10
93.441433914240164
 20
74.140822315298934
 30
0.0
 11
93.441433914240164
 21
52.640822315298941
 31
0.0
  0
ARC
  5
E82
  8
0
 10
114.44143391424009
 20
63.390822315298962
 30
0.0
 40
29.5
 50
161.2140288834907
 51
198.7859711165095
  0
LINE
  5
E83
  8
0
 10
99.441433914240065
 20
55.915822315298911
 30
0.0
 11
99.441433914240065
 21
70.865822315298956
 31
0.0
  0
LINE
  5
E84
  8
0
 10
91.941433914240065
 20
52.390822315298927
 30
0.0
 11
91.941433914240065
 21
74.390822315298934
 31
0.0
  0
LINE
  5
E85
  8
0
 10
90.141433914240125
 20
52.390822315298927
 30
0.0
 11
90.141433914240125
 21
74.390822315298934
 31
0.0
  0
LINE
  5
E86
  8
0
 10
98.441433914240065
 20
55.059822315298909
 30
0.0
 11
98.441433914240065
 21
71.721822315298951
 31
0.0
  0
LINE
  5
E87
  8
1
 10
82.441433914240122
 20
63.390822315298927
 30
0.0
 11
101.94143391424009
 21
63.390822315298948
 31
0.0
  0
LINE
  5
E88
  8
3
 10
93.441433914240164
 20
55.915822315298911
 30
0.0
 11
98.441433914240193
 21
55.915822315298911
 31
0.0
  0
LINE
  5
E89
  8
0
 10
93.441433914240164
 20
55.059822315298909
 30
0.0
 11
98.441433914240065
 21
55.059822315298909
 31
0.0
  0
LINE
  5
E8A
  8
0
 10
98.441433914240193
 20
55.915822315298911
 30
0.0
 11
99.441433914240065
 21
55.915822315298911
 31
0.0
  0
LINE
  5
E8B
  8
0
 10
93.441433914240164
 20
52.640822315298941
 30
0.0
 11
91.941433914240179
 21
52.640822315298941
 31
0.0
  0
LINE
  5
E8C
  8
0
 10
90.141433914240125
 20
52.390822315298927
 30
0.0
 11
91.941433914240065
 21
52.390822315298927
 31
0.0
  0
LINE
  5
E8D
  8
0
 10
93.441433914240164
 20
71.721822315298951
 30
0.0
 11
98.441433914240065
 21
71.721822315298951
 31
0.0
  0
LINE
  5
E8E
  8
3
 10
93.441433914240164
 20
70.865822315298956
 30
0.0
 11
98.441433914240065
 21
70.865822315298956
 31
0.0
  0
LINE
  5
E8F
  8
0
 10
98.441433914240065
 20
70.865822315298956
 30
0.0
 11
99.441433914240065
 21
70.865822315298956
 31
0.0
  0
LINE
  5
E90
  8
0
 10
93.441433914240164
 20
74.140822315298934
 30
0.0
 11
91.941433914240179
 21
74.140822315298934
 31
0.0
  0
LINE
  5
E91
  8
0
 10
90.141433914240125
 20
74.390822315298934
 30
0.0
 11
91.941433914240065
 21
74.390822315298934
 31
0.0
  0
CIRCLE
  5
E92
  8
0
 10
135.44143391424001
 20
113.39082231529891
 30
0.0
 40
6.6500000000000004
  0
CIRCLE
  5
E93
  8
3
 10
135.44143391424001
 20
113.39082231529891
 30
0.0
 40
7.4750000000000076
  0
CIRCLE
  5
E94
  8
0
 10
135.44143391424001
 20
113.39082231529891
 30
0.0
 40
8.3310000000000031
  0
CIRCLE
  5
E95
  8
0
 10
135.44143391424001
 20
113.39082231529891
 30
0.0
 40
5.5
  0
LINE
  5
E96
  8
3
 10
135.44143391424001
 20
118.89082231529891
 30
0.0
 11
135.44143391424001
 21
107.89082231529891
 31
0.0
  0
LINE
  5
E97
  8
3
 10
129.94143391424001
 20
113.39082231529891
 30
0.0
 11
140.94143391424001
 21
113.39082231529891
 31
0.0
  0
CIRCLE
  5
E98
  8
0
 10
135.44143391424001
 20
113.39082231529891
 30
0.0
 40
11.0
  0
LINE
  5
E99
  8
3
 10
139.8184409717401
 20
110.0603855243366
 30
0.0
 11
139.8184409717401
 21
116.7212591062611
 31
0.0
  0
LINE
  5
E9A
  8
3
 10
140.844817270394
 20
114.41719861395281
 30
0.0
 11
134.41505761558611
 21
107.9874389591449
 31
0.0
  0
LINE
  5
E9B
  8
3
 10
140.93047898096091
 20
113.04385797201979
 30
0.0
 11
135.78839825751919
 21
107.901777248578
 31
0.0
  0
LINE
  5
E9C
  8
3
 10
132.52342920923999
 20
108.7287145793496
 30
0.0
 11
132.52342920923999
 21
118.0529300512481
 31
0.0
  0
LINE
  5
E9D
  8
3
 10
138.35943861924
 20
108.7287145793496
 30
0.0
 11
138.35943861924
 21
118.0529300512481
 31
0.0
  0
LINE
  5
E9E
  8
3
 10
137.7396063132675
 20
108.3939829518264
 30
0.0
 11
140.43827327771251
 21
111.0926499162714
 31
0.0
  0
LINE
  5
E9F
  8
3
 10
131.06442685674
 20
110.0603855243366
 30
0.0
 11
131.06442685674011
 21
116.7212591062612
 31
0.0
  0
LINE
  5
EA0
  8
3
 10
132.11099712327771
 20
117.7678293727989
 30
0.0
 11
138.77187070520219
 21
117.7678293727989
 31
0.0
  0
LINE
  5
EA1
  8
3
 10
130.7793261782908
 20
116.30882702029891
 30
0.0
 11
140.10354165018919
 21
116.30882702029891
 31
0.0
  0
LINE
  5
EA2
  8
3
 10
130.13848076194839
 20
114.8498246677989
 30
0.0
 11
140.7443870665316
 21
114.8498246677989
 31
0.0
  0
LINE
  5
EA3
  8
3
 10
129.94143391424001
 20
113.39082231529891
 30
0.0
 11
140.94143391424001
 21
113.39082231529881
 31
0.0
  0
LINE
  5
EA4
  8
3
 10
130.13848076194839
 20
111.9318199627989
 30
0.0
 11
140.74438706653169
 21
111.9318199627989
 31
0.0
  0
LINE
  5
EA5
  8
3
 10
130.7793261782908
 20
110.4728176102989
 30
0.0
 11
140.1035416501893
 21
110.4728176102989
 31
0.0
  0
LINE
  5
EA6
  8
3
 10
132.11099712327771
 20
109.0138152577989
 30
0.0
 11
138.77187070520239
 21
109.0138152577989
 31
0.0
  0
LINE
  5
EA7
  8
3
 10
130.8918767130279
 20
116.48137716401111
 30
0.0
 11
138.53198876295221
 21
108.8412651140867
 31
0.0
  0
LINE
  5
EA8
  8
3
 10
139.33052121076611
 20
109.50173501877291
 30
0.0
 11
131.55234661771399
 21
117.27990961182491
 31
0.0
  0
LINE
  5
EA9
  8
3
 10
132.35087906552781
 20
117.9403795165111
 30
0.0
 11
139.9909911154522
 21
110.3002674665868
 31
0.0
  0
LINE
  5
EAA
  8
3
 10
140.50547609112471
 20
111.24478484341419
 30
0.0
 11
133.29539644235541
 21
118.4548644921835
 31
0.0
  0
LINE
  5
EAB
  8
3
 10
137.58747138612469
 20
118.4548644921835
 30
0.0
 11
130.37739173735531
 21
111.24478484341419
 31
0.0
  0
LINE
  5
EAC
  8
3
 10
138.53198876295221
 20
117.9403795165111
 30
0.0
 11
130.8918767130279
 21
110.3002674665867
 31
0.0
  0
LINE
  5
EAD
  8
3
 10
131.55234661771399
 20
109.50173501877281
 30
0.0
 11
139.33052121076611
 21
117.27990961182491
 31
0.0
  0
LINE
  5
EAE
  8
3
 10
139.9909911154522
 20
116.48137716401099
 30
0.0
 11
132.35087906552781
 21
108.8412651140867
 31
0.0
  0
LINE
  5
EAF
  8
3
 10
130.4445945507675
 20
111.0926499162714
 30
0.0
 11
133.1432615152126
 21
108.3939829518264
 31
0.0
  0
LINE
  5
EB0
  8
3
 10
135.094469570961
 20
107.901777248578
 30
0.0
 11
129.9523888475191
 21
113.04385797201989
 31
0.0
  0
LINE
  5
EB1
  8
3
 10
130.0380505580861
 20
114.41719861395291
 30
0.0
 11
136.46781021289399
 21
107.9874389591449
 31
0.0
  0
LINE
  5
EB2
  8
3
 10
137.58747138612469
 20
108.32678013841419
 30
0.0
 11
130.37739173735531
 21
115.5368597871836
 31
0.0
  0
LINE
  5
EB3
  8
3
 10
133.2953964423553
 20
108.32678013841419
 30
0.0
 11
140.50547609112471
 21
115.5368597871835
 31
0.0
  0
LINE
  5
EB4
  8
3
 10
133.14326151521249
 20
118.38766167877129
 30
0.0
 11
130.44459455076759
 21
115.6889947143264
 31
0.0
  0
LINE
  5
EB5
  8
3
 10
129.95238884751919
 20
113.737786658578
 30
0.0
 11
135.09446957096091
 21
118.8798673820197
 31
0.0
  0
LINE
  5
EB6
  8
3
 10
130.0380505580861
 20
112.36444601664491
 30
0.0
 11
136.46781021289399
 21
118.7942056714528
 31
0.0
  0
LINE
  5
EB7
  8
3
 10
133.9824315617401
 20
108.0878691630072
 30
0.0
 11
133.9824315617401
 21
118.6937754675905
 31
0.0
  0
LINE
  5
EB8
  8
3
 10
135.44143391424009
 20
107.89082231529891
 30
0.0
 11
135.44143391424009
 21
118.89082231529891
 31
0.0
  0
LINE
  5
EB9
  8
3
 10
136.90043626674009
 20
108.0878691630073
 30
0.0
 11
136.90043626674009
 21
118.6937754675905
 31
0.0
  0
LINE
  5
EBA
  8
3
 10
140.43827327771251
 20
115.6889947143264
 30
0.0
 11
137.73960631326759
 21
118.38766167877129
 31
0.0
  0
LINE
  5
EBB
  8
3
 10
134.41505761558611
 20
118.7942056714528
 30
0.0
 11
140.844817270394
 21
112.364446016645
 31
0.0
  0
LINE
  5
EBC
  8
3
 10
135.78839825751919
 20
118.8798673820197
 30
0.0
 11
140.93047898096091
 21
113.737786658578
 31
0.0
  0
LINE
  5
EBD
  8
1
 10
148.94143391424001
 20
113.39082231529891
 30
0.0
 11
121.94143391423999
 21
113.39082231529891
 31
0.0
  0
LINE
  5
EBE
  8
1
 10
135.44143391424001
 20
99.890822315298948
 30
0.0
 11
135.44143391423989
 21
126.89082231529891
 31
0.0
  0
LINE
  5
10E2
  8
1
 10
48.941433914240122
 20
99.890822315298948
 30
0.0
 11
48.941433914240228
 21
126.89082231529891
 31
0.0
  0
LINE
  5
10E3
  8
1
 10
35.441433914240122
 20
113.39082231529891
 30
0.0
 11
62.441433914240122
 21
113.39082231529891
 31
0.0
  0
LINE
  5
10E4
  8
3
 10
48.594469570961003
 20
118.8798673820197
 30
0.0
 11
43.452388847519273
 21
113.737786658578
 31
0.0
  0
LINE
  5
10E5
  8
3
 10
49.967810212894051
 20
118.7942056714528
 30
0.0
 11
43.538050558086177
 21
112.364446016645
 31
0.0
  0
LINE
  5
10E6
  8
3
 10
43.944594550767647
 20
115.6889947143264
 30
0.0
 11
46.643261515212536
 21
118.38766167877129
 31
0.0
  0
LINE
  5
10E7
  8
3
 10
47.4824315617401
 20
108.0878691630073
 30
0.0
 11
47.4824315617401
 21
118.6937754675905
 31
0.0
  0
LINE
  5
10E8
  8
3
 10
48.941433914240058
 20
107.89082231529891
 30
0.0
 11
48.941433914240058
 21
118.89082231529891
 31
0.0
  0
LINE
  5
10E9
  8
3
 10
50.40043626674003
 20
108.0878691630072
 30
0.0
 11
50.40043626674003
 21
118.6937754675905
 31
0.0
  0
LINE
  5
10EA
  8
3
 10
54.34481727039406
 20
112.36444601664491
 30
0.0
 11
47.915057615586193
 21
118.7942056714528
 31
0.0
  0
LINE
  5
10EB
  8
3
 10
54.43047898096097
 20
113.737786658578
 30
0.0
 11
49.288398257519248
 21
118.8798673820197
 31
0.0
  0
LINE
  5
10EC
  8
3
 10
51.2396063132677
 20
118.38766167877129
 30
0.0
 11
53.93827327771259
 21
115.6889947143264
 31
0.0
  0
LINE
  5
10ED
  8
3
 10
51.087471386124889
 20
108.32678013841419
 30
0.0
 11
43.877391737355417
 21
115.5368597871835
 31
0.0
  0
LINE
  5
10EE
  8
3
 10
46.795396442355461
 20
108.32678013841419
 30
0.0
 11
54.00547609112482
 21
115.5368597871836
 31
0.0
  0
LINE
  5
10EF
  8
3
 10
54.34481727039406
 20
114.41719861395291
 30
0.0
 11
47.915057615586193
 21
107.9874389591449
 31
0.0
  0
LINE
  5
10F0
  8
3
 10
49.288398257519127
 20
107.901777248578
 30
0.0
 11
54.430478980961077
 21
113.04385797201989
 31
0.0
  0
LINE
  5
10F1
  8
3
 10
53.93827327771271
 20
111.0926499162714
 30
0.0
 11
51.239606313267593
 21
108.3939829518264
 31
0.0
  0
LINE
  5
10F2
  8
3
 10
44.391876713027962
 20
116.48137716401099
 30
0.0
 11
52.031988762952317
 21
108.8412651140867
 31
0.0
  0
LINE
  5
10F3
  8
3
 10
52.830521210766157
 20
109.50173501877281
 30
0.0
 11
45.052346617714079
 21
117.27990961182491
 31
0.0
  0
LINE
  5
10F4
  8
3
 10
45.85087906552792
 20
117.9403795165111
 30
0.0
 11
53.490991115452282
 21
110.3002674665867
 31
0.0
  0
LINE
  5
10F5
  8
3
 10
46.795396442355461
 20
118.4548644921835
 30
0.0
 11
54.00547609112482
 21
111.24478484341419
 31
0.0
  0
LINE
  5
10F6
  8
3
 10
43.877391737355417
 20
111.24478484341419
 30
0.0
 11
51.087471386124783
 21
118.4548644921835
 31
0.0
  0
LINE
  5
10F7
  8
3
 10
52.031988762952317
 20
117.9403795165111
 30
0.0
 11
44.391876713027962
 21
110.3002674665868
 31
0.0
  0
LINE
  5
10F8
  8
3
 10
45.052346617714079
 20
109.50173501877291
 30
0.0
 11
52.830521210766157
 21
117.27990961182491
 31
0.0
  0
LINE
  5
10F9
  8
3
 10
53.490991115452282
 20
116.48137716401111
 30
0.0
 11
45.85087906552792
 21
108.8412651140867
 31
0.0
  0
LINE
  5
10FA
  8
3
 10
52.271870705202439
 20
109.0138152577989
 30
0.0
 11
45.610997123277798
 21
109.0138152577989
 31
0.0
  0
LINE
  5
10FB
  8
3
 10
53.603541650189413
 20
110.4728176102989
 30
0.0
 11
44.27932617829083
 21
110.4728176102989
 31
0.0
  0
LINE
  5
10FC
  8
3
 10
54.244387066531772
 20
111.9318199627989
 30
0.0
 11
43.638480761948472
 21
111.9318199627989
 31
0.0
  0
LINE
  5
10FD
  8
3
 10
54.441433914240179
 20
113.39082231529891
 30
0.0
 11
43.441433914240179
 21
113.39082231529881
 31
0.0
  0
LINE
  5
10FE
  8
3
 10
54.244387066531772
 20
114.8498246677989
 30
0.0
 11
43.638480761948578
 21
114.8498246677989
 31
0.0
  0
LINE
  5
10FF
  8
3
 10
53.603541650189413
 20
116.30882702029891
 30
0.0
 11
44.279326178290937
 21
116.30882702029891
 31
0.0
  0
LINE
  5
1100
  8
3
 10
52.271870705202439
 20
117.7678293727989
 30
0.0
 11
45.610997123277897
 21
117.7678293727989
 31
0.0
  0
LINE
  5
1101
  8
3
 10
53.318440971740188
 20
110.0603855243366
 30
0.0
 11
53.318440971740067
 21
116.7212591062612
 31
0.0
  0
LINE
  5
1102
  8
3
 10
46.64326151521265
 20
108.3939829518264
 30
0.0
 11
43.944594550767647
 21
111.0926499162714
 31
0.0
  0
LINE
  5
1103
  8
3
 10
46.023429209240128
 20
108.7287145793496
 30
0.0
 11
46.023429209240128
 21
118.0529300512481
 31
0.0
  0
LINE
  5
1104
  8
3
 10
51.859438619240109
 20
108.7287145793496
 30
0.0
 11
51.859438619240109
 21
118.0529300512481
 31
0.0
  0
LINE
  5
1105
  8
3
 10
43.452388847519273
 20
113.04385797201979
 30
0.0
 11
48.594469570961003
 21
107.901777248578
 31
0.0
  0
LINE
  5
1106
  8
3
 10
43.538050558086177
 20
114.41719861395281
 30
0.0
 11
49.967810212894051
 21
107.9874389591449
 31
0.0
  0
LINE
  5
1107
  8
3
 10
44.564426856740049
 20
110.0603855243366
 30
0.0
 11
44.564426856740049
 21
116.7212591062611
 31
0.0
  0
LINE
  5
1108
  8
0
 10
90.141433914240125
 20
124.39082231529891
 30
0.0
 11
91.941433914240065
 21
124.39082231529891
 31
0.0
  0
LINE
  5
1109
  8
0
 10
93.441433914240164
 20
124.14082231529891
 30
0.0
 11
91.941433914240179
 21
124.14082231529891
 31
0.0
  0
LINE
  5
110A
  8
0
 10
87.056827531008196
 20
124.36047742544019
 30
0.0
 11
90.141433914240125
 21
124.36047742544019
 31
0.0
  0
LINE
  5
110B
  8
0
 10
87.056827531008196
 20
118.8756498681395
 30
0.0
 11
90.141433914240125
 21
118.8756498681395
 31
0.0
  0
ARC
  5
110C
  8
0
 10
93.699026475462631
 20
121.6180636467892
 30
0.0
 40
7.186072651389499
 50
159.16423884731401
 51
202.4346237325648
  0
LINE
  5
110D
  8
0
 10
98.441433914240065
 20
120.8658223152989
 30
0.0
 11
99.441433914240065
 21
120.8658223152989
 31
0.0
  0
LINE
  5
110E
  8
3
 10
93.441433914240164
 20
120.8658223152989
 30
0.0
 11
98.441433914240065
 21
120.8658223152989
 31
0.0
  0
LINE
  5
110F
  8
0
 10
93.441433914240164
 20
121.72182231529889
 30
0.0
 11
98.441433914240065
 21
121.72182231529889
 31
0.0
  0
LINE
  5
1110
  8
0
 10
87.056827531008196
 20
107.9059947624603
 30
0.0
 11
90.141433914240125
 21
107.9059947624603
 31
0.0
  0
LINE
  5
1111
  8
0
 10
90.141433914240125
 20
102.39082231529891
 30
0.0
 11
91.941433914240065
 21
102.39082231529891
 31
0.0
  0
LINE
  5
1112
  8
0
 10
93.441433914240164
 20
102.64082231529891
 30
0.0
 11
91.941433914240179
 21
102.64082231529891
 31
0.0
  0
LINE
  5
1113
  8
0
 10
87.056827531008196
 20
102.4211672051575
 30
0.0
 11
90.141433914240125
 21
102.4211672051575
 31
0.0
  0
ARC
  5
1114
  8
0
 10
93.699026475462631
 20
105.1635809838085
 30
0.0
 40
7.186072651389499
 50
157.56537626743199
 51
200.8357611526859
  0
LINE
  5
1115
  8
0
 10
98.441433914240193
 20
105.9158223152989
 30
0.0
 11
99.441433914240065
 21
105.9158223152989
 31
0.0
  0
LINE
  5
1116
  8
0
 10
93.441433914240164
 20
105.0598223152989
 30
0.0
 11
98.441433914240065
 21
105.0598223152989
 31
0.0
  0
LINE
  5
1117
  8
3
 10
93.441433914240164
 20
105.9158223152989
 30
0.0
 11
98.441433914240193
 21
105.9158223152989
 31
0.0
  0
LINE
  5
1118
  8
1
 10
82.441433914240122
 20
113.39082231529891
 30
0.0
 11
101.94143391424009
 21
113.39082231529891
 31
0.0
  0
LINE
  5
1119
  8
0
 10
98.441433914240065
 20
105.0598223152989
 30
0.0
 11
98.441433914240065
 21
121.72182231529889
 31
0.0
  0
LINE
  5
111A
  8
0
 10
90.141433914240125
 20
102.39082231529891
 30
0.0
 11
90.141433914240125
 21
124.39082231529891
 31
0.0
  0
LINE
  5
111B
  8
0
 10
91.941433914240065
 20
102.39082231529891
 30
0.0
 11
91.941433914240065
 21
124.39082231529891
 31
0.0
  0
LINE
  5
111C
  8
0
 10
99.441433914240065
 20
105.9158223152989
 30
0.0
 11
99.441433914240065
 21
120.8658223152989
 31
0.0
  0
ARC
  5
111D
  8
0
 10
114.44143391424009
 20
113.39082231529891
 30
0.0
 40
29.5
 50
158.1700754897665
 51
201.82992451023341
  0
ARC
  5
111E
  8
0
 10
114.4414338242226
 20
113.3908223152998
 30
0.0
 40
27.928480000149492
 50
168.67416260048759
 51
191.3258373995123
  0
LINE
  5
111F
  8
0
 10
93.441433914240164
 20
124.14082231529891
 30
0.0
 11
93.441433914240164
 21
102.64082231529891
 31
0.0
  0
CIRCLE
  5
1120
  8
0
 10
48.941433914240122
 20
113.39082231529891
 30
0.0
 40
11.0
  0
LINE
  5
1121
  8
3
 10
54.441433914240179
 20
113.39082231529891
 30
0.0
 11
43.441433914240179
 21
113.39082231529891
 31
0.0
  0
LINE
  5
1122
  8
3
 10
48.941433914240179
 20
118.89082231529891
 30
0.0
 11
48.941433914240179
 21
107.89082231529891
 31
0.0
  0
LINE
  5
1123
  8
0
 10
58.441433906503342
 20
118.8756498681394
 30
0.0
 11
58.441433906503342
 21
107.9059947535371
 31
0.0
  0
LINE
  5
1124
  8
0
 10
58.441433906494687
 20
107.9059947624603
 30
0.0
 11
48.941433906503327
 21
102.4211672051575
 31
0.0
  0
LINE
  5
1125
  8
0
 10
48.941433914236313
 20
102.42116720962881
 30
0.0
 11
39.44143391423632
 21
107.9059947669284
 31
0.0
  0
LINE
  5
1126
  8
0
 10
39.441433921969292
 20
107.9059947624657
 30
0.0
 11
39.441433921969292
 21
118.875649877068
 31
0.0
  0
LINE
  5
1127
  8
0
 10
39.441433921969292
 20
118.8756498681383
 30
0.0
 11
48.941433921969292
 21
124.3604774254411
 31
0.0
  0
LINE
  5
1128
  8
0
 10
48.941433914236313
 20
124.3604774209698
 30
0.0
 11
58.44143391423632
 21
118.8756498636703
 31
0.0
  0
CIRCLE
  5
1129
  8
0
 10
48.941433914240122
 20
113.39082231529891
 30
0.0
 40
5.5
  0
TEXT
  5
11D2
  8
0
 62
     3
 10
0.0
 20
0.0
 30
0.0
 40
10.0
  1
PRE12
  7
STANDARD1
  0
ENDSEC
  0
EOF
