  0
SECTION
  2
HEADER
  9
$ACADVER
  1
AC1009
  9
$INSBASE
 10
0.0
 20
0.0
 30
0.0
  9
$EXTMIN
 10
-0.0005
 20
-2.960436562073669
 30
0.0
  9
$EXTMAX
 10
352.58790467625943
 20
259.75474737502572
 30
0.0
  9
$LIMMIN
 10
0.0
 20
0.0
  9
$LIMMAX
 10
375.0
 20
270.0
  9
$ORTHOMODE
 70
     0
  9
$REGENMODE
 70
     1
  9
$FILLMODE
 70
     1
  9
$QTEXTMODE
 70
     0
  9
$MIRRTEXT
 70
     0
  9
$DRAGMODE
 70
     2
  9
$LTSCALE
 40
10.0
  9
$OSMODE
 70
  3071
  9
$ATTMODE
 70
     1
  9
$TEXTSIZE
 40
0.2
  9
$TRACEWID
 40
0.05
  9
$TEXTSTYLE
  7
STANDARD
  9
$CLAYER
  8
0
  9
$CELTYPE
  6
BYLAYER
  9
$CECOLOR
 62
   256
  9
$DIMSCALE
 40
1.0
  9
$DIMASZ
 40
3.0
  9
$DIMEXO
 40
2.0
  9
$DIMDLI
 40
0.38
  9
$DIMRND
 40
0.0
  9
$DIMDLE
 40
0.0
  9
$DIMEXE
 40
2.0
  9
$DIMTP
 40
0.0
  9
$DIMTM
 40
0.0
  9
$DIMTXT
 40
3.0
  9
$DIMCEN
 40
0.0
  9
$DIMTSZ
 40
0.0
  9
$DIMTOL
 70
     0
  9
$DIMLIM
 70
     0
  9
$DIMTIH
 70
     0
  9
$DIMTOH
 70
     0
  9
$DIMSE1
 70
     0
  9
$DIMSE2
 70
     0
  9
$DIMTAD
 70
     1
  9
$DIMZIN
 70
     0
  9
$DIMBLK
  1

  9
$DIMASO
 70
     1
  9
$DIMSHO
 70
     0
  9
$DIMPOST
  1

  9
$DIMAPOST
  1

  9
$DIMALT
 70
     0
  9
$DIMALTD
 70
     2
  9
$DIMALTF
 40
25.399999999999999
  9
$DIMLFAC
 40
1.0
  9
$DIMTOFL
 70
     1
  9
$DIMTVP
 40
1.6000000000000001
  9
$DIMTIX
 70
     1
  9
$DIMSOXD
 70
     0
  9
$DIMSAH
 70
     0
  9
$DIMBLK1
  1

  9
$DIMBLK2
  1

  9
$DIMSTYLE
  2
STANDARD
  9
$DIMCLRD
 70
     0
  9
$DIMCLRE
 70
     0
  9
$DIMCLRT
 70
     0
  9
$DIMTFAC
 40
1.0
  9
$DIMGAP
 40
0.09
  9
$LUNITS
 70
     2
  9
$LUPREC
 70
     4
  9
$SKETCHINC
 40
0.1
  9
$FILLETRAD
 40
0.0
  9
$AUNITS
 70
     0
  9
$AUPREC
 70
     4
  9
$MENU
  1
E:\r13\win\SUPPORT\ACAD
  9
$ELEVATION
 40
0.0
  9
$PELEVATION
 40
0.0
  9
$THICKNESS
 40
0.0
  9
$LIMCHECK
 70
     0
  9
$BLIPMODE
 70
     0
  9
$CHAMFERA
 40
0.0
  9
$CHAMFERB
 40
0.0
  9
$SKPOLY
 70
     0
  9
$TDCREATE
 40
2449839.7938310192
  9
$TDUPDATE
 40
2456597.7280676858
  9
$TDINDWG
 40
0.0035273958
  9
$TDUSRTIMER
 40
0.0035273958
  9
$USRTIMER
 70
     1
  9
$ANGBASE
 50
0.0
  9
$ANGDIR
 70
     0
  9
$PDMODE
 70
     0
  9
$PDSIZE
 40
0.0
  9
$PLINEWID
 40
0.0
  9
$COORDS
 70
     1
  9
$SPLFRAME
 70
     0
  9
$SPLINETYPE
 70
     6
  9
$SPLINESEGS
 70
     8
  9
$ATTDIA
 70
     0
  9
$ATTREQ
 70
     1
  9
$HANDLING
 70
     1
  9
$HANDSEED
  5
398
  9
$SURFTAB1
 70
     6
  9
$SURFTAB2
 70
     6
  9
$SURFTYPE
 70
     6
  9
$SURFU
 70
     6
  9
$SURFV
 70
     6
  9
$UCSNAME
  2

  9
$UCSORG
 10
0.0
 20
0.0
 30
0.0
  9
$UCSXDIR
 10
1.0
 20
0.0
 30
0.0
  9
$UCSYDIR
 10
0.0
 20
1.0
 30
0.0
  9
$PUCSNAME
  2

  9
$PUCSORG
 10
0.0
 20
0.0
 30
0.0
  9
$PUCSXDIR
 10
1.0
 20
0.0
 30
0.0
  9
$PUCSYDIR
 10
0.0
 20
1.0
 30
0.0
  9
$USERI1
 70
     0
  9
$USERI2
 70
     1
  9
$USERI3
 70
     1
  9
$USERI4
 70
     0
  9
$USERI5
 70
     0
  9
$USERR1
 40
0.0
  9
$USERR2
 40
0.0
  9
$USERR3
 40
0.0
  9
$USERR4
 40
0.0
  9
$USERR5
 40
0.0
  9
$WORLDVIEW
 70
     1
  9
$SHADEDGE
 70
     3
  9
$SHADEDIF
 70
    70
  9
$TILEMODE
 70
     1
  9
$MAXACTVP
 70
    16
  9
$PLIMCHECK
 70
     0
  9
$PEXTMIN
 10
1.0000000000000000E+020
 20
1.0000000000000000E+020
 30
1.0000000000000000E+020
  9
$PEXTMAX
 10
-1.0000000000000000E+020
 20
-1.0000000000000000E+020
 30
-1.0000000000000000E+020
  9
$PLIMMIN
 10
0.0
 20
0.0
  9
$PLIMMAX
 10
12.0
 20
9.0
  9
$UNITMODE
 70
     0
  9
$VISRETAIN
 70
     0
  9
$PLINEGEN
 70
     0
  9
$PSLTSCALE
 70
     0
  0
ENDSEC
  0
SECTION
  2
TABLES
  0
TABLE
  2
VPORT
 70
     1
  0
VPORT
  2
*ACTIVE
 70
     0
 10
0.0
 20
0.0
 11
1.0
 21
1.0
 12
187.49402838302359
 22
149.37503584461999
 13
0.0
 23
0.0
 14
10.0
 24
10.0
 15
10.0
 25
10.0
 16
0.0
 26
0.0
 36
1.0
 17
0.0
 27
0.0
 37
0.0
 40
308.52693121797739
 41
2.304913294797688
 42
50.0
 43
0.0
 44
0.0
 50
0.0
 51
0.0
 71
     0
 72
   500
 73
     1
 74
     0
 75
     0
 76
     0
 77
     0
 78
     2
  0
ENDTAB
  0
TABLE
  2
LTYPE
 70
     3
  0
LTYPE
  2
CONTINUOUS
 70
     0
  3
Solid Line
 72
    65
 73
     0
 40
0.0
  0
LTYPE
  2
CENTER
 70
     0
  3
____ _ ____ _ ____ _ ____ _ ____ _ ____ _ ____
 72
    65
 73
     4
 40
2.0
 49
1.25
 49
-0.25
 49
0.25
 49
-0.25
  0
LTYPE
  2
PHANTOM2
 70
     0
  3
___ _ _ ___ _ _ ___ _ _ ___ _ _
 72
    65
 73
     6
 40
1.25
 49
0.625
 49
-0.125
 49
0.125
 49
-0.125
 49
0.125
 49
-0.125
  0
ENDTAB
  0
TABLE
  2
LAYER
 70
     4
  0
LAYER
  2
0
 70
     0
 62
     7
  6
CONTINUOUS
  0
LAYER
  2
1
 70
     0
 62
     1
  6
CENTER
  0
LAYER
  2
3
 70
     0
 62
     3
  6
CONTINUOUS
  0
LAYER
  2
ITTEN
 70
     0
 62
     1
  6
CENTER
  0
ENDTAB
  0
TABLE
  2
STYLE
 70
     3
  0
STYLE
  2
STANDARD
 70
     0
 40
0.0
 41
1.0
 50
0.0
 71
     0
 42
0.2
  3
TXT
  4
BIGFONT
  0
STYLE
  2
SIM080
 70
     0
 40
0.0
 41
0.8
 50
0.0
 71
     0
 42
3.2000000000000002
  3
SIMPLEX
  4

  0
STYLE
  2
STANDARD1
 70
     0
 40
0.0
 41
1.0
 50
0.0
 71
     0
 42
3.0
  3
txt
  4

  0
ENDTAB
  0
TABLE
  2
VIEW
 70
     1
  0
VIEW
  2
ALL
 70
     0
 40
270.0
 10
220.99159663865549
 20
135.0
 41
0.0
 11
0.0
 21
0.0
 31
1.0
 12
0.0
 22
0.0
 32
0.0
 42
0.0
 43
0.0
 44
0.0
 50
0.0
 71
     0
  0
ENDTAB
  0
TABLE
  2
UCS
 70
     0
  0
ENDTAB
  0
TABLE
  2
APPID
 70
     3
  0
APPID
  2
ACAD
 70
     0
  0
APPID
  2
ACAD_MLEADERVER
 70
     0
  0
APPID
  2
ACAD_NAV_VCDISPLAY
 70
     0
  0
ENDTAB
  0
TABLE
  2
DIMSTYLE
 70
     1
  0
DIMSTYLE
  2
STANDARD
 70
     0
  3

  4

  5

  6

  7

 40
1.0
 41
0.18
 42
0.0625
 43
0.38
 44
0.18
 45
0.0
 46
0.0
 47
0.0
 48
0.0
140
0.18
141
0.09
142
0.0
143
25.399999999999999
144
1.0
145
0.0
146
1.0
147
0.09
 71
     0
 72
     0
 73
     1
 74
     1
 75
     0
 76
     0
 77
     0
 78
     0
170
     0
171
     2
172
     0
173
     0
174
     0
175
     0
176
     0
177
     0
178
     0
  0
ENDTAB
  0
ENDSEC
  0
SECTION
  2
BLOCKS
  0
BLOCK
  8
0
  2
$MODEL_SPACE
 70
     0
 10
0.0
 20
0.0
 30
0.0
  3
$MODEL_SPACE
  1

  0
ENDBLK
  5
1E5
  8
0
  0
BLOCK
 67
     1
  8
0
  2
$PAPER_SPACE
 70
     0
 10
0.0
 20
0.0
 30
0.0
  3
$PAPER_SPACE
  1

  0
ENDBLK
  5
1E3
 67
     1
  8
0
  0
BLOCK
  8
0
  2
BATU
 70
     0
 10
0.0
 20
0.0
 30
0.0
  3
BATU
  1

  0
LINE
  5
1F0
  8
ITTEN
 10
0.5
 20
0.0
 30
0.0
 11
-0.5
 21
0.0
 31
0.0
  0
LINE
  5
1F1
  8
ITTEN
 10
0.0
 20
0.5
 30
0.0
 11
0.0
 21
-0.5
 31
0.0
  0
ENDBLK
  5
1F3
  8
0
  0
ENDSEC
  0
SECTION
  2
ENTITIES
  0
LINE
  5
35
  8
0
 10
167.5879046762588
 20
38.000000000000142
 30
0.0
 11
167.5879046762588
 21
72.000000000000114
 31
0.0
  0
LINE
  5
36
  8
0
 10
165.58790467625889
 20
72.000000000000114
 30
0.0
 11
167.5879046762588
 21
72.000000000000114
 31
0.0
  0
LINE
  5
37
  8
0
 10
165.5879046762588
 20
38.000000000000107
 30
0.0
 11
167.58790467625869
 21
38.000000000000107
 31
0.0
  0
LINE
  5
38
  8
1
 10
50.0
 20
180.0
 30
0.0
 11
50.0
 21
100.0
 31
0.0
  0
LINE
  5
39
  8
1
 10
90.0
 20
140.0
 30
0.0
 11
10.0
 21
140.0
 31
0.0
  0
LINE
  5
3A
  8
0
 10
117.0879046762582
 20
32.00000000000005
 30
0.0
 11
117.08790467625801
 21
78.000000000000099
 31
0.0
  0
LINE
  5
3B
  8
0
 10
117.58790467625801
 20
22.999999999999979
 30
0.0
 11
119.5879046762587
 21
20.9999999999993
 31
0.0
  0
LINE
  5
3C
  8
0
 10
117.58790467625801
 20
22.999999999999979
 30
0.0
 11
117.58790467625801
 21
87.000000000000085
 31
0.0
  0
LINE
  5
3D
  8
0
 10
151.08790467625801
 20
20.245252624974331
 30
0.0
 11
151.08790467625801
 21
89.754747375026085
 31
0.0
  0
LINE
  5
3E
  8
0
 10
120.58790467625801
 20
20.245252624974391
 30
0.0
 11
120.58790467625791
 21
22.833443075999799
 31
0.0
  0
LINE
  5
3F
  8
0
 10
119.5879046762587
 20
20.99999999999925
 30
0.0
 11
119.5879046762587
 21
21.221487497273969
 31
0.0
  0
LINE
  5
40
  8
0
 10
120.58790467625801
 20
50.863874409764477
 30
0.0
 11
151.08790467625801
 21
50.863874409764477
 31
0.0
  0
LINE
  5
41
  8
0
 10
120.58790467625801
 20
41.204616146874329
 30
0.0
 11
151.08790467625801
 21
41.204616146874208
 31
0.0
  0
LINE
  5
42
  8
0
 10
120.58790467625801
 20
34.040636478101582
 30
0.0
 11
151.08790467625801
 21
34.040636478101582
 31
0.0
  0
LINE
  5
43
  8
0
 10
120.58790467625801
 20
26.969568666236722
 30
0.0
 11
151.08790467625801
 21
26.969568666236778
 31
0.0
  0
LINE
  5
44
  8
0
 10
120.58790467625801
 20
22.833443075999799
 30
0.0
 11
151.08790467625801
 21
22.833443075999849
 31
0.0
  0
LINE
  5
45
  8
0
 10
120.58790467625801
 20
20.245252624974391
 30
0.0
 11
151.08790467625801
 21
20.245252624974331
 31
0.0
  0
LINE
  5
46
  8
0
 10
120.58790467625801
 20
41.204616146874329
 30
0.0
 11
120.58790467625801
 21
50.863874409764477
 31
0.0
  0
LINE
  5
47
  8
0
 10
120.58790467625801
 20
26.969568666236778
 30
0.0
 11
120.58790467625801
 21
34.040636478101582
 31
0.0
  0
LINE
  5
48
  8
0
 10
119.5879046762587
 20
51.125455755420191
 30
0.0
 11
151.08790467625801
 21
51.125455755420177
 31
0.0
  0
LINE
  5
49
  8
0
 10
119.5879046762587
 20
34.75529000474522
 30
0.0
 11
151.08790467625801
 21
34.75529000474522
 31
0.0
  0
LINE
  5
4A
  8
0
 10
119.5879046762587
 20
23.809677948299669
 30
0.0
 11
151.08790467625801
 21
23.80967794829893
 31
0.0
  0
LINE
  5
4B
  8
0
 10
120.58790467625791
 20
50.863874409764477
 30
0.0
 11
119.5879046762587
 21
51.125455755420191
 31
0.0
  0
LINE
  5
4C
  8
0
 10
120.58790467625801
 20
41.204616146874329
 30
0.0
 11
119.5879046762587
 21
41.466197492529702
 31
0.0
  0
LINE
  5
4D
  8
0
 10
120.58790467625801
 20
34.040636478101582
 30
0.0
 11
119.5879046762587
 21
34.755290004745277
 31
0.0
  0
LINE
  5
4E
  8
0
 10
120.58790467625801
 20
26.969568666236722
 30
0.0
 11
119.5879046762587
 21
27.684222192880259
 31
0.0
  0
LINE
  5
4F
  8
0
 10
120.58790467625791
 20
22.833443075999909
 30
0.0
 11
119.5879046762587
 21
23.809677948299608
 31
0.0
  0
LINE
  5
50
  8
0
 10
120.58790467625801
 20
20.245252624974391
 30
0.0
 11
119.5879046762587
 21
21.221487497274079
 31
0.0
  0
LINE
  5
51
  8
0
 10
119.5879046762587
 20
51.125455755420191
 30
0.0
 11
119.5879046762587
 21
58.874544244580008
 31
0.0
  0
LINE
  5
52
  8
0
 10
119.5879046762587
 20
34.755290004745277
 30
0.0
 11
119.5879046762587
 21
41.466197492529702
 31
0.0
  0
LINE
  5
53
  8
0
 10
119.5879046762587
 20
23.809677948299669
 30
0.0
 11
119.5879046762587
 21
27.684222192880259
 31
0.0
  0
LINE
  5
54
  8
0
 10
119.5879046762587
 20
86.190322051700704
 30
0.0
 11
119.5879046762587
 21
82.315777807120057
 31
0.0
  0
LINE
  5
55
  8
0
 10
119.5879046762587
 20
75.244709995254965
 30
0.0
 11
119.5879046762587
 21
68.533802507470611
 31
0.0
  0
LINE
  5
56
  8
0
 10
120.58790467625801
 20
89.754747375025872
 30
0.0
 11
119.5879046762587
 21
88.778512502726343
 31
0.0
  0
LINE
  5
57
  8
0
 10
120.58790467625791
 20
87.16655692400046
 30
0.0
 11
119.5879046762587
 21
86.190322051700704
 31
0.0
  0
LINE
  5
58
  8
0
 10
120.58790467625801
 20
83.030431333763644
 30
0.0
 11
119.5879046762587
 21
82.315777807120057
 31
0.0
  0
LINE
  5
59
  8
0
 10
120.58790467625801
 20
75.959363521898794
 30
0.0
 11
119.5879046762587
 21
75.244709995254965
 31
0.0
  0
LINE
  5
5A
  8
0
 10
120.58790467625801
 20
68.795383853125983
 30
0.0
 11
119.5879046762587
 21
68.533802507470611
 31
0.0
  0
LINE
  5
5B
  8
0
 10
120.58790467625791
 20
59.136125590235828
 30
0.0
 11
119.5879046762587
 21
58.874544244580122
 31
0.0
  0
LINE
  5
5C
  8
0
 10
119.5879046762587
 20
86.190322051700704
 30
0.0
 11
151.08790467625801
 21
86.190322051701372
 31
0.0
  0
LINE
  5
5D
  8
0
 10
119.5879046762587
 20
75.244709995255207
 30
0.0
 11
151.08790467625801
 21
75.244709995255192
 31
0.0
  0
LINE
  5
5E
  8
0
 10
119.5879046762587
 20
58.874544244580122
 30
0.0
 11
151.08790467625801
 21
58.874544244580107
 31
0.0
  0
LINE
  5
5F
  8
0
 10
120.58790467625801
 20
83.030431333763644
 30
0.0
 11
120.58790467625801
 21
75.959363521898794
 31
0.0
  0
LINE
  5
60
  8
0
 10
120.58790467625801
 20
68.795383853125983
 30
0.0
 11
120.58790467625801
 21
59.136125590235828
 31
0.0
  0
LINE
  5
61
  8
0
 10
120.58790467625801
 20
89.754747375025872
 30
0.0
 11
151.08790467625801
 21
89.754747375026085
 31
0.0
  0
LINE
  5
62
  8
0
 10
120.58790467625801
 20
87.16655692400046
 30
0.0
 11
151.08790467625801
 21
87.166556924000446
 31
0.0
  0
LINE
  5
63
  8
0
 10
120.58790467625801
 20
83.030431333763644
 30
0.0
 11
151.08790467625801
 21
83.03043133376363
 31
0.0
  0
LINE
  5
64
  8
0
 10
120.58790467625801
 20
75.959363521898794
 30
0.0
 11
151.08790467625801
 21
75.95936352189878
 31
0.0
  0
LINE
  5
65
  8
0
 10
120.58790467625801
 20
68.795383853125983
 30
0.0
 11
151.08790467625801
 21
68.795383853126083
 31
0.0
  0
LINE
  5
66
  8
0
 10
120.58790467625801
 20
59.136125590235828
 30
0.0
 11
151.08790467625801
 21
59.136125590235821
 31
0.0
  0
LINE
  5
67
  8
0
 10
119.5879046762587
 20
89.000000000001009
 30
0.0
 11
119.5879046762587
 21
88.778512502726343
 31
0.0
  0
LINE
  5
68
  8
0
 10
120.58790467625801
 20
89.754747375025872
 30
0.0
 11
120.58790467625791
 21
87.16655692400046
 31
0.0
  0
LINE
  5
69
  8
0
 10
117.58790467625801
 20
87.000000000000327
 30
0.0
 11
119.5879046762587
 21
89.000000000001009
 31
0.0
  0
LINE
  5
6A
  8
0
 10
117.0879046762582
 20
32.00000000000005
 30
0.0
 11
117.58790467625801
 21
32.00000000000005
 31
0.0
  0
LINE
  5
6B
  8
0
 10
117.08790467625801
 20
78.000000000000099
 30
0.0
 11
117.58790467625801
 21
78.000000000000099
 31
0.0
  0
ARC
  5
6C
  8
0
 10
50.0
 20
140.0
 30
0.0
 40
35.0
 50
96.786789298261482
 51
113.21321070173811
  0
ARC
  5
6D
  8
0
 10
50.0
 20
140.0
 30
0.0
 40
34.0
 50
113.456519335271
 51
126.5434806647298
  0
LINE
  5
6E
  8
0
 10
36.204616146874059
 20
172.16655692399991
 30
0.0
 11
36.466197492529894
 21
171.19032205169989
 31
0.0
  0
LINE
  5
6F
  8
0
 10
45.86387440976511
 20
174.7547473750235
 30
0.0
 11
46.125455755420603
 21
173.77851250272511
 31
0.0
  0
LINE
  5
70
  8
0
 10
29.040636478101931
 20
168.03043133376349
 30
0.0
 11
29.75529000474495
 21
167.3157778071205
 31
0.0
  0
LINE
  5
71
  8
0
 10
21.969568666235318
 20
160.95936352189921
 30
0.0
 11
22.684222192879421
 21
160.24470999525499
 31
0.0
  0
ARC
  5
72
  8
0
 10
50.0
 20
140.0
 30
0.0
 40
35.0
 50
126.7867892982615
 51
143.21321070173809
  0
LINE
  5
73
  8
0
 10
17.833443076001629
 20
153.79538385312549
 30
0.0
 11
18.809677948300081
 21
153.53380250747
 31
0.0
  0
LINE
  5
74
  8
0
 10
15.245252624974849
 20
144.13612559023531
 30
0.0
 11
16.221487497274889
 21
143.87454424457931
 31
0.0
  0
ARC
  5
75
  8
0
 10
50.0
 20
140.0
 30
0.0
 40
35.0
 50
156.78678929826151
 51
173.21321070173809
  0
LINE
  5
76
  8
0
 10
15.2452526249765
 20
135.86387440976509
 30
0.0
 11
16.22148749727495
 21
136.1254557554206
 31
0.0
  0
LINE
  5
77
  8
0
 10
17.833443076000091
 20
126.204616146874
 30
0.0
 11
18.809677948300131
 21
126.4661974925299
 31
0.0
  0
ARC
  5
78
  8
0
 10
50.0
 20
140.0
 30
0.0
 40
35.0
 50
186.78678929826151
 51
203.21321070173809
  0
LINE
  5
79
  8
0
 10
21.969568666236508
 20
119.0406364781019
 30
0.0
 11
22.684222192879471
 21
119.75529000474489
 31
0.0
  0
LINE
  5
7A
  8
0
 10
29.04063647810074
 20
111.9695686662353
 30
0.0
 11
29.75529000474495
 21
112.6842221928793
 31
0.0
  0
ARC
  5
7B
  8
0
 10
50.0
 20
140.0
 30
0.0
 40
35.0
 50
216.78678929826151
 51
233.21321070173809
  0
LINE
  5
7C
  8
0
 10
36.204616146874521
 20
107.8334430760016
 30
0.0
 11
36.46619749253
 21
108.80967794830001
 31
0.0
  0
LINE
  5
7D
  8
0
 10
45.863874409764662
 20
105.2452526249748
 30
0.0
 11
46.12545575542071
 21
106.22148749727489
 31
0.0
  0
ARC
  5
7E
  8
0
 10
50.0
 20
140.0
 30
0.0
 40
35.0
 50
246.7867892982614
 51
263.21321070173809
  0
LINE
  5
7F
  8
0
 10
54.136125590234883
 20
105.2452526249764
 30
0.0
 11
53.87454424457939
 21
106.22148749727489
 31
0.0
  0
LINE
  5
80
  8
0
 10
63.795383853125941
 20
107.83344307599999
 30
0.0
 11
63.533802507470121
 21
108.80967794830001
 31
0.0
  0
ARC
  5
81
  8
0
 10
50.0
 20
140.0
 30
0.0
 40
35.0
 50
276.7867892982614
 51
293.21321070173809
  0
LINE
  5
82
  8
0
 10
70.959363521898069
 20
111.9695686662365
 30
0.0
 11
70.244709995255164
 21
112.6842221928795
 31
0.0
  0
LINE
  5
83
  8
0
 10
78.030431333764739
 20
119.04063647810069
 30
0.0
 11
77.315777807120469
 21
119.75529000474501
 31
0.0
  0
ARC
  5
84
  8
0
 10
50.0
 20
140.0
 30
0.0
 40
35.0
 50
306.78678929826151
 51
323.21321070173798
  0
LINE
  5
85
  8
0
 10
82.166556923998385
 20
126.2046161468745
 30
0.0
 11
81.190322051699752
 21
126.46619749253
 31
0.0
  0
LINE
  5
86
  8
0
 10
84.754747375025147
 20
135.86387440976469
 30
0.0
 11
83.778512502725164
 21
136.12545575542069
 31
0.0
  0
ARC
  5
87
  8
0
 10
50.0
 20
140.0
 30
0.0
 40
35.0
 50
336.7867892982614
 51
353.21321070173809
  0
LINE
  5
88
  8
0
 10
84.754747375023555
 20
144.1361255902348
 30
0.0
 11
83.778512502725164
 21
143.8745442445794
 31
0.0
  0
LINE
  5
89
  8
0
 10
82.166556923999963
 20
153.79538385312591
 30
0.0
 11
81.190322051699994
 21
153.53380250747011
 31
0.0
  0
ARC
  5
8A
  8
0
 10
50.0
 20
140.0
 30
0.0
 40
35.0
 50
6.7867892982614482
 51
23.213210701738081
  0
LINE
  5
8B
  8
0
 10
78.030431333763602
 20
160.9593635218981
 30
0.0
 11
77.315777807120469
 21
160.24470999525511
 31
0.0
  0
LINE
  5
8C
  8
0
 10
70.959363521899206
 20
168.03043133376471
 30
0.0
 11
70.244709995254937
 21
167.31577780712061
 31
0.0
  0
ARC
  5
8D
  8
0
 10
50.0
 20
140.0
 30
0.0
 40
35.0
 50
36.786789298261468
 51
53.213210701738149
  0
LINE
  5
8E
  8
0
 10
63.795383853125372
 20
172.16655692399829
 30
0.0
 11
63.53380250747
 21
171.19032205169989
 31
0.0
  0
LINE
  5
8F
  8
0
 10
54.136125590235231
 20
174.75474737502509
 30
0.0
 11
53.874544244579283
 21
173.77851250272511
 31
0.0
  0
ARC
  5
90
  8
0
 10
50.0
 20
140.0
 30
0.0
 40
35.0
 50
66.786789298261482
 51
83.21321070173812
  0
ARC
  5
91
  8
0
 10
50.0
 20
140.0
 30
0.0
 40
34.0
 50
143.456519335271
 51
156.5434806647298
  0
ARC
  5
92
  8
0
 10
50.0
 20
140.0
 30
0.0
 40
34.0
 50
173.456519335271
 51
186.5434806647298
  0
ARC
  5
93
  8
0
 10
50.0
 20
140.0
 30
0.0
 40
34.0
 50
203.456519335271
 51
216.5434806647298
  0
ARC
  5
94
  8
0
 10
50.0
 20
140.0
 30
0.0
 40
34.0
 50
233.456519335271
 51
246.5434806647298
  0
ARC
  5
95
  8
0
 10
50.0
 20
140.0
 30
0.0
 40
34.0
 50
263.45651933527103
 51
276.54348066472971
  0
ARC
  5
96
  8
0
 10
50.0
 20
140.0
 30
0.0
 40
34.0
 50
293.45651933527103
 51
306.54348066472983
  0
ARC
  5
97
  8
0
 10
50.0
 20
140.0
 30
0.0
 40
34.0
 50
323.45651933527103
 51
336.54348066472983
  0
ARC
  5
98
  8
0
 10
50.0
 20
140.0
 30
0.0
 40
34.0
 50
353.45651933527103
 51
6.5434806647297261
  0
ARC
  5
99
  8
0
 10
50.0
 20
140.0
 30
0.0
 40
34.0
 50
23.456519335271022
 51
36.543480664729792
  0
ARC
  5
9A
  8
0
 10
50.0
 20
140.0
 30
0.0
 40
34.0
 50
53.45651933527099
 51
66.543480664729756
  0
ARC
  5
9B
  8
0
 10
50.0
 20
140.0
 30
0.0
 40
34.0
 50
83.456519335271054
 51
96.543480664729842
  0
CIRCLE
  5
9C
  8
0
 10
50.0
 20
140.0
 30
0.0
 40
32.00000000000005
  0
TEXT
  5
9D
  8
3
 10
36.057663290987428
 20
116.0574557561155
 30
0.0
 40
2.2000000000000002
  1
P
 50
331.0
 41
0.8
  7
SIM080
 72
     1
 11
36.57077351917588
 21
115.7730341122377
 31
0.0
  0
TEXT
  5
9E
  8
3
 10
39.112814290289627
 20
114.52042532450081
 30
0.0
 40
2.2000000000000002
  1
A
 50
338.25
 41
0.8
  7
SIM080
 72
     1
 11
39.735558980977089
 21
114.27197538544659
 31
0.0
  0
TEXT
  5
9F
  8
3
 10
42.496493938669801
 20
113.3291999639039
 30
0.0
 40
2.2000000000000002
  1
T
 50
345.5
 41
0.8
  7
SIM080
 72
     1
 11
43.064473887691634
 21
113.1823103615253
 31
0.0
  0
TEXT
  5
A0
  8
3
 10
46.421149092488022
 20
112.53203956937919
 30
0.0
 40
2.2000000000000002
  1
.
 50
352.75000000000011
 41
0.8
  7
SIM080
 72
     1
 11
46.504288554937368
 21
112.52146289387071
 31
0.0
  0
TEXT
  5
A1
  8
3
 10
49.455238095238087
 20
112.2999999999988
 30
0.0
 40
2.2000000000000002
  1
E
 41
0.8
  7
SIM080
 72
     1
 11
50.0
 21
112.2999999999988
 31
0.0
  0
TEXT
  5
A2
  8
3
 10
52.996874670366537
 20
112.4580028408195
 30
0.0
 40
2.2000000000000002
  1
L
 50
7.249999999999992
 41
0.8
  7
SIM080
 72
     1
 11
53.495711445062632
 21
112.52146289387061
 31
0.0
  0
TEXT
  5
A3
  8
3
 10
56.408116159645132
 20
113.0459128736023
 30
0.0
 40
2.2000000000000002
  1
E
 50
14.5
 41
0.8
  7
SIM080
 72
     1
 11
56.935526112308253
 21
113.1823103615253
 31
0.0
  0
TEXT
  5
A4
  8
3
 10
59.719539414671381
 20
114.05458168877411
 30
0.0
 40
2.2000000000000002
  1
S
 50
21.750000000000011
 41
0.8
  7
SIM080
 72
     1
 11
60.264441019022911
 21
114.27197538544659
 31
0.0
  0
TEXT
  5
A5
  8
3
 10
62.842814791465898
 20
115.4479808049487
 30
0.0
 40
2.2000000000000002
  1
A
 50
29.000000000000021
 41
0.8
  7
SIM080
 72
     1
 11
63.429226480824127
 21
115.7730341122377
 31
0.0
  0
LINE
  5
A6
  8
0
 10
27.0
 20
138.34999999999999
 30
0.0
 11
27.0
 21
141.65000000000001
 31
0.0
  0
LINE
  5
A7
  8
0
 10
73.000000000000057
 20
138.34999999999999
 30
0.0
 11
73.000000000000057
 21
141.65000000000001
 31
0.0
  0
LINE
  5
A8
  8
0
 10
73.000000000000057
 20
138.34999999999999
 30
0.0
 11
62.766147160748922
 21
138.34999999999999
 31
0.0
  0
LINE
  5
A9
  8
0
 10
73.000000000000057
 20
141.65000000000001
 30
0.0
 11
62.766147160749021
 21
141.65000000000001
 31
0.0
  0
ARC
  5
AA
  8
0
 10
44.900000000000091
 20
140.0
 30
0.0
 40
10.5
 50
189.0410961485743
 51
170.95890385142579
  0
CIRCLE
  5
AB
  8
0
 10
44.900000000000091
 20
140.0
 30
0.0
 40
7.2000000000000002
  0
LINE
  5
AC
  8
0
 10
34.530453240376232
 20
138.34999999999999
 30
0.0
 11
27.0
 21
138.34999999999999
 31
0.0
  0
LINE
  5
AD
  8
0
 10
34.530453240376232
 20
141.65000000000001
 30
0.0
 11
27.0
 21
141.65000000000001
 31
0.0
  0
LINE
  5
AE
  8
0
 10
47.021320343559751
 20
127.2720779386422
 30
0.0
 11
59.749242404917588
 21
140.0
 31
0.0
  0
LINE
  5
AF
  8
0
 10
49.354772721475221
 20
124.93862556072661
 30
0.0
 11
62.766147160748922
 21
138.34999999999999
 31
0.0
  0
LINE
  5
B0
  8
0
 10
49.354772721475221
 20
155.06137443927341
 30
0.0
 11
62.766147160749021
 21
141.65000000000001
 31
0.0
  0
LINE
  5
B1
  8
0
 10
47.021320343559751
 20
152.7279220613579
 30
0.0
 11
59.749242404917588
 21
140.0
 31
0.0
  0
LINE
  5
B2
  8
0
 10
47.021320343559751
 20
127.2720779386422
 30
0.0
 11
49.354772721475221
 21
124.93862556072661
 31
0.0
  0
LINE
  5
B3
  8
0
 10
47.021320343559751
 20
152.7279220613579
 30
0.0
 11
49.354772721475221
 21
155.06137443927341
 31
0.0
  0
LINE
  5
B4
  8
0
 10
180.58790467625889
 20
42.941500000000161
 30
0.0
 11
180.58790467625889
 21
67.058500000000123
 31
0.0
  0
LINE
  5
B5
  8
0
 10
179.087904676259
 20
67.058500000000095
 30
0.0
 11
180.58790467625889
 21
67.058500000000123
 31
0.0
  0
LINE
  5
B6
  8
0
 10
167.5879046762588
 20
68.220500000000143
 30
0.0
 11
179.087904676259
 21
68.220500000000186
 31
0.0
  0
LINE
  5
B7
  8
3
 10
167.5879046762588
 20
42.941500000000133
 30
0.0
 11
179.08790467625889
 21
42.941500000000183
 31
0.0
  0
LINE
  5
B8
  8
0
 10
167.5879046762588
 20
41.779500000000162
 30
0.0
 11
179.087904676259
 21
41.779500000000091
 31
0.0
  0
LINE
  5
B9
  8
0
 10
179.087904676259
 20
41.779500000000091
 30
0.0
 11
179.087904676259
 21
68.220500000000186
 31
0.0
  0
LINE
  5
BA
  8
3
 10
167.5879046762588
 20
67.058500000000123
 30
0.0
 11
179.08790467625889
 21
67.058500000000095
 31
0.0
  0
LINE
  5
BB
  8
0
 10
179.087904676259
 20
42.941500000000183
 30
0.0
 11
180.58790467625889
 21
42.941500000000161
 31
0.0
  0
LINE
  5
BC
  8
0
 10
165.5879046762588
 20
37.500000000000142
 30
0.0
 11
165.58790467625889
 21
72.500000000000114
 31
0.0
  0
LINE
  5
BD
  8
0
 10
165.5879046762588
 20
37.500000000000142
 30
0.0
 11
160.5879046762588
 21
37.500000000000199
 31
0.0
  0
LINE
  5
BE
  8
0
 10
165.58790467625889
 20
72.500000000000114
 30
0.0
 11
160.58790467625889
 21
72.500000000000057
 31
0.0
  0
LINE
  5
BF
  8
0
 10
159.5879046762588
 20
20.750000000000199
 30
0.0
 11
159.58790467625889
 21
89.250000000000142
 31
0.0
  0
LINE
  5
C0
  8
0
 10
160.5879046762588
 20
37.500000000000142
 30
0.0
 11
160.58790467625889
 21
72.500000000000114
 31
0.0
  0
LINE
  5
C1
  8
0
 10
160.5879046762588
 20
37.500000000000199
 30
0.0
 11
159.5879046762588
 21
36.500000000000199
 31
0.0
  0
LINE
  5
C2
  8
0
 10
160.58790467625889
 20
72.500000000000057
 30
0.0
 11
159.58790467625889
 21
73.500000000000057
 31
0.0
  0
LINE
  5
C3
  8
0
 10
159.5879046762588
 20
20.750000000000199
 30
0.0
 11
156.08790467625869
 21
20.75000000000021
 31
0.0
  0
LINE
  5
C4
  8
0
 10
159.58790467625889
 20
89.250000000000142
 30
0.0
 11
156.0879046762588
 21
89.250000000000142
 31
0.0
  0
LINE
  5
C5
  8
0
 10
156.08790467625869
 20
20.75000000000021
 30
0.0
 11
156.08790467625889
 21
89.250000000000142
 31
0.0
  0
LINE
  5
C6
  8
0
 10
156.0879046762588
 20
34.000000000000128
 30
0.0
 11
151.08790467625801
 21
34.000000000000099
 31
0.0
  0
LINE
  5
C7
  8
0
 10
156.0879046762588
 20
76.000000000000114
 30
0.0
 11
151.08790467625809
 21
76.000000000000114
 31
0.0
  0
LINE
  5
C8
  8
0
 10
151.08790467625801
 20
23.499999999999901
 30
0.0
 11
156.0879046762571
 21
23.499999999999901
 31
0.0
  0
LINE
  5
C9
  8
0
 10
151.08790467625801
 20
86.500000000000369
 30
0.0
 11
156.0879046762571
 21
86.500000000000369
 31
0.0
  0
LINE
  5
CA
  8
0
 10
156.08790467625889
 20
56.250000000000121
 30
0.0
 11
151.08790467625801
 21
56.250000000000121
 31
0.0
  0
LINE
  5
CB
  8
0
 10
156.08790467625889
 20
53.750000000000121
 30
0.0
 11
151.08790467625801
 21
53.750000000000121
 31
0.0
  0
LINE
  5
CC
  8
1
 10
112.0879046762582
 20
55.000000000000149
 30
0.0
 11
352.58790467625943
 21
55.000000000000007
 31
0.0
  0
LINE
  5
D6
  8
0
 10
167.58790467625889
 20
123.0
 30
0.0
 11
167.58790467625889
 21
157.0
 31
0.0
  0
LINE
  5
D7
  8
0
 10
165.587904676259
 20
157.0
 30
0.0
 11
167.58790467625889
 21
157.0
 31
0.0
  0
LINE
  5
D8
  8
0
 10
165.58790467625889
 20
123.0
 30
0.0
 11
167.58790467625889
 21
123.0
 31
0.0
  0
LINE
  5
D9
  8
0
 10
117.0879046762583
 20
124.93862556072661
 30
0.0
 11
117.0879046762582
 21
155.06137443927341
 31
0.0
  0
LINE
  5
DA
  8
0
 10
117.58790467625811
 20
107.9999999999999
 30
0.0
 11
119.5879046762588
 21
105.9999999999992
 31
0.0
  0
LINE
  5
DB
  8
0
 10
117.58790467625811
 20
107.9999999999999
 30
0.0
 11
117.58790467625811
 21
172.0
 31
0.0
  0
LINE
  5
DC
  8
0
 10
151.0879046762582
 20
105.2452526249742
 30
0.0
 11
151.0879046762582
 21
174.754747375026
 31
0.0
  0
LINE
  5
DD
  8
0
 10
120.58790467625811
 20
105.2452526249743
 30
0.0
 11
120.58790467625801
 21
107.8334430759997
 31
0.0
  0
LINE
  5
DE
  8
0
 10
119.5879046762588
 20
105.9999999999991
 30
0.0
 11
119.5879046762588
 21
106.2214874972739
 31
0.0
  0
LINE
  5
DF
  8
0
 10
120.58790467625811
 20
135.86387440976429
 30
0.0
 11
151.0879046762582
 21
135.86387440976429
 31
0.0
  0
LINE
  5
E0
  8
0
 10
120.58790467625811
 20
126.2046161468742
 30
0.0
 11
151.0879046762582
 21
126.2046161468741
 31
0.0
  0
LINE
  5
E1
  8
0
 10
120.58790467625811
 20
119.0406364781015
 30
0.0
 11
151.0879046762582
 21
119.0406364781015
 31
0.0
  0
LINE
  5
E2
  8
0
 10
120.58790467625811
 20
111.9695686662366
 30
0.0
 11
151.0879046762582
 21
111.9695686662367
 31
0.0
  0
LINE
  5
E3
  8
0
 10
120.58790467625811
 20
107.8334430759997
 30
0.0
 11
151.0879046762582
 21
107.8334430759998
 31
0.0
  0
LINE
  5
E4
  8
0
 10
120.58790467625811
 20
105.2452526249743
 30
0.0
 11
151.0879046762582
 21
105.2452526249742
 31
0.0
  0
LINE
  5
E5
  8
0
 10
120.58790467625811
 20
126.2046161468742
 30
0.0
 11
120.58790467625811
 21
135.86387440976429
 31
0.0
  0
LINE
  5
E6
  8
0
 10
120.58790467625811
 20
111.9695686662367
 30
0.0
 11
120.58790467625811
 21
119.0406364781015
 31
0.0
  0
LINE
  5
E7
  8
0
 10
119.5879046762588
 20
136.12545575542009
 30
0.0
 11
151.0879046762582
 21
136.12545575542009
 31
0.0
  0
LINE
  5
E8
  8
0
 10
119.5879046762588
 20
119.75529000474511
 30
0.0
 11
151.0879046762582
 21
119.75529000474511
 31
0.0
  0
LINE
  5
E9
  8
0
 10
119.5879046762588
 20
108.80967794829959
 30
0.0
 11
151.0879046762582
 21
108.8096779482988
 31
0.0
  0
LINE
  5
EA
  8
0
 10
120.58790467625801
 20
135.86387440976429
 30
0.0
 11
119.5879046762588
 21
136.12545575542009
 31
0.0
  0
LINE
  5
EB
  8
0
 10
120.58790467625811
 20
126.2046161468742
 30
0.0
 11
119.5879046762588
 21
126.4661974925296
 31
0.0
  0
LINE
  5
EC
  8
0
 10
120.58790467625811
 20
119.0406364781015
 30
0.0
 11
119.5879046762588
 21
119.75529000474521
 31
0.0
  0
LINE
  5
ED
  8
0
 10
120.58790467625811
 20
111.9695686662366
 30
0.0
 11
119.5879046762588
 21
112.6842221928801
 31
0.0
  0
LINE
  5
EE
  8
0
 10
120.58790467625801
 20
107.8334430759998
 30
0.0
 11
119.5879046762588
 21
108.80967794829949
 31
0.0
  0
LINE
  5
EF
  8
0
 10
120.58790467625811
 20
105.2452526249743
 30
0.0
 11
119.5879046762588
 21
106.221487497274
 31
0.0
  0
LINE
  5
F0
  8
0
 10
119.5879046762588
 20
136.12545575542009
 30
0.0
 11
119.5879046762588
 21
143.87454424457991
 31
0.0
  0
LINE
  5
F1
  8
0
 10
119.5879046762588
 20
119.75529000474521
 30
0.0
 11
119.5879046762588
 21
126.4661974925296
 31
0.0
  0
LINE
  5
F2
  8
0
 10
119.5879046762588
 20
108.80967794829959
 30
0.0
 11
119.5879046762588
 21
112.6842221928801
 31
0.0
  0
LINE
  5
F3
  8
0
 10
119.5879046762588
 20
171.1903220517006
 30
0.0
 11
119.5879046762588
 21
167.3157778071199
 31
0.0
  0
LINE
  5
F4
  8
0
 10
119.5879046762588
 20
160.24470999525491
 30
0.0
 11
119.5879046762588
 21
153.53380250747051
 31
0.0
  0
LINE
  5
F5
  8
0
 10
120.58790467625811
 20
174.75474737502569
 30
0.0
 11
119.5879046762588
 21
173.77851250272619
 31
0.0
  0
LINE
  5
F6
  8
0
 10
120.58790467625801
 20
172.1665569240003
 30
0.0
 11
119.5879046762588
 21
171.1903220517006
 31
0.0
  0
LINE
  5
F7
  8
0
 10
120.58790467625811
 20
168.03043133376349
 30
0.0
 11
119.5879046762588
 21
167.3157778071199
 31
0.0
  0
LINE
  5
F8
  8
0
 10
120.58790467625811
 20
160.95936352189869
 30
0.0
 11
119.5879046762588
 21
160.24470999525491
 31
0.0
  0
LINE
  5
F9
  8
0
 10
120.58790467625811
 20
153.7953838531258
 30
0.0
 11
119.5879046762588
 21
153.53380250747051
 31
0.0
  0
LINE
  5
FA
  8
0
 10
120.58790467625801
 20
144.13612559023571
 30
0.0
 11
119.5879046762588
 21
143.87454424457999
 31
0.0
  0
LINE
  5
FB
  8
0
 10
119.5879046762588
 20
171.1903220517006
 30
0.0
 11
151.0879046762582
 21
171.19032205170129
 31
0.0
  0
LINE
  5
FC
  8
0
 10
119.5879046762588
 20
160.24470999525511
 30
0.0
 11
151.0879046762582
 21
160.24470999525511
 31
0.0
  0
LINE
  5
FD
  8
0
 10
119.5879046762588
 20
143.87454424457999
 30
0.0
 11
151.0879046762582
 21
143.87454424457999
 31
0.0
  0
LINE
  5
FE
  8
0
 10
120.58790467625811
 20
168.03043133376349
 30
0.0
 11
120.58790467625811
 21
160.95936352189869
 31
0.0
  0
LINE
  5
FF
  8
0
 10
120.58790467625811
 20
153.7953838531258
 30
0.0
 11
120.58790467625811
 21
144.13612559023571
 31
0.0
  0
LINE
  5
100
  8
0
 10
120.58790467625811
 20
174.75474737502569
 30
0.0
 11
151.0879046762582
 21
174.754747375026
 31
0.0
  0
LINE
  5
101
  8
0
 10
120.58790467625811
 20
172.1665569240003
 30
0.0
 11
151.0879046762582
 21
172.1665569240003
 31
0.0
  0
LINE
  5
102
  8
0
 10
120.58790467625811
 20
168.03043133376349
 30
0.0
 11
151.0879046762582
 21
168.03043133376349
 31
0.0
  0
LINE
  5
103
  8
0
 10
120.58790467625811
 20
160.95936352189869
 30
0.0
 11
151.0879046762582
 21
160.95936352189869
 31
0.0
  0
LINE
  5
104
  8
0
 10
120.58790467625811
 20
153.7953838531258
 30
0.0
 11
151.0879046762582
 21
153.795383853126
 31
0.0
  0
LINE
  5
105
  8
0
 10
120.58790467625811
 20
144.13612559023571
 30
0.0
 11
151.0879046762582
 21
144.13612559023571
 31
0.0
  0
LINE
  5
106
  8
0
 10
119.5879046762588
 20
174.00000000000091
 30
0.0
 11
119.5879046762588
 21
173.77851250272619
 31
0.0
  0
LINE
  5
107
  8
0
 10
120.58790467625811
 20
174.75474737502569
 30
0.0
 11
120.58790467625801
 21
172.1665569240003
 31
0.0
  0
LINE
  5
108
  8
0
 10
117.58790467625811
 20
172.0000000000002
 30
0.0
 11
119.5879046762588
 21
174.00000000000091
 31
0.0
  0
LINE
  5
109
  8
0
 10
180.58790467625909
 20
127.9415000000001
 30
0.0
 11
180.587904676259
 21
152.05850000000001
 31
0.0
  0
LINE
  5
10A
  8
0
 10
179.08790467625909
 20
152.05850000000001
 30
0.0
 11
180.587904676259
 21
152.05850000000001
 31
0.0
  0
LINE
  5
10B
  8
0
 10
167.58790467625889
 20
153.2205000000001
 30
0.0
 11
179.08790467625909
 21
153.2205000000001
 31
0.0
  0
LINE
  5
10C
  8
3
 10
167.58790467625889
 20
127.9415
 30
0.0
 11
179.08790467625909
 21
127.9415000000001
 31
0.0
  0
LINE
  5
10D
  8
0
 10
167.58790467625889
 20
126.7795000000001
 30
0.0
 11
179.08790467625909
 21
126.7795
 31
0.0
  0
LINE
  5
10E
  8
0
 10
179.08790467625909
 20
126.7795
 30
0.0
 11
179.08790467625909
 21
153.2205000000001
 31
0.0
  0
LINE
  5
10F
  8
3
 10
167.58790467625889
 20
152.05850000000001
 30
0.0
 11
179.08790467625909
 21
152.05850000000001
 31
0.0
  0
LINE
  5
110
  8
0
 10
179.08790467625909
 20
127.9415000000001
 30
0.0
 11
180.587904676259
 21
127.9415000000001
 31
0.0
  0
LINE
  5
111
  8
0
 10
165.58790467625889
 20
122.5
 30
0.0
 11
165.587904676259
 21
157.5
 31
0.0
  0
LINE
  5
112
  8
0
 10
165.58790467625889
 20
122.5
 30
0.0
 11
160.587904676259
 21
122.5000000000001
 31
0.0
  0
LINE
  5
113
  8
0
 10
165.587904676259
 20
157.5
 30
0.0
 11
160.58790467625909
 21
157.5
 31
0.0
  0
LINE
  5
114
  8
0
 10
159.58790467625889
 20
105.7500000000001
 30
0.0
 11
159.587904676259
 21
174.25000000000011
 31
0.0
  0
LINE
  5
115
  8
0
 10
160.587904676259
 20
122.5
 30
0.0
 11
160.587904676259
 21
157.5
 31
0.0
  0
LINE
  5
116
  8
0
 10
160.587904676259
 20
122.5000000000001
 30
0.0
 11
159.587904676259
 21
121.5000000000001
 31
0.0
  0
LINE
  5
117
  8
0
 10
160.58790467625909
 20
157.5
 30
0.0
 11
159.58790467625909
 21
158.5
 31
0.0
  0
LINE
  5
118
  8
0
 10
159.58790467625889
 20
105.7500000000001
 30
0.0
 11
156.08790467625889
 21
105.7500000000001
 31
0.0
  0
LINE
  5
119
  8
0
 10
159.587904676259
 20
174.25000000000011
 30
0.0
 11
156.08790467625889
 21
174.25
 31
0.0
  0
LINE
  5
11A
  8
0
 10
156.08790467625889
 20
105.7500000000001
 30
0.0
 11
156.087904676259
 21
174.25
 31
0.0
  0
LINE
  5
11B
  8
0
 10
156.08790467625889
 20
119.0
 30
0.0
 11
151.0879046762582
 21
119.0
 31
0.0
  0
LINE
  5
11C
  8
0
 10
156.08790467625889
 20
161.0
 30
0.0
 11
151.0879046762582
 21
161.0
 31
0.0
  0
LINE
  5
11D
  8
0
 10
151.0879046762582
 20
108.4999999999998
 30
0.0
 11
156.08790467625721
 21
108.4999999999998
 31
0.0
  0
LINE
  5
11E
  8
0
 10
151.0879046762582
 20
171.50000000000031
 30
0.0
 11
156.08790467625721
 21
171.50000000000031
 31
0.0
  0
LINE
  5
11F
  8
0
 10
156.08790467625909
 20
141.25
 30
0.0
 11
151.0879046762582
 21
141.25
 31
0.0
  0
LINE
  5
120
  8
0
 10
156.08790467625909
 20
138.75
 30
0.0
 11
151.0879046762582
 21
138.75
 31
0.0
  0
LINE
  5
121
  8
1
 10
112.0879046762584
 20
140.0
 30
0.0
 11
352.58790467625909
 21
140.0
 31
0.0
  0
LINE
  5
122
  8
1
 10
112.0879046762584
 20
224.99999999999989
 30
0.0
 11
352.58790467625897
 21
224.99999999999989
 31
0.0
  0
LINE
  5
123
  8
0
 10
156.08790467625909
 20
226.24999999999989
 30
0.0
 11
151.0879046762582
 21
226.24999999999989
 31
0.0
  0
LINE
  5
124
  8
0
 10
156.08790467625909
 20
223.74999999999989
 30
0.0
 11
151.0879046762582
 21
223.74999999999989
 31
0.0
  0
LINE
  5
125
  8
0
 10
151.0879046762582
 20
193.49999999999969
 30
0.0
 11
156.0879046762573
 21
193.49999999999969
 31
0.0
  0
LINE
  5
126
  8
0
 10
151.0879046762582
 20
256.50000000000023
 30
0.0
 11
156.0879046762573
 21
256.50000000000023
 31
0.0
  0
LINE
  5
127
  8
0
 10
156.087904676259
 20
204.0
 30
0.0
 11
151.08790467625829
 21
204.0
 31
0.0
  0
LINE
  5
128
  8
0
 10
156.087904676259
 20
245.99999999999989
 30
0.0
 11
151.0879046762582
 21
246.0
 31
0.0
  0
LINE
  5
129
  8
0
 10
156.08790467625889
 20
259.24999999999977
 30
0.0
 11
156.08790467625909
 21
190.74999999999989
 31
0.0
  0
LINE
  5
12A
  8
0
 10
159.58790467625909
 20
190.74999999999989
 30
0.0
 11
156.087904676259
 21
190.74999999999989
 31
0.0
  0
LINE
  5
12B
  8
0
 10
159.587904676259
 20
259.24999999999977
 30
0.0
 11
156.08790467625889
 21
259.24999999999977
 31
0.0
  0
LINE
  5
12C
  8
0
 10
160.58790467625909
 20
207.5
 30
0.0
 11
159.58790467625909
 21
206.5
 31
0.0
  0
LINE
  5
12D
  8
0
 10
160.587904676259
 20
242.4999999999998
 30
0.0
 11
159.587904676259
 21
243.4999999999998
 31
0.0
  0
LINE
  5
12E
  8
0
 10
160.587904676259
 20
242.49999999999989
 30
0.0
 11
160.58790467625909
 21
207.49999999999989
 31
0.0
  0
LINE
  5
12F
  8
0
 10
159.587904676259
 20
259.24999999999977
 30
0.0
 11
159.58790467625909
 21
190.74999999999989
 31
0.0
  0
LINE
  5
130
  8
0
 10
165.587904676259
 20
207.49999999999989
 30
0.0
 11
160.58790467625909
 21
207.5
 31
0.0
  0
LINE
  5
131
  8
0
 10
165.587904676259
 20
242.49999999999989
 30
0.0
 11
160.587904676259
 21
242.4999999999998
 31
0.0
  0
LINE
  5
132
  8
0
 10
165.587904676259
 20
242.49999999999989
 30
0.0
 11
165.587904676259
 21
207.49999999999989
 31
0.0
  0
LINE
  5
133
  8
0
 10
179.0879046762592
 20
237.05849999999981
 30
0.0
 11
180.58790467625909
 21
237.0584999999999
 31
0.0
  0
LINE
  5
134
  8
3
 10
167.587904676259
 20
212.94149999999991
 30
0.0
 11
179.08790467625909
 21
212.94149999999991
 31
0.0
  0
LINE
  5
135
  8
0
 10
179.0879046762592
 20
238.2204999999999
 30
0.0
 11
179.0879046762592
 21
211.77949999999981
 31
0.0
  0
LINE
  5
136
  8
0
 10
167.587904676259
 20
238.2204999999999
 30
0.0
 11
179.0879046762592
 21
238.2204999999999
 31
0.0
  0
LINE
  5
137
  8
3
 10
167.587904676259
 20
237.0584999999999
 30
0.0
 11
179.08790467625909
 21
237.05849999999981
 31
0.0
  0
LINE
  5
138
  8
0
 10
167.587904676259
 20
211.7794999999999
 30
0.0
 11
179.0879046762592
 21
211.77949999999981
 31
0.0
  0
LINE
  5
139
  8
0
 10
179.0879046762592
 20
212.94149999999991
 30
0.0
 11
180.58790467625909
 21
212.94149999999991
 31
0.0
  0
LINE
  5
13A
  8
0
 10
180.58790467625909
 20
237.0584999999999
 30
0.0
 11
180.58790467625909
 21
212.94149999999991
 31
0.0
  0
LINE
  5
13B
  8
0
 10
117.5879046762582
 20
192.99999999999969
 30
0.0
 11
119.5879046762589
 21
190.99999999999901
 31
0.0
  0
LINE
  5
13C
  8
0
 10
120.5879046762582
 20
190.2452526249742
 30
0.0
 11
120.58790467625811
 21
192.83344307599961
 31
0.0
  0
LINE
  5
13D
  8
0
 10
119.5879046762589
 20
190.99999999999901
 30
0.0
 11
119.5879046762589
 21
191.2214874972737
 31
0.0
  0
LINE
  5
13E
  8
0
 10
120.5879046762582
 20
220.86387440976421
 30
0.0
 11
151.0879046762582
 21
220.86387440976421
 31
0.0
  0
LINE
  5
13F
  8
0
 10
120.5879046762582
 20
211.20461614687409
 30
0.0
 11
151.0879046762582
 21
211.204616146874
 31
0.0
  0
LINE
  5
140
  8
0
 10
120.5879046762582
 20
204.04063647810131
 30
0.0
 11
151.0879046762582
 21
204.04063647810131
 31
0.0
  0
LINE
  5
141
  8
0
 10
120.5879046762582
 20
196.9695686662364
 30
0.0
 11
151.0879046762582
 21
196.9695686662364
 31
0.0
  0
LINE
  5
142
  8
0
 10
120.5879046762582
 20
192.83344307599961
 30
0.0
 11
151.0879046762582
 21
192.83344307599961
 31
0.0
  0
LINE
  5
143
  8
0
 10
120.5879046762582
 20
190.2452526249742
 30
0.0
 11
151.0879046762582
 21
190.245252624974
 31
0.0
  0
LINE
  5
144
  8
0
 10
120.5879046762582
 20
211.20461614687409
 30
0.0
 11
120.5879046762582
 21
220.86387440976421
 31
0.0
  0
LINE
  5
145
  8
0
 10
120.5879046762582
 20
196.9695686662364
 30
0.0
 11
120.5879046762582
 21
204.04063647810131
 31
0.0
  0
LINE
  5
146
  8
0
 10
119.5879046762589
 20
221.12545575541989
 30
0.0
 11
151.0879046762582
 21
221.12545575541989
 31
0.0
  0
LINE
  5
147
  8
0
 10
119.5879046762589
 20
204.75529000474489
 30
0.0
 11
151.0879046762582
 21
204.75529000474489
 31
0.0
  0
LINE
  5
148
  8
0
 10
119.5879046762589
 20
193.80967794829931
 30
0.0
 11
151.0879046762582
 21
193.80967794829871
 31
0.0
  0
LINE
  5
149
  8
0
 10
120.58790467625811
 20
220.86387440976421
 30
0.0
 11
119.5879046762589
 21
221.12545575541989
 31
0.0
  0
LINE
  5
14A
  8
0
 10
120.5879046762582
 20
211.20461614687409
 30
0.0
 11
119.5879046762589
 21
211.46619749252949
 31
0.0
  0
LINE
  5
14B
  8
0
 10
120.5879046762582
 20
204.04063647810131
 30
0.0
 11
119.5879046762589
 21
204.75529000474509
 31
0.0
  0
LINE
  5
14C
  8
0
 10
120.5879046762582
 20
196.9695686662364
 30
0.0
 11
119.5879046762589
 21
197.68422219287999
 31
0.0
  0
LINE
  5
14D
  8
0
 10
120.58790467625811
 20
192.83344307599961
 30
0.0
 11
119.5879046762589
 21
193.80967794829931
 31
0.0
  0
LINE
  5
14E
  8
0
 10
120.5879046762582
 20
190.2452526249742
 30
0.0
 11
119.5879046762589
 21
191.2214874972737
 31
0.0
  0
LINE
  5
14F
  8
0
 10
119.5879046762589
 20
204.75529000474509
 30
0.0
 11
119.5879046762589
 21
211.46619749252949
 31
0.0
  0
LINE
  5
150
  8
0
 10
119.5879046762589
 20
193.80967794829931
 30
0.0
 11
119.5879046762589
 21
197.68422219287999
 31
0.0
  0
LINE
  5
151
  8
0
 10
119.5879046762589
 20
256.19032205170038
 30
0.0
 11
119.5879046762589
 21
252.31577780711979
 31
0.0
  0
LINE
  5
152
  8
0
 10
119.5879046762589
 20
245.24470999525479
 30
0.0
 11
119.5879046762589
 21
238.5338025074704
 31
0.0
  0
LINE
  5
153
  8
0
 10
119.5879046762589
 20
228.87454424457991
 30
0.0
 11
119.5879046762589
 21
221.12545575542009
 31
0.0
  0
LINE
  5
154
  8
0
 10
120.5879046762582
 20
259.75474737502572
 30
0.0
 11
119.5879046762589
 21
258.7785125027259
 31
0.0
  0
LINE
  5
155
  8
0
 10
120.58790467625811
 20
257.16655692400008
 30
0.0
 11
119.5879046762589
 21
256.19032205170038
 31
0.0
  0
LINE
  5
156
  8
0
 10
120.5879046762582
 20
253.03043133376329
 30
0.0
 11
119.5879046762589
 21
252.31577780711979
 31
0.0
  0
LINE
  5
157
  8
0
 10
120.5879046762582
 20
245.9593635218985
 30
0.0
 11
119.5879046762589
 21
245.24470999525479
 31
0.0
  0
LINE
  5
158
  8
0
 10
120.5879046762582
 20
238.79538385312571
 30
0.0
 11
119.5879046762589
 21
238.5338025074704
 31
0.0
  0
LINE
  5
159
  8
0
 10
120.58790467625811
 20
229.13612559023559
 30
0.0
 11
119.5879046762589
 21
228.87454424457991
 31
0.0
  0
LINE
  5
15A
  8
0
 10
119.5879046762589
 20
256.19032205170038
 30
0.0
 11
151.0879046762582
 21
256.19032205170112
 31
0.0
  0
LINE
  5
15B
  8
0
 10
119.5879046762589
 20
245.24470999525491
 30
0.0
 11
151.0879046762582
 21
245.24470999525491
 31
0.0
  0
LINE
  5
15C
  8
0
 10
119.5879046762589
 20
228.87454424457991
 30
0.0
 11
151.0879046762582
 21
228.87454424457991
 31
0.0
  0
LINE
  5
15D
  8
0
 10
120.5879046762582
 20
253.03043133376329
 30
0.0
 11
120.5879046762582
 21
245.9593635218985
 31
0.0
  0
LINE
  5
15E
  8
0
 10
120.5879046762582
 20
238.79538385312571
 30
0.0
 11
120.5879046762582
 21
229.13612559023559
 31
0.0
  0
LINE
  5
15F
  8
0
 10
120.5879046762582
 20
259.75474737502572
 30
0.0
 11
151.0879046762582
 21
259.75474737502572
 31
0.0
  0
LINE
  5
160
  8
0
 10
120.5879046762582
 20
257.1665569240003
 30
0.0
 11
151.0879046762582
 21
257.16655692400019
 31
0.0
  0
LINE
  5
161
  8
0
 10
120.5879046762582
 20
253.03043133376329
 30
0.0
 11
151.0879046762582
 21
253.03043133376329
 31
0.0
  0
LINE
  5
162
  8
0
 10
120.5879046762582
 20
245.9593635218985
 30
0.0
 11
151.0879046762582
 21
245.9593635218985
 31
0.0
  0
LINE
  5
163
  8
0
 10
120.5879046762582
 20
238.79538385312571
 30
0.0
 11
151.0879046762582
 21
238.79538385312591
 31
0.0
  0
LINE
  5
164
  8
0
 10
120.5879046762582
 20
229.13612559023559
 30
0.0
 11
151.0879046762582
 21
229.13612559023559
 31
0.0
  0
LINE
  5
165
  8
0
 10
119.5879046762589
 20
259.0000000000008
 30
0.0
 11
119.5879046762589
 21
258.77851250272607
 31
0.0
  0
LINE
  5
166
  8
0
 10
120.5879046762582
 20
259.75474737502572
 30
0.0
 11
120.58790467625811
 21
257.1665569240003
 31
0.0
  0
LINE
  5
167
  8
0
 10
151.0879046762582
 20
259.75474737502572
 30
0.0
 11
151.0879046762582
 21
190.245252624974
 31
0.0
  0
LINE
  5
168
  8
0
 10
117.5879046762582
 20
257.00000000000011
 30
0.0
 11
117.5879046762582
 21
192.99999999999989
 31
0.0
  0
LINE
  5
169
  8
0
 10
117.5879046762582
 20
257.00000000000011
 30
0.0
 11
119.5879046762589
 21
259.00000000000068
 31
0.0
  0
LINE
  5
16A
  8
0
 10
165.587904676259
 20
241.99999999999989
 30
0.0
 11
167.58790467625889
 21
241.99999999999989
 31
0.0
  0
LINE
  5
16B
  8
0
 10
165.587904676259
 20
207.99999999999989
 30
0.0
 11
167.587904676259
 21
207.99999999999989
 31
0.0
  0
LINE
  5
16C
  8
0
 10
167.587904676259
 20
241.99999999999989
 30
0.0
 11
167.587904676259
 21
207.99999999999989
 31
0.0
  0
LINE
  5
16D
  8
0
 10
117.0879046762582
 20
39.530453240377383
 30
0.0
 11
117.58790467625801
 21
39.530453240377383
 31
0.0
  0
LINE
  5
16E
  8
0
 10
117.0879046762582
 20
52.0213203435598
 30
0.0
 11
117.58790467625801
 21
52.021320343559822
 31
0.0
  0
LINE
  5
16F
  8
0
 10
117.0879046762582
 20
54.354772721475364
 30
0.0
 11
117.58790467625801
 21
54.354772721475328
 31
0.0
  0
LINE
  5
170
  8
0
 10
117.08790467625811
 20
67.766147160749014
 30
0.0
 11
117.58790467625801
 21
67.766147160749014
 31
0.0
  0
LINE
  5
171
  8
0
 10
117.0879046762582
 20
155.06137443927341
 30
0.0
 11
117.58790467625811
 21
155.06137443927341
 31
0.0
  0
LINE
  5
172
  8
0
 10
117.0879046762583
 20
141.65000000000001
 30
0.0
 11
117.58790467625811
 21
141.65000000000001
 31
0.0
  0
LINE
  5
173
  8
0
 10
117.0879046762583
 20
138.34999999999999
 30
0.0
 11
117.58790467625811
 21
138.34999999999999
 31
0.0
  0
LINE
  5
174
  8
0
 10
117.0879046762583
 20
124.93862556072661
 30
0.0
 11
117.58790467625811
 21
124.93862556072661
 31
0.0
  0
LINE
  5
175
  8
0
 10
117.0879046762583
 20
212.23385283925111
 30
0.0
 11
117.5879046762582
 21
212.23385283925111
 31
0.0
  0
LINE
  5
176
  8
0
 10
117.0879046762583
 20
225.64522727852469
 30
0.0
 11
117.5879046762582
 21
225.6452272785248
 31
0.0
  0
LINE
  5
177
  8
0
 10
117.0879046762583
 20
227.97867965644031
 30
0.0
 11
117.5879046762582
 21
227.97867965644019
 31
0.0
  0
LINE
  5
178
  8
0
 10
117.0879046762584
 20
240.46954675962269
 30
0.0
 11
117.5879046762582
 21
240.46954675962269
 31
0.0
  0
LINE
  5
179
  8
0
 10
117.0879046762582
 20
202.0
 30
0.0
 11
117.5879046762582
 21
202.0
 31
0.0
  0
LINE
  5
17A
  8
0
 10
117.0879046762584
 20
248.0
 30
0.0
 11
117.5879046762582
 21
248.0
 31
0.0
  0
LINE
  5
17B
  8
0
 10
117.0879046762584
 20
248.0
 30
0.0
 11
117.0879046762582
 21
202.0
 31
0.0
  0
LINE
  5
17C
  8
0
 10
347.5879046762592
 20
137.40000000000001
 30
0.0
 11
347.5879046762592
 21
142.59999999999999
 31
0.0
  0
LINE
  5
17D
  8
0
 10
180.58790467625909
 20
142.59999999999999
 30
0.0
 11
347.5879046762592
 21
142.60000000000011
 31
0.0
  0
LINE
  5
17E
  8
0
 10
180.58790467625909
 20
137.40000000000001
 30
0.0
 11
347.58790467625931
 21
137.40000000000001
 31
0.0
  0
LINE
  5
17F
  8
0
 10
347.58790467625892
 20
223.74999999999989
 30
0.0
 11
347.58790467625897
 21
226.24999999999989
 31
0.0
  0
LINE
  5
180
  8
0
 10
180.58790467625909
 20
226.24999999999989
 30
0.0
 11
347.58790467625909
 21
226.24999999999989
 31
0.0
  0
LINE
  5
181
  8
0
 10
180.58790467625909
 20
223.74999999999989
 30
0.0
 11
347.58790467625909
 21
223.74999999999989
 31
0.0
  0
LINE
  5
182
  8
0
 10
180.58790467625889
 20
53.750000000000107
 30
0.0
 11
347.58790467625943
 21
53.750000000000078
 31
0.0
  0
LINE
  5
183
  8
0
 10
180.58790467625889
 20
56.250000000000107
 30
0.0
 11
347.58790467625943
 21
56.250000000000099
 31
0.0
  0
LINE
  5
184
  8
0
 10
347.58790467625931
 20
53.750000000000092
 30
0.0
 11
347.58790467625943
 21
56.250000000000121
 31
0.0
  0
INSERT
  5
1F4
  8
0
  2
BATU
 10
0.0
 20
0.0
 30
0.0
 41
0.001
 42
0.001
 43
0.001
  0
TEXT
  5
301
  8
0
 62
     3
 10
0.0
 20
0.0
 30
0.0
 40
10.0
  1
PR-3/4TG
  7
STANDARD1
  0
ENDSEC
  0
EOF
