  0
SECTION
  2
HEADER
  9
$ACADVER
  1
AC1009
  9
$INSBASE
 10
0.0
 20
0.0
 30
0.0
  9
$EXTMIN
 10
0.0
 20
-2.960436562073669
 30
0.0
  9
$EXTMAX
 10
351.00231473846958
 20
254.75474737502611
 30
0.0
  9
$LIMMIN
 10
0.0
 20
0.0
  9
$LIMMAX
 10
375.0
 20
270.0
  9
$ORTHOMODE
 70
     1
  9
$REGENMODE
 70
     1
  9
$FILLMODE
 70
     1
  9
$QTEXTMODE
 70
     0
  9
$MIRRTEXT
 70
     0
  9
$DRAGMODE
 70
     2
  9
$LTSCALE
 40
10.0
  9
$OSMODE
 70
  3071
  9
$ATTMODE
 70
     1
  9
$TEXTSIZE
 40
0.2
  9
$TRACEWID
 40
0.05
  9
$TEXTSTYLE
  7
STANDARD
  9
$CLAYER
  8
0
  9
$CELTYPE
  6
BYLAYER
  9
$CECOLOR
 62
   256
  9
$DIMSCALE
 40
1.0
  9
$DIMASZ
 40
3.0
  9
$DIMEXO
 40
2.0
  9
$DIMDLI
 40
0.38
  9
$DIMRND
 40
0.0
  9
$DIMDLE
 40
0.0
  9
$DIMEXE
 40
2.0
  9
$DIMTP
 40
0.0
  9
$DIMTM
 40
0.0
  9
$DIMTXT
 40
3.2000000000000002
  9
$DIMCEN
 40
0.0
  9
$DIMTSZ
 40
0.0
  9
$DIMTOL
 70
     0
  9
$DIMLIM
 70
     0
  9
$DIMTIH
 70
     0
  9
$DIMTOH
 70
     0
  9
$DIMSE1
 70
     0
  9
$DIMSE2
 70
     0
  9
$DIMTAD
 70
     1
  9
$DIMZIN
 70
     0
  9
$DIMBLK
  1

  9
$DIMASO
 70
     1
  9
$DIMSHO
 70
     0
  9
$DIMPOST
  1

  9
$DIMAPOST
  1

  9
$DIMALT
 70
     0
  9
$DIMALTD
 70
     2
  9
$DIMALTF
 40
25.399999999999999
  9
$DIMLFAC
 40
1.0
  9
$DIMTOFL
 70
     1
  9
$DIMTVP
 40
1.6000000000000001
  9
$DIMTIX
 70
     1
  9
$DIMSOXD
 70
     0
  9
$DIMSAH
 70
     0
  9
$DIMBLK1
  1

  9
$DIMBLK2
  1

  9
$DIMSTYLE
  2
STANDARD
  9
$DIMCLRD
 70
     0
  9
$DIMCLRE
 70
     0
  9
$DIMCLRT
 70
     0
  9
$DIMTFAC
 40
1.0
  9
$DIMGAP
 40
0.09
  9
$LUNITS
 70
     2
  9
$LUPREC
 70
     4
  9
$SKETCHINC
 40
0.1
  9
$FILLETRAD
 40
0.0
  9
$AUNITS
 70
     0
  9
$AUPREC
 70
     4
  9
$MENU
  1
E:\r13\win\SUPPORT\ACAD
  9
$ELEVATION
 40
0.0
  9
$PELEVATION
 40
0.0
  9
$THICKNESS
 40
0.0
  9
$LIMCHECK
 70
     0
  9
$BLIPMODE
 70
     0
  9
$CHAMFERA
 40
0.0
  9
$CHAMFERB
 40
0.0
  9
$SKPOLY
 70
     0
  9
$TDCREATE
 40
2449839.7938078698
  9
$TDUPDATE
 40
2456597.728044109
  9
$TDINDWG
 40
0.0001823264
  9
$TDUSRTIMER
 40
0.0001823264
  9
$USRTIMER
 70
     1
  9
$ANGBASE
 50
0.0
  9
$ANGDIR
 70
     0
  9
$PDMODE
 70
     0
  9
$PDSIZE
 40
0.0
  9
$PLINEWID
 40
0.0
  9
$COORDS
 70
     1
  9
$SPLFRAME
 70
     0
  9
$SPLINETYPE
 70
     6
  9
$SPLINESEGS
 70
     8
  9
$ATTDIA
 70
     0
  9
$ATTREQ
 70
     1
  9
$HANDLING
 70
     1
  9
$HANDSEED
  5
5C2
  9
$SURFTAB1
 70
     6
  9
$SURFTAB2
 70
     6
  9
$SURFTYPE
 70
     6
  9
$SURFU
 70
     6
  9
$SURFV
 70
     6
  9
$UCSNAME
  2

  9
$UCSORG
 10
0.0
 20
0.0
 30
0.0
  9
$UCSXDIR
 10
1.0
 20
0.0
 30
0.0
  9
$UCSYDIR
 10
0.0
 20
1.0
 30
0.0
  9
$PUCSNAME
  2

  9
$PUCSORG
 10
0.0
 20
0.0
 30
0.0
  9
$PUCSXDIR
 10
1.0
 20
0.0
 30
0.0
  9
$PUCSYDIR
 10
0.0
 20
1.0
 30
0.0
  9
$USERI1
 70
     0
  9
$USERI2
 70
     1
  9
$USERI3
 70
     1
  9
$USERI4
 70
     0
  9
$USERI5
 70
     0
  9
$USERR1
 40
0.0
  9
$USERR2
 40
0.0
  9
$USERR3
 40
0.0
  9
$USERR4
 40
0.0
  9
$USERR5
 40
0.0
  9
$WORLDVIEW
 70
     1
  9
$SHADEDGE
 70
     3
  9
$SHADEDIF
 70
    70
  9
$TILEMODE
 70
     1
  9
$MAXACTVP
 70
    16
  9
$PLIMCHECK
 70
     0
  9
$PEXTMIN
 10
1.0000000000000000E+020
 20
1.0000000000000000E+020
 30
1.0000000000000000E+020
  9
$PEXTMAX
 10
-1.0000000000000000E+020
 20
-1.0000000000000000E+020
 30
-1.0000000000000000E+020
  9
$PLIMMIN
 10
0.0
 20
0.0
  9
$PLIMMAX
 10
12.0
 20
9.0
  9
$UNITMODE
 70
     0
  9
$VISRETAIN
 70
     0
  9
$PLINEGEN
 70
     0
  9
$PSLTSCALE
 70
     0
  0
ENDSEC
  0
SECTION
  2
TABLES
  0
TABLE
  2
VPORT
 70
     1
  0
VPORT
  2
*ACTIVE
 70
     0
 10
0.0
 20
0.0
 11
1.0
 21
1.0
 12
187.4942783906524
 22
149.37525922376949
 13
0.0
 23
0.0
 14
10.0
 24
10.0
 15
10.0
 25
10.0
 16
0.0
 26
0.0
 36
1.0
 17
0.0
 27
0.0
 37
0.0
 40
308.52635987286669
 41
2.304913294797688
 42
50.0
 43
0.0
 44
0.0
 50
0.0
 51
0.0
 71
     0
 72
   500
 73
     1
 74
     0
 75
     0
 76
     0
 77
     0
 78
     2
  0
ENDTAB
  0
TABLE
  2
LTYPE
 70
     4
  0
LTYPE
  2
CONTINUOUS
 70
     0
  3
Solid Line
 72
    65
 73
     0
 40
0.0
  0
LTYPE
  2
CENTER
 70
     0
  3
____ _ ____ _ ____ _ ____ _ ____ _ ____ _ ____
 72
    65
 73
     4
 40
2.0
 49
1.25
 49
-0.25
 49
0.25
 49
-0.25
  0
LTYPE
  2
HIDDEN
 70
     0
  3
_ _ _ _ _ _ _ _ _ _ _ _ _ _ _ _ _ _ _ _ _ _ _
 72
    65
 73
     2
 40
0.375
 49
0.25
 49
-0.125
  0
LTYPE
  2
PHANTOM2
 70
     0
  3
___ _ _ ___ _ _ ___ _ _ ___ _ _
 72
    65
 73
     6
 40
1.25
 49
0.625
 49
-0.125
 49
0.125
 49
-0.125
 49
0.125
 49
-0.125
  0
ENDTAB
  0
TABLE
  2
LAYER
 70
     4
  0
LAYER
  2
0
 70
     0
 62
     7
  6
CONTINUOUS
  0
LAYER
  2
1
 70
     0
 62
     1
  6
CENTER
  0
LAYER
  2
2
 70
     0
 62
     2
  6
HIDDEN
  0
LAYER
  2
3
 70
     0
 62
     3
  6
CONTINUOUS
  0
ENDTAB
  0
TABLE
  2
STYLE
 70
     3
  0
STYLE
  2
STANDARD
 70
     0
 40
0.0
 41
1.0
 50
0.0
 71
     0
 42
0.2
  3
TXT
  4
BIGFONT
  0
STYLE
  2
SIM080
 70
     0
 40
0.0
 41
0.8
 50
0.0
 71
     0
 42
3.2000000000000002
  3
SIMPLEX
  4

  0
STYLE
  2
STANDARD1
 70
     0
 40
0.0
 41
1.0
 50
0.0
 71
     0
 42
3.0
  3
txt
  4

  0
ENDTAB
  0
TABLE
  2
VIEW
 70
     1
  0
VIEW
  2
ALL
 70
     0
 40
270.0
 10
220.99159663865549
 20
135.0
 41
0.0
 11
0.0
 21
0.0
 31
1.0
 12
0.0
 22
0.0
 32
0.0
 42
0.0
 43
0.0
 44
0.0
 50
0.0
 71
     0
  0
ENDTAB
  0
TABLE
  2
UCS
 70
     0
  0
ENDTAB
  0
TABLE
  2
APPID
 70
     3
  0
APPID
  2
ACAD
 70
     0
  0
APPID
  2
ACAD_MLEADERVER
 70
     0
  0
APPID
  2
ACAD_NAV_VCDISPLAY
 70
     0
  0
ENDTAB
  0
TABLE
  2
DIMSTYLE
 70
     1
  0
DIMSTYLE
  2
STANDARD
 70
     0
  3

  4

  5

  6

  7

 40
1.0
 41
0.18
 42
0.0625
 43
0.38
 44
0.18
 45
0.0
 46
0.0
 47
0.0
 48
0.0
140
0.18
141
0.09
142
0.0
143
25.399999999999999
144
1.0
145
0.0
146
1.0
147
0.09
 71
     0
 72
     0
 73
     1
 74
     1
 75
     0
 76
     0
 77
     0
 78
     0
170
     0
171
     2
172
     0
173
     0
174
     0
175
     0
176
     0
177
     0
178
     0
  0
ENDTAB
  0
ENDSEC
  0
SECTION
  2
BLOCKS
  0
BLOCK
  8
0
  2
$MODEL_SPACE
 70
     0
 10
0.0
 20
0.0
 30
0.0
  3
$MODEL_SPACE
  1

  0
ENDBLK
  5
441
  8
0
  0
BLOCK
 67
     1
  8
0
  2
$PAPER_SPACE
 70
     0
 10
0.0
 20
0.0
 30
0.0
  3
$PAPER_SPACE
  1

  0
ENDBLK
  5
43F
 67
     1
  8
0
  0
ENDSEC
  0
SECTION
  2
ENTITIES
  0
LINE
  5
37
  8
0
 10
159.5879046762592
 20
247.75
 30
0.0
 11
162.58790467625909
 21
247.75
 31
0.0
  0
LINE
  5
38
  8
0
 10
159.5879046762592
 20
192.25
 30
0.0
 11
162.5879046762592
 21
192.25
 31
0.0
  0
LINE
  5
39
  8
0
 10
162.58790467625909
 20
192.25
 30
0.0
 11
162.5879046762592
 21
247.75
 31
0.0
  0
LINE
  5
3A
  8
0
 10
162.58790467625909
 20
112.25
 30
0.0
 11
162.58790467625909
 21
167.75
 31
0.0
  0
LINE
  5
3B
  8
0
 10
159.58790467625909
 20
167.75
 30
0.0
 11
162.58790467625909
 21
167.75
 31
0.0
  0
LINE
  5
3C
  8
0
 10
159.58790467625909
 20
112.25
 30
0.0
 11
162.58790467625909
 21
112.25
 31
0.0
  0
LINE
  5
3D
  8
1
 10
112.0879046762584
 20
220.0
 30
0.0
 11
178.5879046762592
 21
220.0
 31
0.0
  0
LINE
  5
3E
  8
0
 10
159.5879046762592
 20
185.75000000000011
 30
0.0
 11
159.58790467625909
 21
254.25000000000011
 31
0.0
  0
LINE
  5
3F
  8
0
 10
159.5879046762592
 20
185.75000000000011
 30
0.0
 11
156.08790467625909
 21
185.75000000000011
 31
0.0
  0
LINE
  5
40
  8
0
 10
159.5879046762592
 20
254.25000000000011
 30
0.0
 11
156.08790467625909
 21
254.25
 31
0.0
  0
LINE
  5
41
  8
0
 10
156.08790467625909
 20
185.75000000000011
 30
0.0
 11
156.08790467625909
 21
254.25000000000011
 31
0.0
  0
LINE
  5
42
  8
0
 10
156.087904676259
 20
199.0
 30
0.0
 11
151.08790467625809
 21
199.0
 31
0.0
  0
LINE
  5
43
  8
0
 10
156.087904676259
 20
241.0
 30
0.0
 11
151.08790467625809
 21
241.0
 31
0.0
  0
LINE
  5
44
  8
0
 10
151.0879046762582
 20
251.50000000000031
 30
0.0
 11
156.0879046762573
 21
251.50000000000031
 31
0.0
  0
LINE
  5
45
  8
0
 10
151.0879046762582
 20
188.4999999999998
 30
0.0
 11
156.0879046762573
 21
188.4999999999998
 31
0.0
  0
LINE
  5
46
  8
0
 10
156.08790467625909
 20
218.75
 30
0.0
 11
151.0879046762582
 21
218.75
 31
0.0
  0
LINE
  5
47
  8
0
 10
156.08790467625909
 20
221.25
 30
0.0
 11
151.0879046762582
 21
221.25
 31
0.0
  0
LINE
  5
48
  8
0
 10
172.0879046762592
 20
200.75
 30
0.0
 11
162.58790467625909
 21
200.75
 31
0.0
  0
LINE
  5
49
  8
0
 10
172.0879046762592
 20
239.25
 30
0.0
 11
162.5879046762592
 21
239.25
 31
0.0
  0
LINE
  5
4A
  8
0
 10
173.58790467625909
 20
202.25
 30
0.0
 11
173.58790467625909
 21
237.75
 31
0.0
  0
ARC
  5
4B
  8
0
 10
172.0879046762592
 20
202.25
 30
0.0
 40
1.5
 50
270.0
 51
360.0
  0
ARC
  5
4C
  8
0
 10
172.0879046762592
 20
237.75
 30
0.0
 40
1.5
 50
360.0
 51
90.000000000000227
  0
LINE
  5
4D
  8
0
 10
169.2879046762591
 20
214.5
 30
0.0
 11
169.2879046762591
 21
225.5
 31
0.0
  0
LINE
  5
4E
  8
0
 10
168.48790467625921
 20
214.50000000000011
 30
0.0
 11
168.48790467625921
 21
225.5
 31
0.0
  0
LINE
  5
4F
  8
0
 10
117.58790467625811
 20
252.0000000000004
 30
0.0
 11
119.5879046762588
 21
254.00000000000111
 31
0.0
  0
LINE
  5
50
  8
0
 10
120.58790467625811
 20
254.75474737502589
 30
0.0
 11
120.58790467625801
 21
252.1665569240005
 31
0.0
  0
LINE
  5
51
  8
0
 10
119.5879046762588
 20
254.00000000000111
 30
0.0
 11
119.5879046762588
 21
253.77851250272639
 31
0.0
  0
LINE
  5
52
  8
0
 10
120.58790467625811
 20
224.13612559023591
 30
0.0
 11
151.08790467625809
 21
224.13612559023591
 31
0.0
  0
LINE
  5
53
  8
0
 10
120.58790467625811
 20
233.795383853126
 30
0.0
 11
151.08790467625809
 21
233.7953838531262
 31
0.0
  0
LINE
  5
54
  8
0
 10
120.58790467625811
 20
240.95936352189889
 30
0.0
 11
151.08790467625809
 21
240.95936352189889
 31
0.0
  0
LINE
  5
55
  8
0
 10
120.58790467625811
 20
248.03043133376369
 30
0.0
 11
151.08790467625809
 21
248.03043133376369
 31
0.0
  0
LINE
  5
56
  8
0
 10
120.58790467625811
 20
252.1665569240005
 30
0.0
 11
151.08790467625809
 21
252.1665569240005
 31
0.0
  0
LINE
  5
57
  8
0
 10
120.58790467625811
 20
254.75474737502589
 30
0.0
 11
151.08790467625809
 21
254.75474737502611
 31
0.0
  0
LINE
  5
58
  8
0
 10
120.58790467625811
 20
233.795383853126
 30
0.0
 11
120.58790467625811
 21
224.13612559023591
 31
0.0
  0
LINE
  5
59
  8
0
 10
120.58790467625811
 20
248.03043133376369
 30
0.0
 11
120.58790467625811
 21
240.95936352189889
 31
0.0
  0
LINE
  5
5A
  8
0
 10
119.5879046762588
 20
223.87454424458019
 30
0.0
 11
151.08790467625809
 21
223.87454424458019
 31
0.0
  0
LINE
  5
5B
  8
0
 10
119.5879046762588
 20
240.24470999525519
 30
0.0
 11
151.08790467625809
 21
240.24470999525519
 31
0.0
  0
LINE
  5
5C
  8
0
 10
119.5879046762588
 20
251.19032205170069
 30
0.0
 11
151.08790467625809
 21
251.1903220517014
 31
0.0
  0
LINE
  5
5D
  8
0
 10
120.58790467625801
 20
224.13612559023591
 30
0.0
 11
119.5879046762588
 21
223.87454424458019
 31
0.0
  0
LINE
  5
5E
  8
0
 10
120.58790467625811
 20
233.795383853126
 30
0.0
 11
119.5879046762588
 21
233.53380250747071
 31
0.0
  0
LINE
  5
5F
  8
0
 10
120.58790467625811
 20
240.95936352189889
 30
0.0
 11
119.5879046762588
 21
240.24470999525499
 31
0.0
  0
LINE
  5
60
  8
0
 10
120.58790467625811
 20
248.03043133376369
 30
0.0
 11
119.5879046762588
 21
247.3157778071201
 31
0.0
  0
LINE
  5
61
  8
0
 10
120.58790467625801
 20
252.1665569240005
 30
0.0
 11
119.5879046762588
 21
251.19032205170069
 31
0.0
  0
LINE
  5
62
  8
0
 10
120.58790467625811
 20
254.75474737502589
 30
0.0
 11
119.5879046762588
 21
253.77851250272639
 31
0.0
  0
LINE
  5
63
  8
0
 10
119.5879046762588
 20
240.24470999525499
 30
0.0
 11
119.5879046762588
 21
233.53380250747071
 31
0.0
  0
LINE
  5
64
  8
0
 10
119.5879046762588
 20
251.19032205170069
 30
0.0
 11
119.5879046762588
 21
247.3157778071201
 31
0.0
  0
LINE
  5
65
  8
0
 10
119.5879046762588
 20
188.80967794829959
 30
0.0
 11
119.5879046762588
 21
192.6842221928803
 31
0.0
  0
LINE
  5
66
  8
0
 10
119.5879046762588
 20
199.7552900047454
 30
0.0
 11
119.5879046762588
 21
206.4661974925298
 31
0.0
  0
LINE
  5
67
  8
0
 10
119.5879046762588
 20
216.12545575542029
 30
0.0
 11
119.5879046762588
 21
223.87454424457999
 31
0.0
  0
LINE
  5
68
  8
0
 10
120.58790467625811
 20
185.24525262497451
 30
0.0
 11
119.5879046762588
 21
186.2214874972741
 31
0.0
  0
LINE
  5
69
  8
0
 10
120.58790467625801
 20
187.8334430759999
 30
0.0
 11
119.5879046762588
 21
188.80967794829959
 31
0.0
  0
LINE
  5
6A
  8
0
 10
120.58790467625811
 20
191.96956866623671
 30
0.0
 11
119.5879046762588
 21
192.6842221928803
 31
0.0
  0
LINE
  5
6B
  8
0
 10
120.58790467625811
 20
199.04063647810159
 30
0.0
 11
119.5879046762588
 21
199.7552900047454
 31
0.0
  0
LINE
  5
6C
  8
0
 10
120.58790467625811
 20
206.20461614687429
 30
0.0
 11
119.5879046762588
 21
206.4661974925298
 31
0.0
  0
LINE
  5
6D
  8
0
 10
120.58790467625801
 20
215.86387440976461
 30
0.0
 11
119.5879046762588
 21
216.12545575542029
 31
0.0
  0
LINE
  5
6E
  8
0
 10
119.5879046762588
 20
188.80967794829959
 30
0.0
 11
151.08790467625809
 21
188.80967794829891
 31
0.0
  0
LINE
  5
6F
  8
0
 10
119.5879046762588
 20
199.75529000474521
 30
0.0
 11
151.08790467625809
 21
199.75529000474521
 31
0.0
  0
LINE
  5
70
  8
0
 10
119.5879046762588
 20
216.12545575542029
 30
0.0
 11
151.08790467625809
 21
216.12545575542029
 31
0.0
  0
LINE
  5
71
  8
0
 10
120.58790467625811
 20
191.9695686662368
 30
0.0
 11
120.58790467625811
 21
199.04063647810159
 31
0.0
  0
LINE
  5
72
  8
0
 10
120.58790467625811
 20
206.20461614687429
 30
0.0
 11
120.58790467625811
 21
215.86387440976461
 31
0.0
  0
LINE
  5
73
  8
0
 10
120.58790467625811
 20
185.24525262497451
 30
0.0
 11
151.08790467625809
 21
185.24525262497431
 31
0.0
  0
LINE
  5
74
  8
0
 10
120.58790467625811
 20
187.8334430759999
 30
0.0
 11
151.08790467625809
 21
187.8334430759999
 31
0.0
  0
LINE
  5
75
  8
0
 10
120.58790467625811
 20
191.96956866623671
 30
0.0
 11
151.08790467625809
 21
191.9695686662368
 31
0.0
  0
LINE
  5
76
  8
0
 10
120.58790467625811
 20
199.04063647810159
 30
0.0
 11
151.08790467625809
 21
199.04063647810159
 31
0.0
  0
LINE
  5
77
  8
0
 10
120.58790467625811
 20
206.20461614687429
 30
0.0
 11
151.08790467625809
 21
206.20461614687429
 31
0.0
  0
LINE
  5
78
  8
0
 10
120.58790467625811
 20
215.86387440976461
 30
0.0
 11
151.08790467625809
 21
215.86387440976461
 31
0.0
  0
LINE
  5
79
  8
0
 10
119.5879046762588
 20
185.99999999999929
 30
0.0
 11
119.5879046762588
 21
186.22148749727401
 31
0.0
  0
LINE
  5
7A
  8
0
 10
120.58790467625811
 20
185.24525262497451
 30
0.0
 11
120.58790467625801
 21
187.8334430759999
 31
0.0
  0
LINE
  5
7B
  8
0
 10
151.08790467625809
 20
185.24525262497431
 30
0.0
 11
151.08790467625809
 21
254.75474737502611
 31
0.0
  0
LINE
  5
7C
  8
0
 10
117.58790467625811
 20
188.0
 30
0.0
 11
117.58790467625811
 21
252.00000000000011
 31
0.0
  0
LINE
  5
7D
  8
0
 10
117.58790467625811
 20
188.0
 30
0.0
 11
119.5879046762588
 21
185.99999999999929
 31
0.0
  0
LINE
  5
7E
  8
0
 10
117.0879046762583
 20
204.93862556072671
 30
0.0
 11
117.0879046762582
 21
235.06137443927349
 31
0.0
  0
LINE
  5
7F
  8
1
 10
10.000000000000011
 20
140.0
 30
0.0
 11
90.000000000000028
 21
140.0
 31
0.0
  0
LINE
  5
80
  8
1
 10
50.000000000000028
 20
180.0
 30
0.0
 11
50.000000000000028
 21
100.0
 31
0.0
  0
ARC
  5
81
  8
0
 10
50.000000000000028
 20
140.0
 30
0.0
 40
35.0
 50
186.7867892982614
 51
203.21321070173809
  0
ARC
  5
82
  8
0
 10
50.000000000000028
 20
140.0
 30
0.0
 40
34.0
 50
203.456519335271
 51
216.5434806647298
  0
LINE
  5
83
  8
0
 10
17.833443076000052
 20
126.2046161468741
 30
0.0
 11
18.809677948300092
 21
126.4661974925299
 31
0.0
  0
LINE
  5
84
  8
0
 10
15.245252624976461
 20
135.86387440976509
 30
0.0
 11
16.221487497274911
 21
136.1254557554206
 31
0.0
  0
LINE
  5
85
  8
0
 10
21.969568666236519
 20
119.0406364781019
 30
0.0
 11
22.684222192879488
 21
119.75529000474501
 31
0.0
  0
LINE
  5
86
  8
0
 10
29.040636478100812
 20
111.9695686662353
 30
0.0
 11
29.755290004745021
 21
112.6842221928794
 31
0.0
  0
ARC
  5
87
  8
0
 10
50.000000000000028
 20
140.0
 30
0.0
 40
35.0
 50
216.78678929826151
 51
233.21321070173809
  0
LINE
  5
88
  8
0
 10
36.204616146874528
 20
107.8334430760016
 30
0.0
 11
36.466197492530021
 21
108.80967794830011
 31
0.0
  0
LINE
  5
89
  8
0
 10
45.863874409764669
 20
105.2452526249749
 30
0.0
 11
46.125455755420667
 21
106.22148749727489
 31
0.0
  0
ARC
  5
8A
  8
0
 10
50.000000000000028
 20
140.0
 30
0.0
 40
35.0
 50
246.78678929826151
 51
263.21321070173809
  0
LINE
  5
8B
  8
0
 10
54.136125590234911
 20
105.2452526249765
 30
0.0
 11
53.874544244579418
 21
106.22148749727501
 31
0.0
  0
LINE
  5
8C
  8
0
 10
63.795383853125969
 20
107.83344307600009
 30
0.0
 11
63.533802507470142
 21
108.80967794830011
 31
0.0
  0
ARC
  5
8D
  8
0
 10
50.000000000000028
 20
140.0
 30
0.0
 40
35.0
 50
276.7867892982614
 51
293.21321070173809
  0
LINE
  5
8E
  8
0
 10
70.959363521898155
 20
111.9695686662365
 30
0.0
 11
70.244709995255135
 21
112.6842221928795
 31
0.0
  0
LINE
  5
8F
  8
0
 10
78.03043133376471
 20
119.04063647810069
 30
0.0
 11
77.315777807120668
 21
119.75529000474501
 31
0.0
  0
ARC
  5
90
  8
0
 10
50.000000000000028
 20
140.0
 30
0.0
 40
35.0
 50
306.78678929826151
 51
323.21321070173809
  0
LINE
  5
91
  8
0
 10
82.166556923998385
 20
126.2046161468745
 30
0.0
 11
81.190322051699951
 21
126.46619749253
 31
0.0
  0
LINE
  5
92
  8
0
 10
84.754747375025232
 20
135.86387440976469
 30
0.0
 11
83.778512502725135
 21
136.12545575542069
 31
0.0
  0
ARC
  5
93
  8
0
 10
50.000000000000028
 20
140.0
 30
0.0
 40
35.0
 50
336.7867892982614
 51
353.21321070173809
  0
LINE
  5
94
  8
0
 10
84.754747375023584
 20
144.13612559023491
 30
0.0
 11
83.778512502725135
 21
143.8745442445794
 31
0.0
  0
LINE
  5
95
  8
0
 10
82.166556923999991
 20
153.79538385312591
 30
0.0
 11
81.190322051699951
 21
153.53380250747011
 31
0.0
  0
ARC
  5
96
  8
0
 10
50.000000000000028
 20
140.0
 30
0.0
 40
35.0
 50
6.7867892982614482
 51
23.213210701738092
  0
LINE
  5
97
  8
0
 10
78.030431333763516
 20
160.9593635218981
 30
0.0
 11
77.315777807120554
 21
160.24470999525519
 31
0.0
  0
LINE
  5
98
  8
0
 10
70.959363521899292
 20
168.03043133376471
 30
0.0
 11
70.244709995255022
 21
167.3157778071205
 31
0.0
  0
ARC
  5
99
  8
0
 10
50.000000000000028
 20
140.0
 30
0.0
 40
35.0
 50
36.786789298261418
 51
53.213210701738049
  0
LINE
  5
9A
  8
0
 10
63.795383853125507
 20
172.1665569239984
 30
0.0
 11
63.533802507470028
 21
171.19032205169981
 31
0.0
  0
LINE
  5
9B
  8
0
 10
54.136125590235253
 20
174.7547473750252
 30
0.0
 11
53.874544244579312
 21
173.77851250272519
 31
0.0
  0
ARC
  5
9C
  8
0
 10
50.000000000000028
 20
140.0
 30
0.0
 40
35.0
 50
66.786789298261439
 51
83.21321070173812
  0
LINE
  5
9D
  8
0
 10
45.863874409765131
 20
174.75474737502361
 30
0.0
 11
46.12545575542061
 21
173.77851250272519
 31
0.0
  0
LINE
  5
9E
  8
0
 10
36.204616146874073
 20
172.16655692399999
 30
0.0
 11
36.466197492529901
 21
171.19032205170001
 31
0.0
  0
ARC
  5
9F
  8
0
 10
50.000000000000028
 20
140.0
 30
0.0
 40
35.0
 50
96.786789298261453
 51
113.21321070173811
  0
LINE
  5
A0
  8
0
 10
29.040636478101892
 20
168.0304313337636
 30
0.0
 11
29.755290004744911
 21
167.3157778071205
 31
0.0
  0
LINE
  5
A1
  8
0
 10
21.969568666235329
 20
160.95936352189921
 30
0.0
 11
22.684222192879378
 21
160.24470999525491
 31
0.0
  0
ARC
  5
A2
  8
0
 10
50.000000000000028
 20
140.0
 30
0.0
 40
35.0
 50
126.7867892982615
 51
143.21321070173809
  0
LINE
  5
A3
  8
0
 10
17.83344307600164
 20
153.7953838531254
 30
0.0
 11
18.809677948300092
 21
153.53380250747
 31
0.0
  0
LINE
  5
A4
  8
0
 10
15.24525262497486
 20
144.1361255902352
 30
0.0
 11
16.221487497274911
 21
143.87454424457931
 31
0.0
  0
ARC
  5
A5
  8
0
 10
50.000000000000028
 20
140.0
 30
0.0
 40
35.0
 50
156.78678929826151
 51
173.21321070173809
  0
ARC
  5
A6
  8
0
 10
50.000000000000028
 20
140.0
 30
0.0
 40
34.0
 50
233.456519335271
 51
246.5434806647298
  0
ARC
  5
A7
  8
0
 10
50.000000000000028
 20
140.0
 30
0.0
 40
34.0
 50
263.45651933527103
 51
276.54348066472983
  0
ARC
  5
A8
  8
0
 10
50.000000000000028
 20
140.0
 30
0.0
 40
34.0
 50
293.45651933527103
 51
306.54348066472983
  0
ARC
  5
A9
  8
0
 10
50.000000000000028
 20
140.0
 30
0.0
 40
34.0
 50
323.45651933527103
 51
336.54348066472983
  0
ARC
  5
AA
  8
0
 10
50.000000000000028
 20
140.0
 30
0.0
 40
34.0
 50
353.45651933527103
 51
6.5434806647297261
  0
ARC
  5
AB
  8
0
 10
50.000000000000028
 20
140.0
 30
0.0
 40
34.0
 50
23.456519335270968
 51
36.543480664729742
  0
ARC
  5
AC
  8
0
 10
50.000000000000028
 20
140.0
 30
0.0
 40
34.0
 50
53.45651933527099
 51
66.543480664729756
  0
ARC
  5
AD
  8
0
 10
50.000000000000028
 20
140.0
 30
0.0
 40
34.0
 50
83.456519335270954
 51
96.543480664729728
  0
ARC
  5
AE
  8
0
 10
50.000000000000028
 20
140.0
 30
0.0
 40
34.0
 50
113.456519335271
 51
126.5434806647298
  0
ARC
  5
AF
  8
0
 10
50.000000000000028
 20
140.0
 30
0.0
 40
34.0
 50
143.456519335271
 51
156.5434806647298
  0
ARC
  5
B0
  8
0
 10
50.000000000000028
 20
140.0
 30
0.0
 40
34.0
 50
173.45651933527111
 51
186.5434806647298
  0
CIRCLE
  5
B1
  8
0
 10
50.000000000000028
 20
140.0
 30
0.0
 40
32.00000000000005
  0
TEXT
  5
B2
  8
3
 10
73.942544243884456
 20
126.05766329098741
 30
0.0
 40
2.2000000000000002
  1
P
 50
61.000000000000007
 41
0.8
  7
SIM080
 72
     1
 11
74.226965887762304
 21
126.5707735191759
 31
0.0
  0
TEXT
  5
B3
  8
3
 10
75.479574675499236
 20
129.11281429028961
 30
0.0
 40
2.2000000000000002
  1
A
 50
68.250000000000014
 41
0.8
  7
SIM080
 72
     1
 11
75.728024614553448
 21
129.73555898097709
 31
0.0
  0
TEXT
  5
B4
  8
3
 10
76.670800036096111
 20
132.4964939386698
 30
0.0
 40
2.2000000000000002
  1
T
 50
75.500000000000028
 41
0.8
  7
SIM080
 72
     1
 11
76.817689638474704
 21
133.06447388769161
 31
0.0
  0
TEXT
  5
B5
  8
3
 10
77.467960430620792
 20
136.42114909248801
 30
0.0
 40
2.2000000000000002
  1
.
 50
82.750000000000028
 41
0.8
  7
SIM080
 72
     1
 11
77.478537106129323
 21
136.5042885549374
 31
0.0
  0
TEXT
  5
B6
  8
3
 10
77.700000000001211
 20
139.45523809523809
 30
0.0
 40
2.2000000000000002
  1
E
 50
89.999999999999986
 41
0.8
  7
SIM080
 72
     1
 11
77.700000000001211
 21
140.0
 31
0.0
  0
TEXT
  5
B7
  8
3
 10
77.541997159180539
 20
142.99687467036651
 30
0.0
 40
2.2000000000000002
  1
L
 50
97.250000000000014
 41
0.8
  7
SIM080
 72
     1
 11
77.47853710612938
 21
143.4957114450626
 31
0.0
  0
TEXT
  5
B8
  8
3
 10
76.95408712639771
 20
146.40811615964509
 30
0.0
 40
2.2000000000000002
  1
E
 50
104.5
 41
0.8
  7
SIM080
 72
     1
 11
76.817689638474704
 21
146.93552611230831
 31
0.0
  0
TEXT
  5
B9
  8
3
 10
75.945418311225879
 20
149.7195394146714
 30
0.0
 40
2.2000000000000002
  1
S
 50
111.75
 41
0.8
  7
SIM080
 72
     1
 11
75.728024614553448
 21
150.26444101902291
 31
0.0
  0
TEXT
  5
BA
  8
3
 10
74.552019195051273
 20
152.84281479146591
 30
0.0
 40
2.2000000000000002
  1
A
 50
119.0
 41
0.8
  7
SIM080
 72
     1
 11
74.226965887762304
 21
153.4292264808241
 31
0.0
  0
LINE
  5
BB
  8
0
 10
51.649999999999999
 20
117.0
 30
0.0
 11
48.349999999999987
 21
117.0
 31
0.0
  0
LINE
  5
BC
  8
0
 10
51.649999999999999
 20
163.0
 30
0.0
 11
48.349999999999987
 21
163.0
 31
0.0
  0
LINE
  5
BD
  8
0
 10
51.649999999999999
 20
163.0
 30
0.0
 11
51.649999999999999
 21
152.76614716074889
 31
0.0
  0
LINE
  5
BE
  8
0
 10
48.349999999999987
 20
163.0
 30
0.0
 11
48.349999999999987
 21
152.766147160749
 31
0.0
  0
ARC
  5
BF
  8
0
 10
50.000000000000028
 20
134.90000000000009
 30
0.0
 40
10.5
 50
279.0410961485743
 51
260.95890385142587
  0
CIRCLE
  5
C0
  8
0
 10
50.000000000000028
 20
134.90000000000009
 30
0.0
 40
7.2000000000000002
  0
LINE
  5
C1
  8
0
 10
51.649999999999999
 20
124.5304532403762
 30
0.0
 11
51.649999999999999
 21
117.0
 31
0.0
  0
LINE
  5
C2
  8
0
 10
48.349999999999987
 20
124.5304532403762
 30
0.0
 11
48.349999999999987
 21
117.0
 31
0.0
  0
LINE
  5
C3
  8
0
 10
62.727922061357823
 20
137.02132034355981
 30
0.0
 11
50.000000000000028
 21
149.7492424049176
 31
0.0
  0
LINE
  5
C4
  8
0
 10
65.061374439273393
 20
139.3547727214752
 30
0.0
 11
51.649999999999999
 21
152.76614716074889
 31
0.0
  0
LINE
  5
C5
  8
0
 10
34.938625560726578
 20
139.3547727214752
 30
0.0
 11
48.349999999999987
 21
152.766147160749
 31
0.0
  0
LINE
  5
C6
  8
0
 10
37.27207793864212
 20
137.02132034355981
 30
0.0
 11
50.000000000000028
 21
149.7492424049176
 31
0.0
  0
LINE
  5
C7
  8
0
 10
62.727922061357823
 20
137.02132034355981
 30
0.0
 11
65.061374439273393
 21
139.3547727214752
 31
0.0
  0
LINE
  5
C8
  8
0
 10
37.272077938642063
 20
137.02132034355981
 30
0.0
 11
34.938625560726578
 21
139.3547727214752
 31
0.0
  0
LINE
  5
C9
  8
0
 10
117.0879046762584
 20
117.0000000000001
 30
0.0
 11
117.08790467625811
 21
163.00000000000011
 31
0.0
  0
LINE
  5
CA
  8
0
 10
117.58790467625811
 20
108.0
 30
0.0
 11
119.5879046762588
 21
105.9999999999993
 31
0.0
  0
LINE
  5
CB
  8
0
 10
117.58790467625811
 20
108.0
 30
0.0
 11
117.58790467625811
 21
172.00000000000011
 31
0.0
  0
LINE
  5
CC
  8
0
 10
151.08790467625809
 20
105.2452526249743
 30
0.0
 11
151.08790467625809
 21
174.75474737502611
 31
0.0
  0
LINE
  5
CD
  8
0
 10
120.58790467625811
 20
105.2452526249744
 30
0.0
 11
120.58790467625801
 21
107.8334430759998
 31
0.0
  0
LINE
  5
CE
  8
0
 10
119.5879046762588
 20
105.9999999999993
 30
0.0
 11
119.5879046762588
 21
106.221487497274
 31
0.0
  0
LINE
  5
CF
  8
0
 10
120.58790467625811
 20
135.86387440976449
 30
0.0
 11
151.08790467625809
 21
135.86387440976449
 31
0.0
  0
LINE
  5
D0
  8
0
 10
120.58790467625811
 20
126.2046161468743
 30
0.0
 11
151.08790467625809
 21
126.2046161468742
 31
0.0
  0
LINE
  5
D1
  8
0
 10
120.58790467625811
 20
119.0406364781016
 30
0.0
 11
151.08790467625809
 21
119.0406364781016
 31
0.0
  0
LINE
  5
D2
  8
0
 10
120.58790467625811
 20
111.9695686662367
 30
0.0
 11
151.08790467625809
 21
111.9695686662368
 31
0.0
  0
LINE
  5
D3
  8
0
 10
120.58790467625811
 20
107.8334430759998
 30
0.0
 11
151.08790467625809
 21
107.8334430759999
 31
0.0
  0
LINE
  5
D4
  8
0
 10
120.58790467625811
 20
105.2452526249744
 30
0.0
 11
151.08790467625809
 21
105.2452526249743
 31
0.0
  0
LINE
  5
D5
  8
0
 10
120.58790467625811
 20
126.2046161468743
 30
0.0
 11
120.58790467625811
 21
135.86387440976449
 31
0.0
  0
LINE
  5
D6
  8
0
 10
120.58790467625811
 20
111.9695686662368
 30
0.0
 11
120.58790467625811
 21
119.0406364781016
 31
0.0
  0
LINE
  5
D7
  8
0
 10
119.5879046762588
 20
136.12545575542021
 30
0.0
 11
151.08790467625809
 21
136.12545575542021
 31
0.0
  0
LINE
  5
D8
  8
0
 10
119.5879046762588
 20
119.75529000474521
 30
0.0
 11
151.08790467625809
 21
119.75529000474521
 31
0.0
  0
LINE
  5
D9
  8
0
 10
119.5879046762588
 20
108.80967794829969
 30
0.0
 11
151.08790467625809
 21
108.8096779482989
 31
0.0
  0
LINE
  5
DA
  8
0
 10
120.58790467625801
 20
135.86387440976449
 30
0.0
 11
119.5879046762588
 21
136.12545575542021
 31
0.0
  0
LINE
  5
DB
  8
0
 10
120.58790467625811
 20
126.2046161468743
 30
0.0
 11
119.5879046762588
 21
126.4661974925297
 31
0.0
  0
LINE
  5
DC
  8
0
 10
120.58790467625811
 20
119.0406364781016
 30
0.0
 11
119.5879046762588
 21
119.75529000474531
 31
0.0
  0
LINE
  5
DD
  8
0
 10
120.58790467625811
 20
111.9695686662367
 30
0.0
 11
119.5879046762588
 21
112.6842221928803
 31
0.0
  0
LINE
  5
DE
  8
0
 10
120.58790467625801
 20
107.8334430759999
 30
0.0
 11
119.5879046762588
 21
108.80967794829959
 31
0.0
  0
LINE
  5
DF
  8
0
 10
120.58790467625811
 20
105.2452526249744
 30
0.0
 11
119.5879046762588
 21
106.2214874972741
 31
0.0
  0
LINE
  5
E0
  8
0
 10
119.5879046762588
 20
136.12545575542021
 30
0.0
 11
119.5879046762588
 21
143.87454424457999
 31
0.0
  0
LINE
  5
E1
  8
0
 10
119.5879046762588
 20
119.75529000474531
 30
0.0
 11
119.5879046762588
 21
126.4661974925297
 31
0.0
  0
LINE
  5
E2
  8
0
 10
119.5879046762588
 20
108.80967794829969
 30
0.0
 11
119.5879046762588
 21
112.6842221928803
 31
0.0
  0
LINE
  5
E3
  8
0
 10
119.5879046762588
 20
171.19032205170069
 30
0.0
 11
119.5879046762588
 21
167.3157778071201
 31
0.0
  0
LINE
  5
E4
  8
0
 10
119.5879046762588
 20
160.24470999525499
 30
0.0
 11
119.5879046762588
 21
153.5338025074706
 31
0.0
  0
LINE
  5
E5
  8
0
 10
120.58790467625811
 20
174.75474737502589
 30
0.0
 11
119.5879046762588
 21
173.7785125027263
 31
0.0
  0
LINE
  5
E6
  8
0
 10
120.58790467625801
 20
172.1665569240005
 30
0.0
 11
119.5879046762588
 21
171.19032205170069
 31
0.0
  0
LINE
  5
E7
  8
0
 10
120.58790467625811
 20
168.03043133376369
 30
0.0
 11
119.5879046762588
 21
167.3157778071201
 31
0.0
  0
LINE
  5
E8
  8
0
 10
120.58790467625811
 20
160.95936352189881
 30
0.0
 11
119.5879046762588
 21
160.24470999525499
 31
0.0
  0
LINE
  5
E9
  8
0
 10
120.58790467625811
 20
153.795383853126
 30
0.0
 11
119.5879046762588
 21
153.5338025074706
 31
0.0
  0
LINE
  5
EA
  8
0
 10
120.58790467625801
 20
144.13612559023579
 30
0.0
 11
119.5879046762588
 21
143.87454424458011
 31
0.0
  0
LINE
  5
EB
  8
0
 10
119.5879046762588
 20
171.19032205170069
 30
0.0
 11
151.08790467625809
 21
171.1903220517014
 31
0.0
  0
LINE
  5
EC
  8
0
 10
119.5879046762588
 20
160.24470999525519
 30
0.0
 11
151.08790467625809
 21
160.24470999525519
 31
0.0
  0
LINE
  5
ED
  8
0
 10
119.5879046762588
 20
143.87454424458011
 30
0.0
 11
151.08790467625809
 21
143.87454424458011
 31
0.0
  0
LINE
  5
EE
  8
0
 10
120.58790467625811
 20
168.03043133376369
 30
0.0
 11
120.58790467625811
 21
160.95936352189881
 31
0.0
  0
LINE
  5
EF
  8
0
 10
120.58790467625811
 20
153.795383853126
 30
0.0
 11
120.58790467625811
 21
144.13612559023579
 31
0.0
  0
LINE
  5
F0
  8
0
 10
120.58790467625811
 20
174.75474737502589
 30
0.0
 11
151.08790467625809
 21
174.75474737502611
 31
0.0
  0
LINE
  5
F1
  8
0
 10
120.58790467625811
 20
172.1665569240005
 30
0.0
 11
151.08790467625809
 21
172.1665569240005
 31
0.0
  0
LINE
  5
F2
  8
0
 10
120.58790467625811
 20
168.03043133376369
 30
0.0
 11
151.08790467625809
 21
168.03043133376369
 31
0.0
  0
LINE
  5
F3
  8
0
 10
120.58790467625811
 20
160.95936352189881
 30
0.0
 11
151.08790467625809
 21
160.95936352189881
 31
0.0
  0
LINE
  5
F4
  8
0
 10
120.58790467625811
 20
153.795383853126
 30
0.0
 11
151.08790467625809
 21
153.79538385312611
 31
0.0
  0
LINE
  5
F5
  8
0
 10
120.58790467625811
 20
144.13612559023579
 30
0.0
 11
151.08790467625809
 21
144.13612559023579
 31
0.0
  0
LINE
  5
F6
  8
0
 10
119.5879046762588
 20
174.00000000000099
 30
0.0
 11
119.5879046762588
 21
173.7785125027263
 31
0.0
  0
LINE
  5
F7
  8
0
 10
120.58790467625811
 20
174.75474737502589
 30
0.0
 11
120.58790467625801
 21
172.1665569240005
 31
0.0
  0
LINE
  5
F8
  8
0
 10
117.58790467625811
 20
172.0000000000004
 30
0.0
 11
119.5879046762588
 21
174.00000000000099
 31
0.0
  0
LINE
  5
F9
  8
0
 10
117.0879046762584
 20
117.0000000000001
 30
0.0
 11
117.58790467625811
 21
117.0000000000001
 31
0.0
  0
LINE
  5
FA
  8
0
 10
117.08790467625811
 20
163.00000000000011
 30
0.0
 11
117.58790467625811
 21
163.00000000000011
 31
0.0
  0
LINE
  5
FB
  8
0
 10
168.48790467625909
 20
159.25000000000011
 30
0.0
 11
168.48790467625909
 21
164.0
 31
0.0
  0
LINE
  5
FC
  8
0
 10
169.2879046762591
 20
159.25000000000011
 30
0.0
 11
169.2879046762591
 21
164.0
 31
0.0
  0
LINE
  5
FD
  8
0
 10
168.48790467625909
 20
116.0000000000001
 30
0.0
 11
168.48790467625921
 21
120.7499999999999
 31
0.0
  0
LINE
  5
FE
  8
0
 10
169.2879046762591
 20
116.0000000000001
 30
0.0
 11
169.2879046762591
 21
120.7499999999999
 31
0.0
  0
LINE
  5
FF
  8
0
 10
168.48790467625909
 20
164.0
 30
0.0
 11
169.2879046762591
 21
164.0
 31
0.0
  0
LINE
  5
100
  8
0
 10
168.48790467625909
 20
116.0000000000001
 30
0.0
 11
169.2879046762591
 21
116.0000000000001
 31
0.0
  0
ARC
  5
101
  8
0
 10
172.0879046762592
 20
157.75000000000011
 30
0.0
 40
1.5
 50
360.0
 51
90.000000000000227
  0
ARC
  5
102
  8
0
 10
172.0879046762592
 20
122.25
 30
0.0
 40
1.5
 50
270.0
 51
360.0
  0
LINE
  5
103
  8
0
 10
173.58790467625909
 20
122.25
 30
0.0
 11
173.58790467625909
 21
157.75000000000011
 31
0.0
  0
LINE
  5
104
  8
0
 10
172.0879046762592
 20
159.25000000000011
 30
0.0
 11
162.58790467625909
 21
159.25
 31
0.0
  0
LINE
  5
105
  8
0
 10
172.0879046762592
 20
120.75
 30
0.0
 11
162.587904676259
 21
120.75
 31
0.0
  0
LINE
  5
106
  8
0
 10
156.08790467625909
 20
141.25000000000011
 30
0.0
 11
151.0879046762582
 21
141.25000000000011
 31
0.0
  0
LINE
  5
107
  8
0
 10
156.08790467625909
 20
138.75000000000011
 30
0.0
 11
151.0879046762582
 21
138.75000000000011
 31
0.0
  0
LINE
  5
108
  8
0
 10
151.0879046762582
 20
108.4999999999998
 30
0.0
 11
156.0879046762573
 21
108.4999999999998
 31
0.0
  0
LINE
  5
109
  8
0
 10
151.0879046762582
 20
171.50000000000031
 30
0.0
 11
156.0879046762573
 21
171.50000000000031
 31
0.0
  0
LINE
  5
10A
  8
0
 10
156.087904676259
 20
161.00000000000011
 30
0.0
 11
151.08790467625809
 21
161.00000000000011
 31
0.0
  0
LINE
  5
10B
  8
0
 10
156.087904676259
 20
119.0000000000001
 30
0.0
 11
151.08790467625809
 21
119.0000000000001
 31
0.0
  0
LINE
  5
10C
  8
0
 10
156.08790467625909
 20
105.7500000000001
 30
0.0
 11
156.08790467625909
 21
174.25000000000011
 31
0.0
  0
LINE
  5
10D
  8
0
 10
159.5879046762592
 20
174.25000000000011
 30
0.0
 11
156.08790467625909
 21
174.25000000000011
 31
0.0
  0
LINE
  5
10E
  8
0
 10
159.5879046762592
 20
105.7500000000001
 30
0.0
 11
156.08790467625909
 21
105.7500000000001
 31
0.0
  0
LINE
  5
10F
  8
0
 10
159.5879046762592
 20
105.7500000000001
 30
0.0
 11
159.58790467625909
 21
174.25000000000011
 31
0.0
  0
LINE
  5
110
  8
0
 10
169.28790467625919
 20
225.49999999999989
 30
0.0
 11
168.48790467625909
 21
225.5
 31
0.0
  0
LINE
  5
111
  8
0
 10
169.2879046762591
 20
214.5
 30
0.0
 11
168.48790467625909
 21
214.50000000000011
 31
0.0
  0
LINE
  5
112
  8
1
 10
112.0879046762584
 20
140.0
 30
0.0
 11
178.5879046762592
 21
140.0
 31
0.0
  0
LINE
  5
118
  8
0
 10
117.0879046762582
 20
235.06137443927349
 30
0.0
 11
117.58790467625811
 21
235.06137443927349
 31
0.0
  0
LINE
  5
119
  8
0
 10
117.0879046762582
 20
221.65000000000001
 30
0.0
 11
117.58790467625811
 21
221.65000000000001
 31
0.0
  0
LINE
  5
11A
  8
0
 10
117.0879046762583
 20
204.93862556072671
 30
0.0
 11
117.58790467625811
 21
204.93862556072671
 31
0.0
  0
LINE
  5
11B
  8
0
 10
117.0879046762582
 20
218.35000000000011
 30
0.0
 11
117.58790467625811
 21
218.35000000000011
 31
0.0
  0
LINE
  5
11C
  8
0
 10
117.0879046762582
 20
152.76614716074889
 30
0.0
 11
117.58790467625811
 21
152.76614716074889
 31
0.0
  0
LINE
  5
11D
  8
0
 10
117.0879046762582
 20
139.3547727214752
 30
0.0
 11
117.58790467625811
 21
139.3547727214752
 31
0.0
  0
LINE
  5
11E
  8
0
 10
117.0879046762582
 20
137.02132034355981
 30
0.0
 11
117.58790467625811
 21
137.02132034355981
 31
0.0
  0
LINE
  5
11F
  8
0
 10
117.0879046762583
 20
124.5304532403775
 30
0.0
 11
117.58790467625811
 21
124.5304532403775
 31
0.0
  0
POLYLINE
  5
120
  8
0
 66
     1
 10
0.0
 20
0.0
 30
0.0
  0
VERTEX
  5
121
  8
0
 10
346.73346114445928
 20
216.13952236639511
 30
0.0
 42
-0.050501803849183
 50
195.0000000000002
  0
VERTEX
  5
122
  8
0
 10
347.68945210918599
 20
215.4135582963448
 30
0.0
 42
-0.0764678653005995
 70
     2
 50
317.00538320808448
  0
VERTEX
  5
123
  8
0
 10
349.34745094701742
 20
213.31113886834751
 30
0.0
 42
-0.0634152908454529
 50
195.0000000000002
  0
VERTEX
  5
124
  8
0
 10
350.56811934630798
 20
210.32848839725861
 30
0.0
 42
-0.0634152908454418
 50
195.0000000000002
  0
SEQEND
  5
125
  8
0
  0
POLYLINE
  5
126
  8
0
 66
     1
 10
0.0
 20
0.0
 30
0.0
  0
VERTEX
  5
127
  8
0
 10
343.66793785404241
 20
216.76179978205869
 30
0.0
 42
-0.1337697413190909
 50
195.0000000000002
  0
VERTEX
  5
128
  8
0
 10
345.35666343575201
 20
216.75477261999629
 30
0.0
 42
-0.1071362639938651
 50
195.0000000000002
  0
SEQEND
  5
129
  8
0
  0
CIRCLE
  5
12A
  8
0
 10
342.96083107285602
 20
217.46890656324541
 30
0.0
 40
2.5
  0
ARC
  5
12B
  8
0
 10
342.96083107285602
 20
217.46890656324541
 30
0.0
 40
4.0
 50
165.0000000000004
 51
105.0000000000009
  0
LINE
  5
12C
  8
0
 10
335.53620987039727
 20
222.06510064095781
 30
0.0
 11
336.5968700421771
 21
223.1257608127377
 31
0.0
  0
LINE
  5
12D
  8
0
 10
341.9255548924458
 20
221.3326098684017
 30
0.0
 11
338.36463699514343
 21
224.89352776570399
 31
0.0
  0
LINE
  5
12E
  8
0
 10
339.09712776769959
 20
218.50418274365549
 30
0.0
 11
335.53620987039727
 21
222.06510064095781
 31
0.0
  0
LINE
  5
12F
  8
0
 10
337.11463699514343
 20
222.6079938597714
 30
0.0
 11
336.5968700421771
 21
223.1257608127377
 31
0.0
  0
LINE
  5
130
  8
0
 10
337.8217437763297
 20
223.31510064095801
 30
0.0
 11
337.30397682336348
 21
223.83286759392419
 31
0.0
  0
ARC
  5
131
  8
0
 10
337.46819038573659
 20
222.9615472503647
 30
0.0
 40
0.5
 50
225.00000000000071
 51
45.000000000000753
  0
LINE
  5
132
  8
0
 10
337.30397682336348
 20
223.83286759392419
 30
0.0
 11
338.36463699514331
 21
224.89352776570399
 31
0.0
  0
LINE
  5
133
  8
0
 10
337.54886734448121
 20
223.44655571656941
 30
0.0
 11
336.42269019917819
 21
224.5727328618722
 31
0.0
  0
LINE
  5
134
  8
0
 10
336.98318191953177
 20
222.8808702916202
 30
0.0
 11
335.85700477422898
 21
224.00704743692299
 31
0.0
  0
ARC
  5
135
  8
0
 10
338.47070301232151
 20
221.9590346237799
 30
0.0
 40
1.75
 50
118.39845040093959
 51
151.6015495990209
  0
ARC
  5
136
  8
2
 10
338.47070301232151
 20
221.9590346237799
 30
0.0
 40
1.75
 50
151.60154959902121
 51
118.39845040093979
  0
CIRCLE
  5
137
  8
0
 10
219.36048841121149
 20
207.34514762268341
 30
0.0
 40
1.75
  0
LINE
  5
138
  8
0
 10
216.12614572995111
 20
208.09668097708851
 30
0.0
 11
217.6227518738817
 21
207.55196088827779
 31
0.0
  0
LINE
  5
139
  8
0
 10
216.39976184461159
 20
208.84843507371721
 30
0.0
 11
217.89636798854229
 21
208.30371498490661
 31
0.0
  0
CIRCLE
  5
13A
  8
0
 10
224.0589515151411
 20
205.63504690605501
 30
0.0
 40
1.75
  0
LINE
  5
13B
  8
0
 10
220.82460883388069
 20
206.38658026046019
 30
0.0
 11
222.32121497781131
 21
205.84186017164961
 31
0.0
  0
LINE
  5
13C
  8
0
 10
221.09822494854109
 20
207.13833435708889
 30
0.0
 11
222.59483109247171
 21
206.59361426827829
 31
0.0
  0
CIRCLE
  5
13D
  8
0
 10
228.88858064658629
 20
204.3409516805425
 30
0.0
 40
1.75
  0
LINE
  5
13E
  8
0
 10
225.60104516800001
 20
204.80773368495429
 30
0.0
 11
227.13943175764521
 21
204.39552424061199
 31
0.0
  0
LINE
  5
13F
  8
0
 10
225.8081004040821
 20
205.58047434598541
 30
0.0
 11
227.3464869937273
 21
205.1682649016432
 31
0.0
  0
CIRCLE
  5
140
  8
0
 10
233.71820977803171
 20
203.0468564550298
 30
0.0
 40
1.75
  0
LINE
  5
141
  8
0
 10
230.4306742994454
 20
203.51363845944161
 30
0.0
 11
231.96906088909051
 21
203.1014290150994
 31
0.0
  0
LINE
  5
142
  8
0
 10
230.63772953552751
 20
204.2863791204729
 30
0.0
 11
232.1761161251726
 21
203.87416967613061
 31
0.0
  0
CIRCLE
  5
143
  8
0
 10
238.54783890947709
 20
201.7527612295172
 30
0.0
 40
1.75
  0
LINE
  5
144
  8
0
 10
235.2603034308907
 20
202.21954323392899
 30
0.0
 11
236.7986900205359
 21
201.80733378958669
 31
0.0
  0
LINE
  5
145
  8
0
 10
235.4673586669727
 20
202.99228389496039
 30
0.0
 11
237.00574525661779
 21
202.58007445061801
 31
0.0
  0
CIRCLE
  5
146
  8
0
 10
243.37746804092239
 20
200.45866600400461
 30
0.0
 40
1.75
  0
LINE
  5
147
  8
0
 10
240.08993256233609
 20
200.92544800841651
 30
0.0
 11
241.6283191519814
 21
200.51323856407419
 31
0.0
  0
LINE
  5
148
  8
0
 10
240.29698779841809
 20
201.69818866944769
 30
0.0
 11
241.83537438806329
 21
201.28597922510551
 31
0.0
  0
CIRCLE
  5
149
  8
0
 10
248.37746804092251
 20
200.45866600400461
 30
0.0
 40
1.75
  0
LINE
  5
14A
  8
0
 10
245.08114054466151
 20
200.05866600400461
 30
0.0
 11
246.67379553718331
 21
200.05866600400461
 31
0.0
  0
LINE
  5
14B
  8
0
 10
245.08114054466139
 20
200.85866600400459
 30
0.0
 11
246.67379553718331
 21
200.8586660040045
 31
0.0
  0
CIRCLE
  5
14C
  8
0
 10
253.37746804092239
 20
200.4586660040047
 30
0.0
 40
1.75
  0
LINE
  5
14D
  8
0
 10
250.08114054466139
 20
200.05866600400469
 30
0.0
 11
251.67379553718331
 21
200.05866600400449
 31
0.0
  0
LINE
  5
14E
  8
0
 10
250.08114054466151
 20
200.8586660040045
 30
0.0
 11
251.67379553718331
 21
200.8586660040045
 31
0.0
  0
CIRCLE
  5
14F
  8
0
 10
258.37746804092228
 20
200.4586660040045
 30
0.0
 40
1.75
  0
LINE
  5
150
  8
0
 10
255.08114054466151
 20
200.05866600400461
 30
0.0
 11
256.67379553718331
 21
200.05866600400461
 31
0.0
  0
LINE
  5
151
  8
0
 10
255.08114054466151
 20
200.8586660040045
 30
0.0
 11
256.67379553718331
 21
200.85866600400459
 31
0.0
  0
CIRCLE
  5
152
  8
0
 10
263.30150680598342
 20
201.3269068923392
 30
0.0
 40
1.75
  0
LINE
  5
153
  8
0
 10
260.12471720226512
 20
200.36058252841519
 30
0.0
 11
261.69317618677422
 21
200.63714416551881
 31
0.0
  0
LINE
  5
154
  8
0
 10
259.98579866013148
 20
201.14842873082489
 30
0.0
 11
261.5542576446407
 21
201.42499036792859
 31
0.0
  0
CIRCLE
  5
155
  8
0
 10
268.13113593742872
 20
202.62100211785179
 30
0.0
 40
1.75
  0
LINE
  5
156
  8
0
 10
265.0506556949245
 20
201.38147945240871
 30
0.0
 11
266.58904228456947
 21
201.79368889675109
 31
0.0
  0
LINE
  5
157
  8
0
 10
264.8436004588425
 20
202.15422011344
 30
0.0
 11
266.38198704848747
 21
202.56642955778219
 31
0.0
  0
CIRCLE
  5
158
  8
0
 10
272.96076506887408
 20
203.91509734336441
 30
0.0
 40
1.75
  0
LINE
  5
159
  8
0
 10
269.8802848263698
 20
202.6755746779213
 30
0.0
 11
271.41867141601489
 21
203.0877841222638
 31
0.0
  0
LINE
  5
15A
  8
0
 10
269.6732295902878
 20
203.4483153389526
 30
0.0
 11
271.211616179933
 21
203.86052478329481
 31
0.0
  0
CIRCLE
  5
15B
  8
0
 10
277.79039420031938
 20
205.20919256887689
 30
0.0
 40
1.75
  0
LINE
  5
15C
  8
0
 10
274.70991395781527
 20
203.9696699034339
 30
0.0
 11
276.24830054746019
 21
204.38187934777619
 31
0.0
  0
LINE
  5
15D
  8
0
 10
274.50285872173311
 20
204.74241056446519
 30
0.0
 11
276.0412453113783
 21
205.1546200088074
 31
0.0
  0
CIRCLE
  5
15E
  8
0
 10
281.88615442176427
 20
208.07707475063219
 30
0.0
 40
1.75
  0
LINE
  5
15F
  8
0
 10
279.41539158909649
 20
205.85871815456539
 30
0.0
 11
280.72001818206792
 21
206.77222752951269
 31
0.0
  0
LINE
  5
160
  8
0
 10
278.9565304400158
 20
206.51403978999639
 30
0.0
 11
280.26115703298723
 21
207.42754916494391
 31
0.0
  0
CIRCLE
  5
161
  8
0
 10
285.42168832769698
 20
211.61260865656499
 30
0.0
 40
1.75
  0
LINE
  5
162
  8
0
 10
283.3736755145539
 20
208.99891041847249
 30
0.0
 11
284.49985265985657
 21
210.12508756377539
 31
0.0
  0
LINE
  5
163
  8
0
 10
282.80799008960469
 20
209.5645958434217
 30
0.0
 11
283.93416723490742
 21
210.69077298872469
 31
0.0
  0
CIRCLE
  5
164
  8
0
 10
289.51744854914199
 20
214.48049083832021
 30
0.0
 40
1.75
  0
LINE
  5
165
  8
0
 10
287.04668571647443
 20
212.26213424225321
 30
0.0
 11
288.35131230944558
 21
213.17564361720071
 31
0.0
  0
LINE
  5
166
  8
0
 10
286.5878245673934
 20
212.9174558776844
 30
0.0
 11
287.89245116036489
 21
213.83096525263181
 31
0.0
  0
CIRCLE
  5
167
  8
0
 10
292.38533073089718
 20
218.57625105976501
 30
0.0
 40
1.75
  0
LINE
  5
168
  8
0
 10
290.82229577026152
 20
215.64662707801659
 30
0.0
 11
291.73580514520887
 21
216.951253670988
 31
0.0
  0
LINE
  5
169
  8
0
 10
290.1669741348303
 20
216.1054882270974
 30
0.0
 11
291.08048350977759
 21
217.4101148200688
 31
0.0
  0
CIRCLE
  5
16A
  8
0
 10
293.67942595640989
 20
223.4058801912104
 30
0.0
 40
1.75
  0
LINE
  5
16B
  8
0
 10
293.21264395199802
 20
220.11834471262429
 30
0.0
 11
293.62485339634043
 21
221.65673130226929
 31
0.0
  0
LINE
  5
16C
  8
0
 10
292.43990329096681
 20
220.32539994870629
 30
0.0
 11
292.85211273530899
 21
221.86378653835129
 31
0.0
  0
CIRCLE
  5
16D
  8
0
 10
294.97352118192231
 20
228.23550932265579
 30
0.0
 40
1.75
  0
LINE
  5
16E
  8
0
 10
294.50673917751038
 20
224.94797384406951
 30
0.0
 11
294.91894862185291
 21
226.48636043371459
 31
0.0
  0
LINE
  5
16F
  8
0
 10
293.73399851647929
 20
225.15502908015159
 30
0.0
 11
294.1462079608217
 21
226.69341566979671
 31
0.0
  0
CIRCLE
  5
170
  8
0
 10
297.47352118192242
 20
232.565636341578
 30
0.0
 40
1.75
  0
LINE
  5
171
  8
0
 10
296.17176759530582
 20
229.5109329906229
 30
0.0
 11
296.96809509156668
 21
230.89021267361099
 31
0.0
  0
LINE
  5
172
  8
0
 10
295.47894727227811
 20
229.9109329906228
 30
0.0
 11
296.27527476853908
 21
231.29021267361091
 31
0.0
  0
CIRCLE
  5
173
  8
0
 10
301.00905508785519
 20
236.10117024751071
 30
0.0
 40
1.75
  0
LINE
  5
174
  8
0
 10
298.96104227471221
 20
233.4874720094183
 30
0.0
 11
300.08721942001478
 21
234.61364915472109
 31
0.0
  0
LINE
  5
175
  8
0
 10
298.39535684976289
 20
234.05315743436759
 30
0.0
 11
299.52153399506562
 21
235.1793345796705
 31
0.0
  0
CIRCLE
  5
176
  8
0
 10
305.33918210677751
 20
238.60117024751071
 30
0.0
 40
1.75
  0
LINE
  5
177
  8
0
 10
302.68447875582223
 20
236.60659633786651
 30
0.0
 11
304.06375843881023
 21
237.40292383412739
 31
0.0
  0
LINE
  5
178
  8
0
 10
302.28447875582231
 20
237.29941666089391
 30
0.0
 11
303.66375843881042
 21
238.095744157155
 31
0.0
  0
CIRCLE
  5
179
  8
0
 10
310.1688112382227
 20
239.8952654730233
 30
0.0
 40
1.75
  0
LINE
  5
17A
  8
0
 10
307.08833099571842
 20
238.65574280758031
 30
0.0
 11
308.62671758536368
 21
239.06795225192261
 31
0.0
  0
LINE
  5
17B
  8
0
 10
306.88127575963659
 20
239.42848346861149
 30
0.0
 11
308.41966234928168
 21
239.84069291295381
 31
0.0
  0
CIRCLE
  5
17C
  8
0
 10
315.16881123822282
 20
239.89526547302339
 30
0.0
 40
1.75
  0
LINE
  5
17D
  8
0
 10
311.8724837419619
 20
239.49526547302341
 30
0.0
 11
313.46513873448367
 21
239.49526547302341
 31
0.0
  0
LINE
  5
17E
  8
0
 10
311.87248374196167
 20
240.29526547302319
 30
0.0
 11
313.46513873448367
 21
240.29526547302339
 31
0.0
  0
CIRCLE
  5
17F
  8
0
 10
319.99844036966817
 20
238.60117024751079
 30
0.0
 40
1.75
  0
LINE
  5
180
  8
0
 10
316.7109048910819
 20
239.06795225192261
 30
0.0
 11
318.24929148072698
 21
238.65574280758031
 31
0.0
  0
LINE
  5
181
  8
0
 10
316.91796012716378
 20
239.8406929129539
 30
0.0
 11
318.45634671680892
 21
239.4284834686116
 31
0.0
  0
CIRCLE
  5
182
  8
0
 10
324.32856738859039
 20
236.10117024751079
 30
0.0
 40
1.75
  0
LINE
  5
183
  8
0
 10
321.27386403763501
 20
237.40292383412751
 30
0.0
 11
322.65314372062329
 21
236.60659633786659
 31
0.0
  0
LINE
  5
184
  8
0
 10
321.6738640376351
 20
238.09574415715511
 30
0.0
 11
323.05314372062332
 21
237.2994166608942
 31
0.0
  0
CIRCLE
  5
185
  8
0
 10
327.8641012945231
 20
232.565636341578
 30
0.0
 40
1.75
  0
LINE
  5
186
  8
0
 10
325.25040305643063
 20
234.61364915472129
 30
0.0
 11
326.37658020173347
 21
233.4874720094185
 31
0.0
  0
LINE
  5
187
  8
0
 10
325.81608848137978
 20
235.1793345796705
 30
0.0
 11
326.94226562668263
 21
234.05315743436779
 31
0.0
  0
CIRCLE
  5
188
  8
0
 10
331.39963520045592
 20
229.03010243564529
 30
0.0
 40
1.75
  0
LINE
  5
189
  8
0
 10
328.78593696236351
 20
231.07811524878849
 30
0.0
 11
329.91211410766613
 21
229.9519381034857
 31
0.0
  0
LINE
  5
18A
  8
0
 10
329.3516223873126
 20
231.6438006737377
 30
0.0
 11
330.47779953261539
 21
230.5176235284348
 31
0.0
  0
CIRCLE
  5
18B
  8
0
 10
334.93516910638851
 20
225.49456852971261
 30
0.0
 40
1.75
  0
LINE
  5
18C
  8
0
 10
332.32147086829622
 20
227.54258134285581
 30
0.0
 11
333.44764801359901
 21
226.41640419755291
 31
0.0
  0
LINE
  5
18D
  8
0
 10
332.88715629324531
 20
228.10826676780499
 30
0.0
 11
334.0133334385481
 21
226.98208962250209
 31
0.0
  0
POLYLINE
  5
18E
  8
0
 66
     1
 10
0.0
 20
0.0
 30
0.0
  0
VERTEX
  5
18F
  8
0
 10
340.87911423791581
 20
213.6468696427446
 30
0.0
 42
0.0027886694296373
 50
195.0000000000002
  0
VERTEX
  5
190
  8
0
 10
340.85932509026372
 20
213.58343127742279
 30
0.0
 42
0.0764678653005995
 70
     2
 50
252.994616791916
  0
VERTEX
  5
191
  8
0
 10
340.47466569125538
 20
210.93368322445119
 30
0.0
 42
0.0634152908454529
 50
195.0000000000002
  0
VERTEX
  5
192
  8
0
 10
340.90886108341709
 20
207.74029794623351
 30
0.0
 42
0.0634152908454418
 50
195.0000000000002
  0
SEQEND
  5
193
  8
0
  0
POLYLINE
  5
194
  8
0
 66
     1
 10
0.0
 20
0.0
 30
0.0
  0
VERTEX
  5
195
  8
0
 10
341.29523141393281
 20
207.84382556427451
 30
0.0
 42
0.0585208129144629
 50
195.0000000000002
  0
VERTEX
  5
196
  8
0
 10
342.49129015662407
 20
204.83801094407229
 30
0.0
 42
0.0721291227822373
 50
195.0000000000002
  0
VERTEX
  5
197
  8
0
 10
344.06073340129598
 20
202.7284331279042
 30
0.0
 42
0.0118816461658305
 70
     2
 50
314.89890183861468
  0
VERTEX
  5
198
  8
0
 10
344.27332112581701
 20
202.5249984077592
 30
0.0
 42
0.18243354263818
 50
314.89890183861468
  0
SEQEND
  5
199
  8
0
  0
POLYLINE
  5
19A
  8
0
 66
     1
 10
0.0
 20
0.0
 30
0.0
  0
VERTEX
  5
19B
  8
0
 10
343.66793785404252
 20
216.76179978205869
 30
0.0
 42
0.1573464733354264
 50
195.0000000000002
  0
VERTEX
  5
19C
  8
0
 10
342.2511048511239
 20
215.84577230449099
 30
0.0
 42
0.1065743736518221
 50
195.0000000000002
  0
VERTEX
  5
19D
  8
0
 10
341.13253017102068
 20
213.6566363581797
 30
0.0
 42
0.0721291227821855
 70
     2
 50
255.10109816138581
  0
VERTEX
  5
19E
  8
0
 10
340.82814135942061
 20
211.04496675578309
 30
0.0
 42
0.0585208129144654
 50
255.10109816138581
  0
VERTEX
  5
19F
  8
0
 10
341.29523141393281
 20
207.84382556427451
 30
0.0
 42
0.0585208129144629
 50
195.0000000000002
  0
SEQEND
  5
1A0
  8
0
  0
POLYLINE
  5
1A1
  8
0
 66
     1
 10
0.0
 20
0.0
 30
0.0
  0
VERTEX
  5
1A2
  8
0
 10
347.80904257568278
 20
201.3069865614336
 30
0.0
 42
-0.1473733360632031
 50
195.0000000000002
  0
VERTEX
  5
1A3
  8
0
 10
345.95641309727279
 20
201.3641412760002
 30
0.0
 42
-0.1071362639938651
 50
195.0000000000002
  0
VERTEX
  5
1A4
  8
0
 10
343.78752832053908
 20
202.6552280471472
 30
0.0
 42
-0.0764678653005995
 70
     2
 50
137.0053832080844
  0
VERTEX
  5
1A5
  8
0
 10
342.12952948270788
 20
204.75764747514469
 30
0.0
 42
-0.0634152908454529
 50
195.0000000000002
  0
VERTEX
  5
1A6
  8
0
 10
340.90886108341709
 20
207.7402979462334
 30
0.0
 42
-0.0634152908454418
 50
195.0000000000002
  0
SEQEND
  5
1A7
  8
0
  0
POLYLINE
  5
1A8
  8
0
 66
     1
 10
0.0
 20
0.0
 30
0.0
  0
VERTEX
  5
1A9
  8
0
 10
347.80904257568278
 20
201.3069865614336
 30
0.0
 42
0.1473733360632031
 50
195.0000000000002
  0
VERTEX
  5
1AA
  8
0
 10
349.3848894105023
 20
202.28279873539941
 30
0.0
 42
0.1071362639938651
 50
195.0000000000002
  0
VERTEX
  5
1AB
  8
0
 10
350.61765533946141
 20
204.4853550660695
 30
0.0
 42
0.0764678653005995
 70
     2
 50
72.994616791915973
  0
VERTEX
  5
1AC
  8
0
 10
351.00231473846958
 20
207.13510311904091
 30
0.0
 42
0.0634152908454529
 50
72.994616791915973
  0
VERTEX
  5
1AD
  8
0
 10
350.56811934630798
 20
210.32848839725861
 30
0.0
 42
0.0634152908454418
 50
195.0000000000002
  0
SEQEND
  5
1AE
  8
0
  0
POLYLINE
  5
1AF
  8
0
 66
     1
 10
0.0
 20
0.0
 30
0.0
  0
VERTEX
  5
1B0
  8
0
 10
347.80904257568278
 20
121.3069865614336
 30
0.0
 42
0.1473733360632031
 50
195.0000000000002
  0
VERTEX
  5
1B1
  8
0
 10
349.3848894105023
 20
122.2827987353993
 30
0.0
 42
0.1071362639938651
 50
195.0000000000002
  0
VERTEX
  5
1B2
  8
0
 10
350.61765533946141
 20
124.4853550660695
 30
0.0
 42
0.0764678653005995
 70
     2
 50
72.994616791915973
  0
VERTEX
  5
1B3
  8
0
 10
351.00231473846958
 20
127.13510311904091
 30
0.0
 42
0.0634152908454529
 50
72.994616791915973
  0
VERTEX
  5
1B4
  8
0
 10
350.56811934630798
 20
130.32848839725861
 30
0.0
 42
0.0634152908454418
 50
195.0000000000002
  0
SEQEND
  5
1B5
  8
0
  0
POLYLINE
  5
1B6
  8
0
 66
     1
 10
0.0
 20
0.0
 30
0.0
  0
VERTEX
  5
1B7
  8
0
 10
343.66793785404241
 20
136.76179978205869
 30
0.0
 42
-0.1473733360632031
 50
195.0000000000002
  0
VERTEX
  5
1B8
  8
0
 10
345.52056733245229
 20
136.7046450674919
 30
0.0
 42
-0.1071362639938651
 50
195.0000000000002
  0
VERTEX
  5
1B9
  8
0
 10
347.68945210918599
 20
135.4135582963448
 30
0.0
 42
-0.0764678653005995
 70
     2
 50
317.00538320808448
  0
VERTEX
  5
1BA
  8
0
 10
349.34745094701742
 20
133.31113886834751
 30
0.0
 42
-0.0634152908454529
 50
195.0000000000002
  0
VERTEX
  5
1BB
  8
0
 10
350.56811934630798
 20
130.32848839725861
 30
0.0
 42
-0.0634152908454418
 50
195.0000000000002
  0
SEQEND
  5
1BC
  8
0
  0
POLYLINE
  5
1BD
  8
0
 66
     1
 10
0.0
 20
0.0
 30
0.0
  0
VERTEX
  5
1BE
  8
0
 10
347.80904257568278
 20
121.3069865614336
 30
0.0
 42
-0.1473733360632031
 50
195.0000000000002
  0
VERTEX
  5
1BF
  8
0
 10
345.95641309727279
 20
121.3641412760002
 30
0.0
 42
-0.1071362639938651
 50
195.0000000000002
  0
VERTEX
  5
1C0
  8
0
 10
343.78752832053908
 20
122.6552280471472
 30
0.0
 42
-0.0764678653005995
 70
     2
 50
137.0053832080844
  0
VERTEX
  5
1C1
  8
0
 10
342.12952948270788
 20
124.75764747514469
 30
0.0
 42
-0.0634152908454529
 50
195.0000000000002
  0
VERTEX
  5
1C2
  8
0
 10
340.90886108341709
 20
127.7402979462334
 30
0.0
 42
-0.0634152908454418
 50
195.0000000000002
  0
SEQEND
  5
1C3
  8
0
  0
POLYLINE
  5
1C4
  8
0
 66
     1
 10
0.0
 20
0.0
 30
0.0
  0
VERTEX
  5
1C5
  8
0
 10
343.66793785404252
 20
136.76179978205869
 30
0.0
 42
0.1573464733354264
 50
195.0000000000002
  0
VERTEX
  5
1C6
  8
0
 10
342.2511048511239
 20
135.84577230449091
 30
0.0
 42
0.1065743736518221
 50
195.0000000000002
  0
VERTEX
  5
1C7
  8
0
 10
341.13253017102068
 20
133.6566363581797
 30
0.0
 42
0.0721291227821855
 70
     2
 50
255.10109816138581
  0
VERTEX
  5
1C8
  8
0
 10
340.82814135942061
 20
131.04496675578309
 30
0.0
 42
0.0585208129144654
 50
255.10109816138581
  0
VERTEX
  5
1C9
  8
0
 10
341.29523141393281
 20
127.8438255642745
 30
0.0
 42
0.0585208129144629
 50
195.0000000000002
  0
SEQEND
  5
1CA
  8
0
  0
POLYLINE
  5
1CB
  8
0
 66
     1
 10
0.0
 20
0.0
 30
0.0
  0
VERTEX
  5
1CC
  8
0
 10
341.29523141393281
 20
127.8438255642745
 30
0.0
 42
0.0585208129144629
 50
195.0000000000002
  0
VERTEX
  5
1CD
  8
0
 10
342.49129015662407
 20
124.8380109440722
 30
0.0
 42
0.0721291227822373
 50
195.0000000000002
  0
VERTEX
  5
1CE
  8
0
 10
344.06073340129598
 20
122.7284331279042
 30
0.0
 42
0.0118816461658305
 70
     2
 50
314.89890183861468
  0
VERTEX
  5
1CF
  8
0
 10
344.27332112581701
 20
122.5249984077592
 30
0.0
 42
0.18243354263818
 50
314.89890183861468
  0
SEQEND
  5
1D0
  8
0
  0
POLYLINE
  5
1D1
  8
0
 66
     1
 10
0.0
 20
0.0
 30
0.0
  0
VERTEX
  5
1D2
  8
0
 10
340.87911423791581
 20
133.64686964274449
 30
0.0
 42
0.0027886694296373
 50
195.0000000000002
  0
VERTEX
  5
1D3
  8
0
 10
340.85932509026372
 20
133.58343127742279
 30
0.0
 42
0.0764678653005995
 70
     2
 50
252.994616791916
  0
VERTEX
  5
1D4
  8
0
 10
340.47466569125538
 20
130.93368322445119
 30
0.0
 42
0.0634152908454529
 50
195.0000000000002
  0
VERTEX
  5
1D5
  8
0
 10
340.90886108341709
 20
127.7402979462335
 30
0.0
 42
0.0634152908454418
 50
195.0000000000002
  0
SEQEND
  5
1D6
  8
0
  0
LINE
  5
1D7
  8
0
 10
332.88715629324531
 20
148.10826676780491
 30
0.0
 11
334.0133334385481
 21
146.982089622502
 31
0.0
  0
LINE
  5
1D8
  8
0
 10
332.32147086829622
 20
147.54258134285581
 30
0.0
 11
333.44764801359901
 21
146.41640419755291
 31
0.0
  0
CIRCLE
  5
1D9
  8
0
 10
334.93516910638851
 20
145.49456852971261
 30
0.0
 40
1.75
  0
LINE
  5
1DA
  8
0
 10
329.3516223873126
 20
151.6438006737377
 30
0.0
 11
330.47779953261539
 21
150.51762352843471
 31
0.0
  0
LINE
  5
1DB
  8
0
 10
328.78593696236351
 20
151.07811524878849
 30
0.0
 11
329.91211410766613
 21
149.9519381034857
 31
0.0
  0
CIRCLE
  5
1DC
  8
0
 10
331.39963520045592
 20
149.0301024356452
 30
0.0
 40
1.75
  0
LINE
  5
1DD
  8
0
 10
325.81608848137978
 20
155.1793345796705
 30
0.0
 11
326.94226562668263
 21
154.05315743436771
 31
0.0
  0
LINE
  5
1DE
  8
0
 10
325.25040305643063
 20
154.6136491547212
 30
0.0
 11
326.37658020173347
 21
153.4874720094185
 31
0.0
  0
CIRCLE
  5
1DF
  8
0
 10
327.8641012945231
 20
152.565636341578
 30
0.0
 40
1.75
  0
LINE
  5
1E0
  8
0
 10
321.6738640376351
 20
158.09574415715511
 30
0.0
 11
323.05314372062332
 21
157.2994166608942
 31
0.0
  0
LINE
  5
1E1
  8
0
 10
321.27386403763501
 20
157.40292383412751
 30
0.0
 11
322.65314372062329
 21
156.60659633786651
 31
0.0
  0
CIRCLE
  5
1E2
  8
0
 10
324.32856738859039
 20
156.10117024751079
 30
0.0
 40
1.75
  0
LINE
  5
1E3
  8
0
 10
316.91796012716378
 20
159.84069291295381
 30
0.0
 11
318.45634671680892
 21
159.4284834686116
 31
0.0
  0
LINE
  5
1E4
  8
0
 10
316.7109048910819
 20
159.06795225192261
 30
0.0
 11
318.24929148072698
 21
158.65574280758031
 31
0.0
  0
CIRCLE
  5
1E5
  8
0
 10
319.99844036966817
 20
158.60117024751071
 30
0.0
 40
1.75
  0
LINE
  5
1E6
  8
0
 10
311.87248374196167
 20
160.29526547302319
 30
0.0
 11
313.46513873448367
 21
160.29526547302331
 31
0.0
  0
LINE
  5
1E7
  8
0
 10
311.8724837419619
 20
159.4952654730233
 30
0.0
 11
313.46513873448367
 21
159.49526547302341
 31
0.0
  0
CIRCLE
  5
1E8
  8
0
 10
315.16881123822282
 20
159.89526547302339
 30
0.0
 40
1.75
  0
LINE
  5
1E9
  8
0
 10
306.88127575963659
 20
159.42848346861149
 30
0.0
 11
308.41966234928168
 21
159.8406929129537
 31
0.0
  0
LINE
  5
1EA
  8
0
 10
307.08833099571842
 20
158.65574280758031
 30
0.0
 11
308.62671758536368
 21
159.06795225192249
 31
0.0
  0
CIRCLE
  5
1EB
  8
0
 10
310.1688112382227
 20
159.8952654730233
 30
0.0
 40
1.75
  0
LINE
  5
1EC
  8
0
 10
302.28447875582231
 20
157.29941666089391
 30
0.0
 11
303.66375843881042
 21
158.095744157155
 31
0.0
  0
LINE
  5
1ED
  8
0
 10
302.68447875582223
 20
156.60659633786651
 30
0.0
 11
304.06375843881023
 21
157.40292383412739
 31
0.0
  0
CIRCLE
  5
1EE
  8
0
 10
305.33918210677751
 20
158.60117024751071
 30
0.0
 40
1.75
  0
LINE
  5
1EF
  8
0
 10
298.39535684976289
 20
154.05315743436751
 30
0.0
 11
299.52153399506562
 21
155.1793345796705
 31
0.0
  0
LINE
  5
1F0
  8
0
 10
298.96104227471221
 20
153.4874720094183
 30
0.0
 11
300.08721942001478
 21
154.61364915472109
 31
0.0
  0
CIRCLE
  5
1F1
  8
0
 10
301.00905508785519
 20
156.10117024751071
 30
0.0
 40
1.75
  0
LINE
  5
1F2
  8
0
 10
295.47894727227811
 20
149.9109329906228
 30
0.0
 11
296.27527476853908
 21
151.29021267361091
 31
0.0
  0
LINE
  5
1F3
  8
0
 10
296.17176759530582
 20
149.5109329906229
 30
0.0
 11
296.96809509156668
 21
150.8902126736109
 31
0.0
  0
CIRCLE
  5
1F4
  8
0
 10
297.47352118192242
 20
152.565636341578
 30
0.0
 40
1.75
  0
LINE
  5
1F5
  8
0
 10
293.73399851647929
 20
145.15502908015151
 30
0.0
 11
294.1462079608217
 21
146.69341566979659
 31
0.0
  0
LINE
  5
1F6
  8
0
 10
294.50673917751038
 20
144.94797384406951
 30
0.0
 11
294.91894862185291
 21
146.48636043371459
 31
0.0
  0
CIRCLE
  5
1F7
  8
0
 10
294.97352118192231
 20
148.23550932265579
 30
0.0
 40
1.75
  0
LINE
  5
1F8
  8
0
 10
292.43990329096681
 20
140.32539994870629
 30
0.0
 11
292.85211273530899
 21
141.86378653835129
 31
0.0
  0
LINE
  5
1F9
  8
0
 10
293.21264395199802
 20
140.11834471262429
 30
0.0
 11
293.62485339634043
 21
141.65673130226929
 31
0.0
  0
CIRCLE
  5
1FA
  8
0
 10
293.67942595640989
 20
143.40588019121029
 30
0.0
 40
1.75
  0
LINE
  5
1FB
  8
0
 10
290.1669741348303
 20
136.10548822709731
 30
0.0
 11
291.08048350977759
 21
137.41011482006871
 31
0.0
  0
LINE
  5
1FC
  8
0
 10
290.82229577026152
 20
135.64662707801659
 30
0.0
 11
291.73580514520887
 21
136.951253670988
 31
0.0
  0
CIRCLE
  5
1FD
  8
0
 10
292.38533073089718
 20
138.57625105976501
 30
0.0
 40
1.75
  0
LINE
  5
1FE
  8
0
 10
286.5878245673934
 20
132.91745587768429
 30
0.0
 11
287.89245116036489
 21
133.83096525263181
 31
0.0
  0
LINE
  5
1FF
  8
0
 10
287.04668571647443
 20
132.26213424225321
 30
0.0
 11
288.35131230944558
 21
133.17564361720071
 31
0.0
  0
CIRCLE
  5
200
  8
0
 10
289.51744854914199
 20
134.48049083832021
 30
0.0
 40
1.75
  0
LINE
  5
201
  8
0
 10
282.80799008960469
 20
129.5645958434217
 30
0.0
 11
283.93416723490742
 21
130.6907729887246
 31
0.0
  0
LINE
  5
202
  8
0
 10
283.3736755145539
 20
128.99891041847249
 30
0.0
 11
284.49985265985657
 21
130.12508756377531
 31
0.0
  0
CIRCLE
  5
203
  8
0
 10
285.42168832769698
 20
131.61260865656499
 30
0.0
 40
1.75
  0
LINE
  5
204
  8
0
 10
278.9565304400158
 20
126.5140397899964
 30
0.0
 11
280.26115703298723
 21
127.4275491649439
 31
0.0
  0
LINE
  5
205
  8
0
 10
279.41539158909649
 20
125.85871815456539
 30
0.0
 11
280.72001818206792
 21
126.7722275295127
 31
0.0
  0
CIRCLE
  5
206
  8
0
 10
281.88615442176427
 20
128.07707475063219
 30
0.0
 40
1.75
  0
LINE
  5
207
  8
0
 10
274.50285872173311
 20
124.7424105644652
 30
0.0
 11
276.0412453113783
 21
125.1546200088074
 31
0.0
  0
LINE
  5
208
  8
0
 10
274.70991395781527
 20
123.9696699034339
 30
0.0
 11
276.24830054746019
 21
124.38187934777621
 31
0.0
  0
CIRCLE
  5
209
  8
0
 10
277.79039420031938
 20
125.2091925688769
 30
0.0
 40
1.75
  0
LINE
  5
20A
  8
0
 10
269.6732295902878
 20
123.4483153389525
 30
0.0
 11
271.211616179933
 21
123.86052478329481
 31
0.0
  0
LINE
  5
20B
  8
0
 10
269.8802848263698
 20
122.6755746779213
 30
0.0
 11
271.41867141601489
 21
123.0877841222637
 31
0.0
  0
CIRCLE
  5
20C
  8
0
 10
272.96076506887408
 20
123.91509734336439
 30
0.0
 40
1.75
  0
LINE
  5
20D
  8
0
 10
264.8436004588425
 20
122.15422011344
 30
0.0
 11
266.38198704848747
 21
122.5664295577822
 31
0.0
  0
LINE
  5
20E
  8
0
 10
265.0506556949245
 20
121.3814794524087
 30
0.0
 11
266.58904228456947
 21
121.79368889675111
 31
0.0
  0
CIRCLE
  5
20F
  8
0
 10
268.13113593742872
 20
122.6210021178518
 30
0.0
 40
1.75
  0
LINE
  5
210
  8
0
 10
259.98579866013148
 20
121.1484287308249
 30
0.0
 11
261.5542576446407
 21
121.4249903679285
 31
0.0
  0
LINE
  5
211
  8
0
 10
260.12471720226512
 20
120.36058252841519
 30
0.0
 11
261.69317618677422
 21
120.63714416551881
 31
0.0
  0
CIRCLE
  5
212
  8
0
 10
263.30150680598342
 20
121.3269068923392
 30
0.0
 40
1.75
  0
LINE
  5
213
  8
0
 10
255.08114054466151
 20
120.8586660040045
 30
0.0
 11
256.67379553718331
 21
120.8586660040046
 31
0.0
  0
LINE
  5
214
  8
0
 10
255.08114054466151
 20
120.05866600400461
 30
0.0
 11
256.67379553718331
 21
120.05866600400461
 31
0.0
  0
CIRCLE
  5
215
  8
0
 10
258.37746804092228
 20
120.4586660040045
 30
0.0
 40
1.75
  0
LINE
  5
216
  8
0
 10
250.08114054466151
 20
120.8586660040045
 30
0.0
 11
251.67379553718331
 21
120.8586660040045
 31
0.0
  0
LINE
  5
217
  8
0
 10
250.08114054466139
 20
120.05866600400461
 30
0.0
 11
251.67379553718331
 21
120.05866600400449
 31
0.0
  0
CIRCLE
  5
218
  8
0
 10
253.37746804092239
 20
120.4586660040046
 30
0.0
 40
1.75
  0
LINE
  5
219
  8
0
 10
245.08114054466139
 20
120.8586660040046
 30
0.0
 11
246.67379553718331
 21
120.8586660040045
 31
0.0
  0
LINE
  5
21A
  8
0
 10
245.08114054466151
 20
120.05866600400461
 30
0.0
 11
246.67379553718331
 21
120.05866600400461
 31
0.0
  0
CIRCLE
  5
21B
  8
0
 10
248.37746804092251
 20
120.4586660040046
 30
0.0
 40
1.75
  0
LINE
  5
21C
  8
0
 10
240.29698779841809
 20
121.6981886694477
 30
0.0
 11
241.83537438806329
 21
121.28597922510539
 31
0.0
  0
LINE
  5
21D
  8
0
 10
240.08993256233609
 20
120.9254480084164
 30
0.0
 11
241.6283191519814
 21
120.5132385640742
 31
0.0
  0
CIRCLE
  5
21E
  8
0
 10
243.37746804092239
 20
120.4586660040046
 30
0.0
 40
1.75
  0
LINE
  5
21F
  8
0
 10
235.4673586669727
 20
122.99228389496029
 30
0.0
 11
237.00574525661779
 21
122.580074450618
 31
0.0
  0
LINE
  5
220
  8
0
 10
235.2603034308907
 20
122.219543233929
 30
0.0
 11
236.7986900205359
 21
121.80733378958671
 31
0.0
  0
CIRCLE
  5
221
  8
0
 10
238.54783890947709
 20
121.7527612295172
 30
0.0
 40
1.75
  0
LINE
  5
222
  8
0
 10
230.63772953552751
 20
124.2863791204728
 30
0.0
 11
232.1761161251726
 21
123.87416967613051
 31
0.0
  0
LINE
  5
223
  8
0
 10
230.4306742994454
 20
123.51363845944159
 30
0.0
 11
231.96906088909051
 21
123.1014290150993
 31
0.0
  0
CIRCLE
  5
224
  8
0
 10
233.71820977803171
 20
123.0468564550298
 30
0.0
 40
1.75
  0
LINE
  5
225
  8
0
 10
225.8081004040821
 20
125.58047434598539
 30
0.0
 11
227.3464869937273
 21
125.1682649016431
 31
0.0
  0
LINE
  5
226
  8
0
 10
225.60104516800001
 20
124.8077336849543
 30
0.0
 11
227.13943175764521
 21
124.395524240612
 31
0.0
  0
CIRCLE
  5
227
  8
0
 10
228.88858064658629
 20
124.3409516805424
 30
0.0
 40
1.75
  0
LINE
  5
228
  8
0
 10
221.09822494854109
 20
127.13833435708889
 30
0.0
 11
222.59483109247171
 21
126.5936142682782
 31
0.0
  0
LINE
  5
229
  8
0
 10
220.82460883388069
 20
126.38658026046021
 30
0.0
 11
222.32121497781131
 21
125.8418601716495
 31
0.0
  0
CIRCLE
  5
22A
  8
0
 10
224.0589515151411
 20
125.635046906055
 30
0.0
 40
1.75
  0
LINE
  5
22B
  8
0
 10
216.39976184461159
 20
128.84843507371721
 30
0.0
 11
217.89636798854229
 21
128.30371498490661
 31
0.0
  0
LINE
  5
22C
  8
0
 10
216.12614572995111
 20
128.09668097708851
 30
0.0
 11
217.6227518738817
 21
127.5519608882778
 31
0.0
  0
CIRCLE
  5
22D
  8
0
 10
219.36048841121149
 20
127.3451476226834
 30
0.0
 40
1.75
  0
LINE
  5
22E
  8
2
 10
340.48595733870297
 20
138.5295667350251
 30
0.0
 11
340.76880005117772
 21
138.8124094474997
 31
0.0
  0
LINE
  5
22F
  8
2
 10
344.0214912446358
 20
134.99403282909239
 30
0.0
 11
344.30433395711032
 21
135.27687554156691
 31
0.0
  0
LINE
  5
230
  8
2
 10
345.4357048070089
 20
136.4082463914653
 30
0.0
 11
345.15286209453433
 21
136.12540367899081
 31
0.0
  0
LINE
  5
231
  8
2
 10
341.90017090107619
 20
139.94378029739821
 30
0.0
 11
341.61732818860139
 21
139.6609375849234
 31
0.0
  0
CIRCLE
  5
232
  8
0
 10
338.47070301232128
 20
141.95903462377979
 30
0.0
 40
1.75
  0
LINE
  5
233
  8
0
 10
337.25604026155031
 20
143.73938279949999
 30
0.0
 11
336.42269019917819
 21
144.57273286187231
 31
0.0
  0
LINE
  5
234
  8
0
 10
336.69035483659889
 20
143.173697374553
 30
0.0
 11
335.85700477422881
 21
144.00704743692299
 31
0.0
  0
LINE
  5
235
  8
0
 10
339.63126877915209
 20
139.38425529457609
 30
0.0
 11
345.08215141641551
 21
133.9333726573125
 31
0.0
  0
LINE
  5
236
  8
0
 10
339.71695126410111
 20
139.86425823457631
 30
0.0
 11
345.36499412889032
 21
134.21621536978719
 31
0.0
  0
LINE
  5
237
  8
0
 10
345.08215141641551
 20
133.9333726573125
 30
0.0
 11
345.36499412889032
 21
134.21621536978719
 31
0.0
  0
LINE
  5
238
  8
0
 10
346.49636497878851
 20
135.3475862196855
 30
0.0
 11
346.21352226631399
 21
135.06474350721101
 31
0.0
  0
LINE
  5
239
  8
0
 10
340.56547940152473
 20
140.71278637200021
 30
0.0
 11
346.21352226631399
 21
135.06474350721101
 31
0.0
  0
LINE
  5
23A
  8
0
 10
341.04548234152497
 20
140.79846885694911
 30
0.0
 11
346.49636497878851
 21
135.3475862196855
 31
0.0
  0
ARC
  5
23B
  8
0
 10
338.7181903857367
 20
141.71154725036439
 30
0.0
 40
2.1000000000000001
 50
331.60154959901479
 51
298.39845040098578
  0
ARC
  5
23C
  8
0
 10
338.7181903857367
 20
141.71154725036439
 30
0.0
 40
2.5
 50
338.57817847820212
 51
291.42182152179839
  0
POLYLINE
  5
23D
  8
0
 66
     1
 10
0.0
 20
0.0
 30
0.0
  0
VERTEX
  5
23E
  8
0
 10
183.41151228931631
 20
221.49368265587549
 30
0.0
 42
0.0299458005325248
 50
90.000000000000028
  0
VERTEX
  5
23F
  8
0
 10
183.23566167292219
 20
221.77144934631471
 30
0.0
 42
0.1065743736518221
 50
90.000000000000028
  0
VERTEX
  5
240
  8
0
 10
181.41062715570251
 20
223.41849959368341
 30
0.0
 42
0.0721291227821855
 70
     2
 50
150.10109816138549
  0
VERTEX
  5
241
  8
0
 10
178.96672965857181
 20
224.3884664406566
 30
0.0
 42
0.0585208129144654
 50
150.10109816138549
  0
VERTEX
  5
242
  8
0
 10
175.75377290621009
 20
224.7658084002253
 30
0.0
 42
0.0585208129144629
 50
90.000000000000028
  0
SEQEND
  5
243
  8
0
  0
POLYLINE
  5
244
  8
0
 66
     1
 10
0.0
 20
0.0
 30
0.0
  0
VERTEX
  5
245
  8
0
 10
183.7537729062102
 20
220.1658084002253
 30
0.0
 42
0.0762751172335208
 50
90.000000000000028
  0
VERTEX
  5
246
  8
0
 10
183.6273928351369
 20
220.98943745404941
 30
0.0
 42
0.1065743736518221
 50
90.000000000000028
  0
SEQEND
  5
247
  8
0
  0
POLYLINE
  5
248
  8
0
 66
     1
 10
0.0
 20
0.0
 30
0.0
  0
VERTEX
  5
249
  8
0
 10
183.6308097769178
 20
219.2855093529875
 30
0.0
 42
-0.0770795185674696
 50
90.000000000000028
  0
VERTEX
  5
24A
  8
0
 10
183.21906989878511
 20
218.39109846913189
 30
0.0
 42
-0.0035847128250172
 50
90.000000000000028
  0
VERTEX
  5
24B
  8
0
 10
183.17137049326331
 20
218.32023421321381
 30
0.0
 42
-0.0764678653005995
 70
     2
 50
212.00538320808431
  0
SEQEND
  5
24C
  8
0
  0
POLYLINE
  5
24D
  8
0
 66
     1
 10
0.0
 20
0.0
 30
0.0
  0
VERTEX
  5
24E
  8
0
 10
183.75377290620989
 20
220.16580840022519
 30
0.0
 42
-0.0379790583267293
 50
90.000000000000028
  0
VERTEX
  5
24F
  8
0
 10
183.7168093217816
 20
219.67987918748699
 30
0.0
 42
-0.0035847128250172
 50
90.000000000000028
  0
SEQEND
  5
250
  8
0
  0
LINE
  5
251
  8
0
 10
181.23867907650441
 20
220.58184483340281
 30
0.0
 11
181.1018710191741
 21
220.20596778508829
 31
0.0
  0
LINE
  5
252
  8
0
 10
181.78591130582561
 20
222.0853530266599
 30
0.0
 11
181.64910324849529
 21
221.70947597834581
 31
0.0
  0
LINE
  5
253
  8
2
 10
187.20987305428261
 20
217.98283685347141
 30
0.0
 11
187.34668111161281
 21
218.35871390178579
 31
0.0
  0
LINE
  5
254
  8
2
 10
182.51140995035311
 20
219.69293757009979
 30
0.0
 11
182.64821800768331
 21
220.06881461841419
 31
0.0
  0
LINE
  5
255
  8
2
 10
183.19545023700431
 20
221.57232281167151
 30
0.0
 11
183.058642179674
 21
221.19644576335739
 31
0.0
  0
LINE
  5
256
  8
2
 10
187.89391334093389
 20
219.86222209504331
 30
0.0
 11
187.75710528360369
 21
219.48634504672879
 31
0.0
  0
CIRCLE
  5
257
  8
0
 10
191.16970978763399
 20
217.60575192245349
 30
0.0
 40
1.75
  0
LINE
  5
258
  8
0
 10
193.2965918632577
 20
217.2573012641223
 30
0.0
 11
194.40405246889441
 21
216.85421856804831
 31
0.0
  0
LINE
  5
259
  8
0
 10
193.0229757486
 20
216.50554716749269
 30
0.0
 11
194.13043635423389
 21
216.10246447141949
 31
0.0
  0
LINE
  5
25A
  8
0
 10
188.3456909446619
 20
217.56943294982639
 30
0.0
 11
181.1018710191741
 21
220.20596778508829
 31
0.0
  0
LINE
  5
25B
  8
0
 10
188.74451036413379
 20
217.84994566128159
 30
0.0
 11
181.23867907650441
 21
220.58184483340281
 31
0.0
  0
LINE
  5
25C
  8
0
 10
189.1549345361247
 20
218.9775768062245
 30
0.0
 11
181.64910324849529
 21
221.70947597834581
 31
0.0
  0
LINE
  5
25D
  8
0
 10
189.02973123131321
 20
219.448818191398
 30
0.0
 11
181.78591130582561
 21
222.0853530266599
 31
0.0
  0
ARC
  5
25E
  8
0
 10
190.84081737035879
 20
217.72545897261739
 30
0.0
 40
2.1000000000000001
 50
176.60154959901359
 51
143.39845040098459
  0
ARC
  5
25F
  8
0
 10
190.84081737035879
 20
217.72545897261739
 30
0.0
 40
2.5
 50
183.57817847820101
 51
136.42182152179731
  0
CIRCLE
  5
260
  8
0
 10
195.86817289156369
 20
215.89565120582509
 30
0.0
 40
1.75
  0
CIRCLE
  5
261
  8
0
 10
200.56663599549341
 20
214.1855504891968
 30
0.0
 40
1.75
  0
LINE
  5
262
  8
0
 10
197.33229331423291
 20
214.9370838436019
 30
0.0
 11
198.82889945816359
 21
214.39236375479121
 31
0.0
  0
LINE
  5
263
  8
0
 10
197.6059094288934
 20
215.6888379402306
 30
0.0
 11
199.10251557282399
 21
215.14411785141999
 31
0.0
  0
POLYLINE
  5
264
  8
0
 66
     1
 10
0.0
 20
0.0
 30
0.0
  0
VERTEX
  5
265
  8
0
 10
181.46678210284571
 20
223.66580840022519
 30
0.0
 42
0.0027886694296373
 50
90.000000000000028
  0
VERTEX
  5
266
  8
0
 10
181.4106271557024
 20
223.7013423061581
 30
0.0
 42
0.0764678653005995
 70
     2
 50
147.99461679191569
  0
VERTEX
  5
267
  8
0
 10
178.95072425651929
 20
224.75870001481729
 30
0.0
 42
0.0634152908454529
 50
90.000000000000028
  0
VERTEX
  5
268
  8
0
 10
175.7537729062102
 20
225.16580840022539
 30
0.0
 42
0.0634152908454418
 50
90.000000000000028
  0
SEQEND
  5
269
  8
0
  0
POLYLINE
  5
26A
  8
0
 66
     1
 10
0.0
 20
0.0
 30
0.0
  0
VERTEX
  5
26B
  8
0
 10
183.2190698987867
 20
218.39109846913189
 30
0.0
 42
-0.1071362639939134
 50
90.000000000000028
  0
VERTEX
  5
26C
  8
0
 10
181.4106271557024
 20
216.63027449429251
 30
0.0
 42
-0.0764678653005995
 70
     2
 50
212.00538320808431
  0
VERTEX
  5
26D
  8
0
 10
178.95072425651901
 20
215.5729167856332
 30
0.0
 42
-0.1063834357462417
 50
90.000000000000028
  0
VERTEX
  5
26E
  8
0
 10
173.5879046762592
 20
215.35102521231769
 30
0.0
 42
-0.0634152908454418
 50
90.000000000000028
  0
SEQEND
  5
26F
  8
0
  0
POLYLINE
  5
270
  8
0
 66
     1
 10
0.0
 20
0.0
 30
0.0
  0
VERTEX
  5
271
  8
0
 10
173.5879046762592
 20
224.98059158813129
 30
0.0
 42
-0.0426802098424878
 50
90.000000000000028
  0
VERTEX
  5
272
  8
0
 10
175.75377290621009
 20
225.16580840022539
 30
0.0
 42
-0.0634152908454418
 50
90.000000000000028
  0
SEQEND
  5
273
  8
0
  0
POLYLINE
  5
274
  8
0
 66
     1
 10
0.0
 20
0.0
 30
0.0
  0
VERTEX
  5
275
  8
0
 10
175.75377290621009
 20
224.7658084002253
 30
0.0
 42
0.0392267518798405
 50
90.000000000000028
  0
VERTEX
  5
276
  8
0
 10
173.5879046762592
 20
224.59562658366511
 30
0.0
 42
0.0360308068082163
 50
90.000000000000028
  0
SEQEND
  5
277
  8
0
  0
CIRCLE
  5
278
  8
0
 10
205.26509909942291
 20
212.4754497725684
 30
0.0
 40
1.75
  0
LINE
  5
279
  8
0
 10
202.0307564181625
 20
213.22698312697361
 30
0.0
 11
203.52736256209309
 21
212.68226303816289
 31
0.0
  0
LINE
  5
27A
  8
0
 10
202.30437253282301
 20
213.9787372236022
 30
0.0
 11
203.8009786767536
 21
213.43401713479159
 31
0.0
  0
CIRCLE
  5
27B
  8
0
 10
209.9635622033523
 20
210.76534905594011
 30
0.0
 40
1.75
  0
LINE
  5
27C
  8
0
 10
206.72921952209211
 20
211.5168824103452
 30
0.0
 11
208.22582566602259
 21
210.97216232153451
 31
0.0
  0
LINE
  5
27D
  8
0
 10
207.00283563675259
 20
212.26863650697391
 30
0.0
 11
208.49944178068321
 21
211.7239164181633
 31
0.0
  0
CIRCLE
  5
27E
  8
0
 10
214.66202530728199
 20
209.0552483393117
 30
0.0
 40
1.75
  0
LINE
  5
27F
  8
0
 10
211.42768262602161
 20
209.80678169371691
 30
0.0
 11
212.9242887699522
 21
209.26206160490619
 31
0.0
  0
LINE
  5
280
  8
0
 10
211.70129874068209
 20
210.55853579034559
 30
0.0
 11
213.19790488461271
 21
210.0138157015349
 31
0.0
  0
POLYLINE
  5
281
  8
0
 66
     1
 10
0.0
 20
0.0
 30
0.0
  0
VERTEX
  5
282
  8
0
 10
175.75377290621009
 20
144.7658084002253
 30
0.0
 42
0.0392267518798405
 50
90.000000000000028
  0
VERTEX
  5
283
  8
0
 10
173.5879046762592
 20
144.59562658366511
 30
0.0
 42
0.0360308068082163
 50
90.000000000000028
  0
SEQEND
  5
284
  8
0
  0
POLYLINE
  5
285
  8
0
 66
     1
 10
0.0
 20
0.0
 30
0.0
  0
VERTEX
  5
286
  8
0
 10
173.5879046762592
 20
144.98059158813129
 30
0.0
 42
-0.0426802098424878
 50
90.000000000000028
  0
VERTEX
  5
287
  8
0
 10
175.75377290621009
 20
145.16580840022539
 30
0.0
 42
-0.0634152908454418
 50
90.000000000000028
  0
SEQEND
  5
288
  8
0
  0
POLYLINE
  5
289
  8
0
 66
     1
 10
0.0
 20
0.0
 30
0.0
  0
VERTEX
  5
28A
  8
0
 10
182.15822500387219
 20
137.18308459568269
 30
0.0
 42
-0.0390771506201435
 50
90.000000000000028
  0
VERTEX
  5
28B
  8
0
 10
181.4106271557024
 20
136.63027449429251
 30
0.0
 42
-0.0764678653005995
 70
     2
 50
212.00538320808431
  0
VERTEX
  5
28C
  8
0
 10
178.95072425651901
 20
135.5729167856332
 30
0.0
 42
-0.1063834357462417
 50
90.000000000000028
  0
VERTEX
  5
28D
  8
0
 10
173.5879046762592
 20
135.35102521231769
 30
0.0
 42
-0.0634152908454418
 50
90.000000000000028
  0
SEQEND
  5
28E
  8
0
  0
POLYLINE
  5
28F
  8
0
 66
     1
 10
0.0
 20
0.0
 30
0.0
  0
VERTEX
  5
290
  8
0
 10
183.75377290620989
 20
140.16580840022519
 30
0.0
 42
-0.1473733360632031
 50
90.000000000000028
  0
VERTEX
  5
291
  8
0
 10
183.21906989878511
 20
138.39109846913189
 30
0.0
 42
-0.0035847128250172
 50
90.000000000000028
  0
VERTEX
  5
292
  8
0
 10
183.17137049326331
 20
138.32023421321369
 30
0.0
 42
-0.0764678653005995
 70
     2
 50
212.00538320808431
  0
SEQEND
  5
293
  8
0
  0
POLYLINE
  5
294
  8
0
 66
     1
 10
0.0
 20
0.0
 30
0.0
  0
VERTEX
  5
295
  8
0
 10
181.46678210284571
 20
143.6658084002251
 30
0.0
 42
0.0027886694296373
 50
90.000000000000028
  0
VERTEX
  5
296
  8
0
 10
181.4106271557024
 20
143.70134230615801
 30
0.0
 42
0.0764678653005995
 70
     2
 50
147.99461679191569
  0
VERTEX
  5
297
  8
0
 10
178.95072425651929
 20
144.75870001481729
 30
0.0
 42
0.0634152908454529
 50
90.000000000000028
  0
VERTEX
  5
298
  8
0
 10
175.7537729062102
 20
145.16580840022539
 30
0.0
 42
0.0634152908454418
 50
90.000000000000028
  0
SEQEND
  5
299
  8
0
  0
POLYLINE
  5
29A
  8
0
 66
     1
 10
0.0
 20
0.0
 30
0.0
  0
VERTEX
  5
29B
  8
0
 10
183.7537729062102
 20
140.1658084002253
 30
0.0
 42
0.1573464733354264
 50
90.000000000000028
  0
VERTEX
  5
29C
  8
0
 10
183.23566167292219
 20
141.77144934631471
 30
0.0
 42
0.1065743736518221
 50
90.000000000000028
  0
VERTEX
  5
29D
  8
0
 10
181.41062715570251
 20
143.41849959368341
 30
0.0
 42
0.0721291227821855
 70
     2
 50
150.10109816138549
  0
VERTEX
  5
29E
  8
0
 10
178.96672965857181
 20
144.38846644065649
 30
0.0
 42
0.0585208129144654
 50
150.10109816138549
  0
VERTEX
  5
29F
  8
0
 10
175.75377290621009
 20
144.7658084002253
 30
0.0
 42
0.0585208129144629
 50
90.000000000000028
  0
SEQEND
  5
2A0
  8
0
  0
LINE
  5
2A1
  8
0
 10
211.70129874068209
 20
130.5585357903455
 30
0.0
 11
213.19790488461271
 21
130.0138157015349
 31
0.0
  0
LINE
  5
2A2
  8
0
 10
211.42768262602161
 20
129.80678169371691
 30
0.0
 11
212.9242887699522
 21
129.26206160490619
 31
0.0
  0
CIRCLE
  5
2A3
  8
0
 10
214.66202530728199
 20
129.0552483393117
 30
0.0
 40
1.75
  0
LINE
  5
2A4
  8
0
 10
207.00283563675259
 20
132.26863650697391
 30
0.0
 11
208.49944178068321
 21
131.7239164181633
 31
0.0
  0
LINE
  5
2A5
  8
0
 10
206.72921952209211
 20
131.5168824103452
 30
0.0
 11
208.22582566602259
 21
130.97216232153451
 31
0.0
  0
CIRCLE
  5
2A6
  8
0
 10
209.9635622033523
 20
130.76534905594011
 30
0.0
 40
1.75
  0
LINE
  5
2A7
  8
0
 10
202.30437253282301
 20
133.9787372236022
 30
0.0
 11
203.8009786767536
 21
133.43401713479159
 31
0.0
  0
LINE
  5
2A8
  8
0
 10
202.0307564181625
 20
133.22698312697361
 30
0.0
 11
203.52736256209309
 21
132.68226303816289
 31
0.0
  0
CIRCLE
  5
2A9
  8
0
 10
205.26509909942291
 20
132.4754497725684
 30
0.0
 40
1.75
  0
LINE
  5
2AA
  8
0
 10
197.6059094288934
 20
135.6888379402306
 30
0.0
 11
199.10251557282399
 21
135.14411785141991
 31
0.0
  0
LINE
  5
2AB
  8
0
 10
197.33229331423291
 20
134.9370838436019
 30
0.0
 11
198.82889945816359
 21
134.39236375479121
 31
0.0
  0
CIRCLE
  5
2AC
  8
0
 10
200.56663599549341
 20
134.1855504891968
 30
0.0
 40
1.75
  0
ARC
  5
2AD
  8
2
 10
191.16970978763419
 20
137.60575192245341
 30
0.0
 40
1.75
 50
356.60154959902059
 51
323.39845040093923
  0
ARC
  5
2AE
  8
0
 10
191.16970978763419
 20
137.60575192245341
 30
0.0
 40
1.75
 50
323.39845040093888
 51
356.6015495990203
  0
LINE
  5
2AF
  8
0
 10
192.9074463249639
 20
137.39893865685889
 30
0.0
 11
194.40405246889449
 21
136.85421856804831
 31
0.0
  0
LINE
  5
2B0
  8
0
 10
192.6338302103033
 20
136.64718456023019
 30
0.0
 11
194.13043635423409
 21
136.10246447141961
 31
0.0
  0
LINE
  5
2B1
  8
0
 10
193.0190388506611
 20
136.40056230391031
 30
0.0
 11
192.5060086356726
 21
134.99102337273141
 31
0.0
  0
ARC
  5
2B2
  8
0
 10
192.50197493133101
 20
137.1208470659974
 30
0.0
 40
0.5
 50
70.000000000000014
 51
250.00000000000011
  0
LINE
  5
2B3
  8
0
 10
192.33096485966809
 20
136.65100075560451
 30
0.0
 11
193.0190388506611
 21
136.40056230391031
 31
0.0
  0
LINE
  5
2B4
  8
0
 10
192.6729850029937
 20
137.59069337639039
 30
0.0
 11
193.36105899398669
 21
137.3402549246961
 31
0.0
  0
LINE
  5
2B5
  8
0
 10
189.14189265769269
 20
140.47217254323911
 30
0.0
 11
193.87408920897531
 21
138.749793855875
 31
0.0
  0
LINE
  5
2B6
  8
0
 10
187.77381208438999
 20
136.71340206009549
 30
0.0
 11
192.5060086356726
 21
134.99102337273141
 31
0.0
  0
LINE
  5
2B7
  8
0
 10
193.87408920897531
 20
138.749793855875
 30
0.0
 11
193.36105899398669
 21
137.3402549246961
 31
0.0
  0
ARC
  5
2B8
  8
0
 10
185.2026616456437
 20
139.7775798325714
 30
0.0
 40
4.0
 50
9.9999999999998224
 51
310.00000000000028
  0
CIRCLE
  5
2B9
  8
0
 10
185.2026616456437
 20
139.7775798325714
 30
0.0
 40
2.5
  0
CIRCLE
  5
2BA
  8
0
 10
195.86817289156369
 20
135.89565120582509
 30
0.0
 40
1.75
  0
LINE
  5
2BB
  8
0
 10
211.70129874068209
 20
50.558535790345559
 30
0.0
 11
213.19790488461271
 21
50.013815701534917
 31
0.0
  0
LINE
  5
2BC
  8
0
 10
211.42768262602161
 20
49.806781693716907
 30
0.0
 11
212.9242887699522
 21
49.262061604906222
 31
0.0
  0
CIRCLE
  5
2BD
  8
0
 10
214.66202530728199
 20
49.05524833931171
 30
0.0
 40
1.75
  0
LINE
  5
2BE
  8
0
 10
207.00283563675259
 20
52.268636506973927
 30
0.0
 11
208.49944178068321
 21
51.72391641816327
 31
0.0
  0
LINE
  5
2BF
  8
0
 10
206.72921952209211
 20
51.516882410345232
 30
0.0
 11
208.22582566602259
 21
50.972162321534512
 31
0.0
  0
CIRCLE
  5
2C0
  8
0
 10
209.9635622033523
 20
50.765349055940099
 30
0.0
 40
1.75
  0
LINE
  5
2C1
  8
0
 10
202.30437253282301
 20
53.978737223602216
 30
0.0
 11
203.8009786767536
 21
53.434017134791588
 31
0.0
  0
LINE
  5
2C2
  8
0
 10
202.0307564181625
 20
53.226983126973579
 30
0.0
 11
203.52736256209309
 21
52.682263038162908
 31
0.0
  0
CIRCLE
  5
2C3
  8
0
 10
205.26509909942291
 20
52.475449772568417
 30
0.0
 40
1.75
  0
POLYLINE
  5
2C4
  8
0
 66
     1
 10
0.0
 20
0.0
 30
0.0
  0
VERTEX
  5
2C5
  8
0
 10
175.75377290621009
 20
64.765808400225325
 30
0.0
 42
0.0392267518798405
 50
90.000000000000028
  0
VERTEX
  5
2C6
  8
0
 10
173.5879046762592
 20
64.59562658366508
 30
0.0
 42
0.0360308068082163
 50
90.000000000000028
  0
SEQEND
  5
2C7
  8
0
  0
POLYLINE
  5
2C8
  8
0
 66
     1
 10
0.0
 20
0.0
 30
0.0
  0
VERTEX
  5
2C9
  8
0
 10
173.5879046762592
 20
64.98059158813129
 30
0.0
 42
-0.0426802098424878
 50
90.000000000000028
  0
VERTEX
  5
2CA
  8
0
 10
175.75377290621009
 20
65.165808400225416
 30
0.0
 42
-0.0634152908454418
 50
90.000000000000028
  0
SEQEND
  5
2CB
  8
0
  0
POLYLINE
  5
2CC
  8
0
 66
     1
 10
0.0
 20
0.0
 30
0.0
  0
VERTEX
  5
2CD
  8
0
 10
183.2190698987867
 20
58.391098469131919
 30
0.0
 42
-0.1071362639939134
 50
90.000000000000028
  0
VERTEX
  5
2CE
  8
0
 10
181.4106271557024
 20
56.630274494292543
 30
0.0
 42
-0.0764678653005995
 70
     2
 50
212.00538320808431
  0
VERTEX
  5
2CF
  8
0
 10
178.95072425651901
 20
55.572916785633197
 30
0.0
 42
-0.1063834357462417
 50
90.000000000000028
  0
VERTEX
  5
2D0
  8
0
 10
173.5879046762592
 20
55.351025212317722
 30
0.0
 42
-0.0634152908454418
 50
90.000000000000028
  0
SEQEND
  5
2D1
  8
0
  0
POLYLINE
  5
2D2
  8
0
 66
     1
 10
0.0
 20
0.0
 30
0.0
  0
VERTEX
  5
2D3
  8
0
 10
181.46678210284571
 20
63.66580840022516
 30
0.0
 42
0.0027886694296373
 50
90.000000000000028
  0
VERTEX
  5
2D4
  8
0
 10
181.4106271557024
 20
63.701342306158033
 30
0.0
 42
0.0764678653005995
 70
     2
 50
147.99461679191569
  0
VERTEX
  5
2D5
  8
0
 10
178.95072425651929
 20
64.758700014817293
 30
0.0
 42
0.0634152908454529
 50
90.000000000000028
  0
VERTEX
  5
2D6
  8
0
 10
175.7537729062102
 20
65.165808400225373
 30
0.0
 42
0.0634152908454418
 50
90.000000000000028
  0
SEQEND
  5
2D7
  8
0
  0
LINE
  5
2D8
  8
0
 10
197.6059094288934
 20
55.688837940230599
 30
0.0
 11
199.10251557282399
 21
55.144117851419963
 31
0.0
  0
LINE
  5
2D9
  8
0
 10
197.33229331423291
 20
54.937083843601869
 30
0.0
 11
198.82889945816359
 21
54.392363754791234
 31
0.0
  0
CIRCLE
  5
2DA
  8
0
 10
200.56663599549341
 20
54.1855504891968
 30
0.0
 40
1.75
  0
CIRCLE
  5
2DB
  8
0
 10
195.86817289156369
 20
55.895651205825089
 30
0.0
 40
1.75
  0
ARC
  5
2DC
  8
0
 10
190.84081737035879
 20
57.725458972617361
 30
0.0
 40
2.5
 50
183.57817847820101
 51
136.42182152179731
  0
ARC
  5
2DD
  8
0
 10
190.84081737035879
 20
57.725458972617361
 30
0.0
 40
2.1000000000000001
 50
176.60154959901359
 51
143.39845040098459
  0
LINE
  5
2DE
  8
0
 10
189.02973123131321
 20
59.448818191398033
 30
0.0
 11
181.78591130582561
 21
62.085353026659959
 31
0.0
  0
LINE
  5
2DF
  8
0
 10
189.1549345361247
 20
58.977576806224533
 30
0.0
 11
181.64910324849529
 21
61.709475978345779
 31
0.0
  0
LINE
  5
2E0
  8
0
 10
188.74451036413379
 20
57.849945661281623
 30
0.0
 11
181.23867907650441
 21
60.581844833402812
 31
0.0
  0
LINE
  5
2E1
  8
0
 10
188.3456909446619
 20
57.569432949826393
 30
0.0
 11
181.1018710191741
 21
60.205967785088312
 31
0.0
  0
LINE
  5
2E2
  8
0
 10
193.0229757486
 20
56.505547167492693
 30
0.0
 11
194.13043635423389
 21
56.102464471419523
 31
0.0
  0
LINE
  5
2E3
  8
0
 10
193.2965918632577
 20
57.257301264122361
 30
0.0
 11
194.40405246889441
 21
56.85421856804831
 31
0.0
  0
CIRCLE
  5
2E4
  8
0
 10
191.16970978763399
 20
57.605751922453457
 30
0.0
 40
1.75
  0
LINE
  5
2E5
  8
2
 10
187.89391334093389
 20
59.862222095043279
 30
0.0
 11
187.75710528360369
 21
59.486345046728758
 31
0.0
  0
LINE
  5
2E6
  8
2
 10
183.19545023700431
 20
61.57232281167154
 30
0.0
 11
183.058642179674
 21
61.19644576335736
 31
0.0
  0
LINE
  5
2E7
  8
2
 10
182.51140995035311
 20
59.69293757009978
 30
0.0
 11
182.64821800768331
 21
60.068814618414201
 31
0.0
  0
LINE
  5
2E8
  8
2
 10
187.20987305428261
 20
57.982836853471412
 30
0.0
 11
187.34668111161281
 21
58.358713901785812
 31
0.0
  0
LINE
  5
2E9
  8
0
 10
181.78591130582561
 20
62.085353026659959
 30
0.0
 11
181.64910324849529
 21
61.709475978345779
 31
0.0
  0
LINE
  5
2EA
  8
0
 10
181.23867907650441
 20
60.581844833402812
 30
0.0
 11
181.1018710191741
 21
60.205967785088312
 31
0.0
  0
POLYLINE
  5
2EB
  8
0
 66
     1
 10
0.0
 20
0.0
 30
0.0
  0
VERTEX
  5
2EC
  8
0
 10
183.75377290620989
 20
60.165808400225217
 30
0.0
 42
-0.0379790583267293
 50
90.000000000000028
  0
VERTEX
  5
2ED
  8
0
 10
183.7168093217816
 20
59.67987918748701
 30
0.0
 42
-0.0035847128250172
 50
90.000000000000028
  0
SEQEND
  5
2EE
  8
0
  0
POLYLINE
  5
2EF
  8
0
 66
     1
 10
0.0
 20
0.0
 30
0.0
  0
VERTEX
  5
2F0
  8
0
 10
183.6308097769178
 20
59.285509352987503
 30
0.0
 42
-0.0770795185674696
 50
90.000000000000028
  0
VERTEX
  5
2F1
  8
0
 10
183.21906989878511
 20
58.391098469131919
 30
0.0
 42
-0.0035847128250172
 50
90.000000000000028
  0
VERTEX
  5
2F2
  8
0
 10
183.17137049326331
 20
58.32023421321378
 30
0.0
 42
-0.0764678653005995
 70
     2
 50
212.00538320808431
  0
SEQEND
  5
2F3
  8
0
  0
POLYLINE
  5
2F4
  8
0
 66
     1
 10
0.0
 20
0.0
 30
0.0
  0
VERTEX
  5
2F5
  8
0
 10
183.7537729062102
 20
60.165808400225274
 30
0.0
 42
0.0762751172335208
 50
90.000000000000028
  0
VERTEX
  5
2F6
  8
0
 10
183.6273928351369
 20
60.989437454049408
 30
0.0
 42
0.1065743736518221
 50
90.000000000000028
  0
SEQEND
  5
2F7
  8
0
  0
POLYLINE
  5
2F8
  8
0
 66
     1
 10
0.0
 20
0.0
 30
0.0
  0
VERTEX
  5
2F9
  8
0
 10
183.41151228931631
 20
61.493682655875489
 30
0.0
 42
0.0299458005325248
 50
90.000000000000028
  0
VERTEX
  5
2FA
  8
0
 10
183.23566167292219
 20
61.771449346314711
 30
0.0
 42
0.1065743736518221
 50
90.000000000000028
  0
VERTEX
  5
2FB
  8
0
 10
181.41062715570251
 20
63.418499593683379
 30
0.0
 42
0.0721291227821855
 70
     2
 50
150.10109816138549
  0
VERTEX
  5
2FC
  8
0
 10
178.96672965857181
 20
64.388466440656572
 30
0.0
 42
0.0585208129144654
 50
150.10109816138549
  0
VERTEX
  5
2FD
  8
0
 10
175.75377290621009
 20
64.765808400225325
 30
0.0
 42
0.0585208129144629
 50
90.000000000000028
  0
SEQEND
  5
2FE
  8
0
  0
POLYLINE
  5
2FF
  8
0
 66
     1
 10
0.0
 20
0.0
 30
0.0
  0
VERTEX
  5
300
  8
0
 10
347.80904257568278
 20
41.306986561433582
 30
0.0
 42
0.1473733360632031
 50
195.0000000000002
  0
VERTEX
  5
301
  8
0
 10
349.3848894105023
 20
42.282798735399354
 30
0.0
 42
0.1071362639938651
 50
195.0000000000002
  0
VERTEX
  5
302
  8
0
 10
350.61765533946141
 20
44.48535506606953
 30
0.0
 42
0.0764678653005995
 70
     2
 50
72.994616791915973
  0
VERTEX
  5
303
  8
0
 10
351.00231473846958
 20
47.135103119040899
 30
0.0
 42
0.0634152908454529
 50
72.994616791915973
  0
VERTEX
  5
304
  8
0
 10
350.56811934630798
 20
50.32848839725861
 30
0.0
 42
0.0634152908454418
 50
195.0000000000002
  0
SEQEND
  5
305
  8
0
  0
POLYLINE
  5
306
  8
0
 66
     1
 10
0.0
 20
0.0
 30
0.0
  0
VERTEX
  5
307
  8
0
 10
347.80904257568278
 20
41.306986561433582
 30
0.0
 42
-0.1473733360632031
 50
195.0000000000002
  0
VERTEX
  5
308
  8
0
 10
345.95641309727279
 20
41.364141276000218
 30
0.0
 42
-0.1071362639938651
 50
195.0000000000002
  0
VERTEX
  5
309
  8
0
 10
343.78752832053908
 20
42.655228047147197
 30
0.0
 42
-0.0764678653005995
 70
     2
 50
137.0053832080844
  0
VERTEX
  5
30A
  8
0
 10
342.12952948270788
 20
44.757647475144672
 30
0.0
 42
-0.0634152908454529
 50
195.0000000000002
  0
VERTEX
  5
30B
  8
0
 10
340.90886108341709
 20
47.740297946233447
 30
0.0
 42
-0.0634152908454418
 50
195.0000000000002
  0
SEQEND
  5
30C
  8
0
  0
POLYLINE
  5
30D
  8
0
 66
     1
 10
0.0
 20
0.0
 30
0.0
  0
VERTEX
  5
30E
  8
0
 10
343.66793785404252
 20
56.761799782058738
 30
0.0
 42
0.1573464733354264
 50
195.0000000000002
  0
VERTEX
  5
30F
  8
0
 10
342.2511048511239
 20
55.845772304490957
 30
0.0
 42
0.1065743736518221
 50
195.0000000000002
  0
VERTEX
  5
310
  8
0
 10
341.13253017102068
 20
53.656636358179661
 30
0.0
 42
0.0721291227821855
 70
     2
 50
255.10109816138581
  0
VERTEX
  5
311
  8
0
 10
340.82814135942061
 20
51.044966755783122
 30
0.0
 42
0.0585208129144654
 50
255.10109816138581
  0
VERTEX
  5
312
  8
0
 10
341.29523141393281
 20
47.843825564274539
 30
0.0
 42
0.0585208129144629
 50
195.0000000000002
  0
SEQEND
  5
313
  8
0
  0
POLYLINE
  5
314
  8
0
 66
     1
 10
0.0
 20
0.0
 30
0.0
  0
VERTEX
  5
315
  8
0
 10
341.29523141393281
 20
47.843825564274539
 30
0.0
 42
0.0585208129144629
 50
195.0000000000002
  0
VERTEX
  5
316
  8
0
 10
342.49129015662407
 20
44.838010944072231
 30
0.0
 42
0.0721291227822373
 50
195.0000000000002
  0
VERTEX
  5
317
  8
0
 10
344.06073340129598
 20
42.728433127904161
 30
0.0
 42
0.0118816461658305
 70
     2
 50
314.89890183861468
  0
VERTEX
  5
318
  8
0
 10
344.27332112581701
 20
42.524998407759199
 30
0.0
 42
0.18243354263818
 50
314.89890183861468
  0
SEQEND
  5
319
  8
0
  0
POLYLINE
  5
31A
  8
0
 66
     1
 10
0.0
 20
0.0
 30
0.0
  0
VERTEX
  5
31B
  8
0
 10
340.87911423791581
 20
53.646869642744541
 30
0.0
 42
0.0027886694296373
 50
195.0000000000002
  0
VERTEX
  5
31C
  8
0
 10
340.85932509026372
 20
53.583431277422839
 30
0.0
 42
0.0764678653005995
 70
     2
 50
252.994616791916
  0
VERTEX
  5
31D
  8
0
 10
340.47466569125538
 20
50.933683224451237
 30
0.0
 42
0.0634152908454529
 50
195.0000000000002
  0
VERTEX
  5
31E
  8
0
 10
340.90886108341709
 20
47.740297946233483
 30
0.0
 42
0.0634152908454418
 50
195.0000000000002
  0
SEQEND
  5
31F
  8
0
  0
LINE
  5
320
  8
0
 10
332.88715629324531
 20
68.108266767804963
 30
0.0
 11
334.0133334385481
 21
66.982089622502045
 31
0.0
  0
LINE
  5
321
  8
0
 10
332.32147086829622
 20
67.542581342855783
 30
0.0
 11
333.44764801359901
 21
66.416404197552936
 31
0.0
  0
CIRCLE
  5
322
  8
0
 10
334.93516910638851
 20
65.494568529712581
 30
0.0
 40
1.75
  0
LINE
  5
323
  8
0
 10
329.3516223873126
 20
71.643800673737672
 30
0.0
 11
330.47779953261539
 21
70.517623528434768
 31
0.0
  0
LINE
  5
324
  8
0
 10
328.78593696236351
 20
71.078115248788521
 30
0.0
 11
329.91211410766613
 21
69.95193810348573
 31
0.0
  0
CIRCLE
  5
325
  8
0
 10
331.39963520045592
 20
69.030102435645261
 30
0.0
 40
1.75
  0
LINE
  5
326
  8
0
 10
325.81608848137978
 20
75.179334579670467
 30
0.0
 11
326.94226562668263
 21
74.053157434367762
 31
0.0
  0
LINE
  5
327
  8
0
 10
325.25040305643063
 20
74.613649154721259
 30
0.0
 11
326.37658020173347
 21
73.487472009418497
 31
0.0
  0
CIRCLE
  5
328
  8
0
 10
327.8641012945231
 20
72.565636341578028
 30
0.0
 40
1.75
  0
LINE
  5
329
  8
0
 10
321.6738640376351
 20
78.095744157155082
 30
0.0
 11
323.05314372062332
 21
77.299416660894195
 31
0.0
  0
LINE
  5
32A
  8
0
 10
321.27386403763501
 20
77.402923834127463
 30
0.0
 11
322.65314372062329
 21
76.606596337866534
 31
0.0
  0
CIRCLE
  5
32B
  8
0
 10
324.32856738859039
 20
76.101170247510794
 30
0.0
 40
1.75
  0
LINE
  5
32C
  8
0
 10
316.91796012716378
 20
79.840692912953841
 30
0.0
 11
318.45634671680892
 21
79.428483468611631
 31
0.0
  0
LINE
  5
32D
  8
0
 10
316.7109048910819
 20
79.067952251922577
 30
0.0
 11
318.24929148072698
 21
78.655742807580367
 31
0.0
  0
CIRCLE
  5
32E
  8
0
 10
319.99844036966817
 20
78.601170247510765
 30
0.0
 40
1.75
  0
LINE
  5
32F
  8
0
 10
311.87248374196167
 20
80.295265473023235
 30
0.0
 11
313.46513873448367
 21
80.295265473023363
 31
0.0
  0
LINE
  5
330
  8
0
 10
311.8724837419619
 20
79.49526547302338
 30
0.0
 11
313.46513873448367
 21
79.495265473023395
 31
0.0
  0
CIRCLE
  5
331
  8
0
 10
315.16881123822282
 20
79.895265473023414
 30
0.0
 40
1.75
  0
LINE
  5
332
  8
0
 10
306.88127575963659
 20
79.428483468611489
 30
0.0
 11
308.41966234928168
 21
79.840692912953756
 31
0.0
  0
LINE
  5
333
  8
0
 10
307.08833099571842
 20
78.655742807580282
 30
0.0
 11
308.62671758536368
 21
79.067952251922534
 31
0.0
  0
CIRCLE
  5
334
  8
0
 10
310.1688112382227
 20
79.895265473023272
 30
0.0
 40
1.75
  0
LINE
  5
335
  8
0
 10
302.28447875582231
 20
77.299416660893911
 30
0.0
 11
303.66375843881042
 21
78.095744157154996
 31
0.0
  0
LINE
  5
336
  8
0
 10
302.68447875582223
 20
76.606596337866463
 30
0.0
 11
304.06375843881023
 21
77.402923834127449
 31
0.0
  0
CIRCLE
  5
337
  8
0
 10
305.33918210677751
 20
78.60117024751068
 30
0.0
 40
1.75
  0
LINE
  5
338
  8
0
 10
298.39535684976289
 20
74.053157434367563
 30
0.0
 11
299.52153399506562
 21
75.179334579670467
 31
0.0
  0
LINE
  5
339
  8
0
 10
298.96104227471221
 20
73.487472009418283
 30
0.0
 11
300.08721942001478
 21
74.613649154721145
 31
0.0
  0
CIRCLE
  5
33A
  8
0
 10
301.00905508785519
 20
76.101170247510737
 30
0.0
 40
1.75
  0
LINE
  5
33B
  8
0
 10
295.47894727227811
 20
69.910932990622797
 30
0.0
 11
296.27527476853908
 21
71.29021267361091
 31
0.0
  0
LINE
  5
33C
  8
0
 10
296.17176759530582
 20
69.510932990622933
 30
0.0
 11
296.96809509156668
 21
70.890212673610961
 31
0.0
  0
CIRCLE
  5
33D
  8
0
 10
297.47352118192242
 20
72.565636341578028
 30
0.0
 40
1.75
  0
LINE
  5
33E
  8
0
 10
293.73399851647929
 20
65.155029080151564
 30
0.0
 11
294.1462079608217
 21
66.69341566979665
 31
0.0
  0
LINE
  5
33F
  8
0
 10
294.50673917751038
 20
64.947973844069494
 30
0.0
 11
294.91894862185291
 21
66.486360433714623
 31
0.0
  0
CIRCLE
  5
340
  8
0
 10
294.97352118192231
 20
68.235509322655815
 30
0.0
 40
1.75
  0
LINE
  5
341
  8
0
 10
292.43990329096681
 20
60.325399948706313
 30
0.0
 11
292.85211273530899
 21
61.86378653835132
 31
0.0
  0
LINE
  5
342
  8
0
 10
293.21264395199802
 20
60.118344712624257
 30
0.0
 11
293.62485339634043
 21
61.656731302269321
 31
0.0
  0
CIRCLE
  5
343
  8
0
 10
293.67942595640989
 20
63.405880191210372
 30
0.0
 40
1.75
  0
LINE
  5
344
  8
0
 10
290.1669741348303
 20
56.105488227097339
 30
0.0
 11
291.08048350977759
 21
57.410114820068742
 31
0.0
  0
LINE
  5
345
  8
0
 10
290.82229577026152
 20
55.646627078016621
 30
0.0
 11
291.73580514520887
 21
56.951253670988002
 31
0.0
  0
CIRCLE
  5
346
  8
0
 10
292.38533073089718
 20
58.576251059765042
 30
0.0
 40
1.75
  0
LINE
  5
347
  8
0
 10
286.5878245673934
 20
52.917455877684382
 30
0.0
 11
287.89245116036489
 21
53.830965252631842
 31
0.0
  0
LINE
  5
348
  8
0
 10
287.04668571647443
 20
52.262134242253211
 30
0.0
 11
288.35131230944558
 21
53.175643617200699
 31
0.0
  0
CIRCLE
  5
349
  8
0
 10
289.51744854914199
 20
54.480490838320208
 30
0.0
 40
1.75
  0
LINE
  5
34A
  8
0
 10
282.80799008960469
 20
49.564595843421728
 30
0.0
 11
283.93416723490742
 21
50.69077298872466
 31
0.0
  0
LINE
  5
34B
  8
0
 10
283.3736755145539
 20
48.998910418472491
 30
0.0
 11
284.49985265985657
 21
50.125087563775367
 31
0.0
  0
CIRCLE
  5
34C
  8
0
 10
285.42168832769698
 20
51.61260865656498
 30
0.0
 40
1.75
  0
LINE
  5
34D
  8
0
 10
278.9565304400158
 20
46.51403978999641
 30
0.0
 11
280.26115703298723
 21
47.427549164943912
 31
0.0
  0
LINE
  5
34E
  8
0
 10
279.41539158909649
 20
45.858718154565388
 30
0.0
 11
280.72001818206792
 21
46.772227529512747
 31
0.0
  0
CIRCLE
  5
34F
  8
0
 10
281.88615442176427
 20
48.077074750632242
 30
0.0
 40
1.75
  0
LINE
  5
350
  8
0
 10
274.50285872173311
 20
44.742410564465217
 30
0.0
 11
276.0412453113783
 21
45.154620008807399
 31
0.0
  0
LINE
  5
351
  8
0
 10
274.70991395781527
 20
43.969669903433953
 30
0.0
 11
276.24830054746019
 21
44.381879347776177
 31
0.0
  0
CIRCLE
  5
352
  8
0
 10
277.79039420031938
 20
45.209192568876936
 30
0.0
 40
1.75
  0
LINE
  5
353
  8
0
 10
269.6732295902878
 20
43.448315338952568
 30
0.0
 11
271.211616179933
 21
43.860524783294807
 31
0.0
  0
LINE
  5
354
  8
0
 10
269.8802848263698
 20
42.675574677921297
 30
0.0
 11
271.41867141601489
 21
43.087784122263741
 31
0.0
  0
CIRCLE
  5
355
  8
0
 10
272.96076506887408
 20
43.915097343364373
 30
0.0
 40
1.75
  0
LINE
  5
356
  8
0
 10
264.8436004588425
 20
42.154220113440033
 30
0.0
 11
266.38198704848747
 21
42.566429557782207
 31
0.0
  0
LINE
  5
357
  8
0
 10
265.0506556949245
 20
41.381479452408712
 30
0.0
 11
266.58904228456947
 21
41.793688896751121
 31
0.0
  0
CIRCLE
  5
358
  8
0
 10
268.13113593742872
 20
42.621002117851837
 30
0.0
 40
1.75
  0
LINE
  5
359
  8
0
 10
259.98579866013148
 20
41.148428730824889
 30
0.0
 11
261.5542576446407
 21
41.424990367928551
 31
0.0
  0
LINE
  5
35A
  8
0
 10
260.12471720226512
 20
40.36058252841525
 30
0.0
 11
261.69317618677422
 21
40.637144165518862
 31
0.0
  0
CIRCLE
  5
35B
  8
0
 10
263.30150680598342
 20
41.326906892339188
 30
0.0
 40
1.75
  0
LINE
  5
35C
  8
0
 10
255.08114054466151
 20
40.858666004004562
 30
0.0
 11
256.67379553718331
 21
40.858666004004618
 31
0.0
  0
LINE
  5
35D
  8
0
 10
255.08114054466151
 20
40.058666004004579
 30
0.0
 11
256.67379553718331
 21
40.058666004004628
 31
0.0
  0
CIRCLE
  5
35E
  8
0
 10
258.37746804092228
 20
40.458666004004549
 30
0.0
 40
1.75
  0
LINE
  5
35F
  8
0
 10
250.08114054466151
 20
40.858666004004533
 30
0.0
 11
251.67379553718331
 21
40.858666004004562
 31
0.0
  0
LINE
  5
360
  8
0
 10
250.08114054466139
 20
40.058666004004657
 30
0.0
 11
251.67379553718331
 21
40.058666004004543
 31
0.0
  0
CIRCLE
  5
361
  8
0
 10
253.37746804092239
 20
40.45866600400467
 30
0.0
 40
1.75
  0
LINE
  5
362
  8
0
 10
245.08114054466139
 20
40.85866600400464
 30
0.0
 11
246.67379553718331
 21
40.858666004004562
 31
0.0
  0
LINE
  5
363
  8
0
 10
245.08114054466151
 20
40.058666004004628
 30
0.0
 11
246.67379553718331
 21
40.058666004004607
 31
0.0
  0
CIRCLE
  5
364
  8
0
 10
248.37746804092251
 20
40.458666004004613
 30
0.0
 40
1.75
  0
LINE
  5
365
  8
0
 10
240.29698779841809
 20
41.698188669447681
 30
0.0
 11
241.83537438806329
 21
41.28597922510545
 31
0.0
  0
LINE
  5
366
  8
0
 10
240.08993256233609
 20
40.925448008416453
 30
0.0
 11
241.6283191519814
 21
40.513238564074179
 31
0.0
  0
CIRCLE
  5
367
  8
0
 10
243.37746804092239
 20
40.458666004004613
 30
0.0
 40
1.75
  0
LINE
  5
368
  8
0
 10
235.4673586669727
 20
42.99228389496033
 30
0.0
 11
237.00574525661779
 21
42.580074450617992
 31
0.0
  0
LINE
  5
369
  8
0
 10
235.2603034308907
 20
42.219543233929073
 30
0.0
 11
236.7986900205359
 21
41.807333789586721
 31
0.0
  0
CIRCLE
  5
36A
  8
0
 10
238.54783890947709
 20
41.752761229517212
 30
0.0
 40
1.75
  0
LINE
  5
36B
  8
0
 10
230.63772953552751
 20
44.286379120472873
 30
0.0
 11
232.1761161251726
 21
43.874169676130577
 31
0.0
  0
LINE
  5
36C
  8
0
 10
230.4306742994454
 20
43.513638459441609
 30
0.0
 11
231.96906088909051
 21
43.101429015099363
 31
0.0
  0
CIRCLE
  5
36D
  8
0
 10
233.71820977803171
 20
43.046856455029818
 30
0.0
 40
1.75
  0
LINE
  5
36E
  8
0
 10
225.8081004040821
 20
45.580474345985436
 30
0.0
 11
227.3464869937273
 21
45.16826490164317
 31
0.0
  0
LINE
  5
36F
  8
0
 10
225.60104516800001
 20
44.807733684954258
 30
0.0
 11
227.13943175764521
 21
44.395524240611991
 31
0.0
  0
CIRCLE
  5
370
  8
0
 10
228.88858064658629
 20
44.340951680542439
 30
0.0
 40
1.75
  0
LINE
  5
371
  8
0
 10
221.09822494854109
 20
47.138334357088858
 30
0.0
 11
222.59483109247171
 21
46.593614268278259
 31
0.0
  0
LINE
  5
372
  8
0
 10
220.82460883388069
 20
46.386580260460192
 30
0.0
 11
222.32121497781131
 21
45.841860171649593
 31
0.0
  0
CIRCLE
  5
373
  8
0
 10
224.0589515151411
 20
45.635046906055038
 30
0.0
 40
1.75
  0
LINE
  5
374
  8
0
 10
216.39976184461159
 20
48.848435073717212
 30
0.0
 11
217.89636798854229
 21
48.303714984906662
 31
0.0
  0
LINE
  5
375
  8
0
 10
216.12614572995111
 20
48.096680977088567
 30
0.0
 11
217.6227518738817
 21
47.55196088827784
 31
0.0
  0
CIRCLE
  5
376
  8
0
 10
219.36048841121149
 20
47.345147622683413
 30
0.0
 40
1.75
  0
ARC
  5
377
  8
2
 10
338.47070301232151
 20
61.959034623779928
 30
0.0
 40
1.75
 50
151.60154959902121
 51
118.39845040093979
  0
ARC
  5
378
  8
0
 10
338.47070301232151
 20
61.959034623779928
 30
0.0
 40
1.75
 50
118.39845040093959
 51
151.6015495990209
  0
LINE
  5
379
  8
0
 10
336.98318191953177
 20
62.880870291620198
 30
0.0
 11
335.85700477422898
 21
64.007047436923017
 31
0.0
  0
LINE
  5
37A
  8
0
 10
337.54886734448121
 20
63.446555716569399
 30
0.0
 11
336.42269019917819
 21
64.572732861872254
 31
0.0
  0
LINE
  5
37B
  8
0
 10
337.30397682336348
 20
63.832867593924249
 30
0.0
 11
338.36463699514331
 21
64.89352776570405
 31
0.0
  0
ARC
  5
37C
  8
0
 10
337.46819038573659
 20
62.961547250364667
 30
0.0
 40
0.5
 50
225.00000000000071
 51
45.000000000000753
  0
LINE
  5
37D
  8
0
 10
337.8217437763297
 20
63.315100640957979
 30
0.0
 11
337.30397682336348
 21
63.832867593924249
 31
0.0
  0
LINE
  5
37E
  8
0
 10
337.11463699514343
 20
62.607993859771362
 30
0.0
 11
336.5968700421771
 21
63.125760812737717
 31
0.0
  0
LINE
  5
37F
  8
0
 10
339.09712776769959
 20
58.504182743655463
 30
0.0
 11
335.53620987039727
 21
62.065100640957837
 31
0.0
  0
LINE
  5
380
  8
0
 10
341.9255548924458
 20
61.332609868401669
 30
0.0
 11
338.36463699514343
 21
64.893527765704022
 31
0.0
  0
LINE
  5
381
  8
0
 10
335.53620987039727
 20
62.065100640957837
 30
0.0
 11
336.5968700421771
 21
63.125760812737717
 31
0.0
  0
ARC
  5
382
  8
0
 10
342.96083107285602
 20
57.468906563245383
 30
0.0
 40
4.0
 50
165.0000000000004
 51
105.0000000000009
  0
CIRCLE
  5
383
  8
0
 10
342.96083107285602
 20
57.468906563245383
 30
0.0
 40
2.5
  0
POLYLINE
  5
384
  8
0
 66
     1
 10
0.0
 20
0.0
 30
0.0
  0
VERTEX
  5
385
  8
0
 10
343.66793785404241
 20
56.761799782058738
 30
0.0
 42
-0.1337697413190909
 50
195.0000000000002
  0
VERTEX
  5
386
  8
0
 10
345.35666343575201
 20
56.75477261999626
 30
0.0
 42
-0.1071362639938651
 50
195.0000000000002
  0
SEQEND
  5
387
  8
0
  0
POLYLINE
  5
388
  8
0
 66
     1
 10
0.0
 20
0.0
 30
0.0
  0
VERTEX
  5
389
  8
0
 10
346.73346114445928
 20
56.139522366395113
 30
0.0
 42
-0.050501803849183
 50
195.0000000000002
  0
VERTEX
  5
38A
  8
0
 10
347.68945210918599
 20
55.413558296344831
 30
0.0
 42
-0.0764678653005995
 70
     2
 50
317.00538320808448
  0
VERTEX
  5
38B
  8
0
 10
349.34745094701742
 20
53.311138868347477
 30
0.0
 42
-0.0634152908454529
 50
195.0000000000002
  0
VERTEX
  5
38C
  8
0
 10
350.56811934630798
 20
50.32848839725861
 30
0.0
 42
-0.0634152908454418
 50
195.0000000000002
  0
SEQEND
  5
38D
  8
0
  0
LINE
  5
38E
  8
0
 10
117.0879046762582
 20
58.350000000000072
 30
0.0
 11
117.58790467625811
 21
58.350000000000072
 31
0.0
  0
LINE
  5
38F
  8
0
 10
117.0879046762583
 20
44.938625560726649
 30
0.0
 11
117.58790467625811
 21
44.938625560726649
 31
0.0
  0
LINE
  5
390
  8
0
 10
117.0879046762582
 20
61.650000000000027
 30
0.0
 11
117.58790467625811
 21
61.650000000000027
 31
0.0
  0
LINE
  5
391
  8
0
 10
117.0879046762582
 20
75.061374439273493
 30
0.0
 11
117.58790467625811
 21
75.061374439273465
 31
0.0
  0
LINE
  5
392
  8
0
 10
169.2879046762591
 20
54.500000000000021
 30
0.0
 11
168.48790467625909
 21
54.500000000000142
 31
0.0
  0
LINE
  5
393
  8
0
 10
169.28790467625919
 20
65.499999999999915
 30
0.0
 11
168.48790467625909
 21
65.500000000000028
 31
0.0
  0
LINE
  5
394
  8
0
 10
117.0879046762583
 20
44.93862556072667
 30
0.0
 11
117.0879046762582
 21
75.061374439273493
 31
0.0
  0
LINE
  5
395
  8
0
 10
117.58790467625811
 20
28.000000000000028
 30
0.0
 11
119.5879046762588
 21
25.99999999999935
 31
0.0
  0
LINE
  5
396
  8
0
 10
117.58790467625811
 20
28.000000000000028
 30
0.0
 11
117.58790467625811
 21
92.000000000000156
 31
0.0
  0
LINE
  5
397
  8
0
 10
151.08790467625809
 20
25.24525262497437
 30
0.0
 11
151.08790467625809
 21
94.754747375026128
 31
0.0
  0
LINE
  5
398
  8
0
 10
120.58790467625811
 20
25.24525262497448
 30
0.0
 11
120.58790467625801
 21
27.833443075999892
 31
0.0
  0
LINE
  5
399
  8
0
 10
119.5879046762588
 20
25.99999999999935
 30
0.0
 11
119.5879046762588
 21
26.221487497274008
 31
0.0
  0
LINE
  5
39A
  8
0
 10
120.58790467625811
 20
55.863874409764577
 30
0.0
 11
151.08790467625809
 21
55.863874409764577
 31
0.0
  0
LINE
  5
39B
  8
0
 10
120.58790467625811
 20
46.204616146874308
 30
0.0
 11
151.08790467625809
 21
46.204616146874308
 31
0.0
  0
LINE
  5
39C
  8
0
 10
120.58790467625811
 20
39.040636478101561
 30
0.0
 11
151.08790467625809
 21
39.040636478101561
 31
0.0
  0
LINE
  5
39D
  8
0
 10
120.58790467625811
 20
31.969568666236711
 30
0.0
 11
151.08790467625809
 21
31.969568666236832
 31
0.0
  0
LINE
  5
39E
  8
0
 10
120.58790467625811
 20
27.833443075999892
 30
0.0
 11
151.08790467625809
 21
27.833443075999892
 31
0.0
  0
LINE
  5
39F
  8
0
 10
120.58790467625811
 20
25.24525262497448
 30
0.0
 11
151.08790467625809
 21
25.24525262497437
 31
0.0
  0
LINE
  5
3A0
  8
0
 10
120.58790467625811
 20
46.204616146874308
 30
0.0
 11
120.58790467625811
 21
55.863874409764577
 31
0.0
  0
LINE
  5
3A1
  8
0
 10
120.58790467625811
 20
31.969568666236832
 30
0.0
 11
120.58790467625811
 21
39.040636478101561
 31
0.0
  0
LINE
  5
3A2
  8
0
 10
119.5879046762588
 20
56.12545575542029
 30
0.0
 11
151.08790467625809
 21
56.12545575542029
 31
0.0
  0
LINE
  5
3A3
  8
0
 10
119.5879046762588
 20
39.755290004745262
 30
0.0
 11
151.08790467625809
 21
39.755290004745262
 31
0.0
  0
LINE
  5
3A4
  8
0
 10
119.5879046762588
 20
28.809677948299651
 30
0.0
 11
151.08790467625809
 21
28.809677948298969
 31
0.0
  0
LINE
  5
3A5
  8
0
 10
120.58790467625801
 20
55.863874409764577
 30
0.0
 11
119.5879046762588
 21
56.12545575542029
 31
0.0
  0
LINE
  5
3A6
  8
0
 10
120.58790467625811
 20
46.204616146874308
 30
0.0
 11
119.5879046762588
 21
46.466197492529787
 31
0.0
  0
LINE
  5
3A7
  8
0
 10
120.58790467625811
 20
39.040636478101561
 30
0.0
 11
119.5879046762588
 21
39.755290004745369
 31
0.0
  0
LINE
  5
3A8
  8
0
 10
120.58790467625811
 20
31.969568666236711
 30
0.0
 11
119.5879046762588
 21
32.684222192880299
 31
0.0
  0
LINE
  5
3A9
  8
0
 10
120.58790467625801
 20
27.833443075999892
 30
0.0
 11
119.5879046762588
 21
28.809677948299651
 31
0.0
  0
LINE
  5
3AA
  8
0
 10
120.58790467625811
 20
25.24525262497448
 30
0.0
 11
119.5879046762588
 21
26.221487497274129
 31
0.0
  0
LINE
  5
3AB
  8
0
 10
119.5879046762588
 20
56.12545575542029
 30
0.0
 11
119.5879046762588
 21
63.874544244579987
 31
0.0
  0
LINE
  5
3AC
  8
0
 10
119.5879046762588
 20
39.755290004745369
 30
0.0
 11
119.5879046762588
 21
46.466197492529787
 31
0.0
  0
LINE
  5
3AD
  8
0
 10
119.5879046762588
 20
28.809677948299651
 30
0.0
 11
119.5879046762588
 21
32.684222192880299
 31
0.0
  0
LINE
  5
3AE
  8
0
 10
119.5879046762588
 20
91.190322051700747
 30
0.0
 11
119.5879046762588
 21
87.315777807120099
 31
0.0
  0
LINE
  5
3AF
  8
0
 10
119.5879046762588
 20
80.244709995255036
 30
0.0
 11
119.5879046762588
 21
73.53380250747071
 31
0.0
  0
LINE
  5
3B0
  8
0
 10
120.58790467625811
 20
94.754747375025914
 30
0.0
 11
119.5879046762588
 21
93.778512502726386
 31
0.0
  0
LINE
  5
3B1
  8
0
 10
120.58790467625801
 20
92.166556924000517
 30
0.0
 11
119.5879046762588
 21
91.190322051700747
 31
0.0
  0
LINE
  5
3B2
  8
0
 10
120.58790467625811
 20
88.030431333763687
 30
0.0
 11
119.5879046762588
 21
87.315777807120099
 31
0.0
  0
LINE
  5
3B3
  8
0
 10
120.58790467625811
 20
80.959363521898837
 30
0.0
 11
119.5879046762588
 21
80.244709995255036
 31
0.0
  0
LINE
  5
3B4
  8
0
 10
120.58790467625811
 20
73.795383853125969
 30
0.0
 11
119.5879046762588
 21
73.53380250747071
 31
0.0
  0
LINE
  5
3B5
  8
0
 10
120.58790467625801
 20
64.136125590235935
 30
0.0
 11
119.5879046762588
 21
63.874544244580221
 31
0.0
  0
LINE
  5
3B6
  8
0
 10
119.5879046762588
 20
91.190322051700747
 30
0.0
 11
151.08790467625809
 21
91.190322051701415
 31
0.0
  0
LINE
  5
3B7
  8
0
 10
119.5879046762588
 20
80.244709995255235
 30
0.0
 11
151.08790467625809
 21
80.244709995255235
 31
0.0
  0
LINE
  5
3B8
  8
0
 10
119.5879046762588
 20
63.874544244580221
 30
0.0
 11
151.08790467625809
 21
63.874544244580221
 31
0.0
  0
LINE
  5
3B9
  8
0
 10
120.58790467625811
 20
88.030431333763687
 30
0.0
 11
120.58790467625811
 21
80.959363521898837
 31
0.0
  0
LINE
  5
3BA
  8
0
 10
120.58790467625811
 20
73.795383853125969
 30
0.0
 11
120.58790467625811
 21
64.136125590235935
 31
0.0
  0
LINE
  5
3BB
  8
0
 10
120.58790467625811
 20
94.754747375025914
 30
0.0
 11
151.08790467625809
 21
94.754747375026128
 31
0.0
  0
LINE
  5
3BC
  8
0
 10
120.58790467625811
 20
92.166556924000517
 30
0.0
 11
151.08790467625809
 21
92.166556924000517
 31
0.0
  0
LINE
  5
3BD
  8
0
 10
120.58790467625811
 20
88.030431333763687
 30
0.0
 11
151.08790467625809
 21
88.030431333763687
 31
0.0
  0
LINE
  5
3BE
  8
0
 10
120.58790467625811
 20
80.959363521898837
 30
0.0
 11
151.08790467625809
 21
80.959363521898837
 31
0.0
  0
LINE
  5
3BF
  8
0
 10
120.58790467625811
 20
73.795383853125969
 30
0.0
 11
151.08790467625809
 21
73.795383853126197
 31
0.0
  0
LINE
  5
3C0
  8
0
 10
120.58790467625811
 20
64.136125590235935
 30
0.0
 11
151.08790467625809
 21
64.136125590235935
 31
0.0
  0
LINE
  5
3C1
  8
0
 10
119.5879046762588
 20
94.000000000001052
 30
0.0
 11
119.5879046762588
 21
93.778512502726386
 31
0.0
  0
LINE
  5
3C2
  8
0
 10
120.58790467625811
 20
94.754747375025914
 30
0.0
 11
120.58790467625801
 21
92.166556924000517
 31
0.0
  0
LINE
  5
3C3
  8
0
 10
117.58790467625811
 20
92.000000000000355
 30
0.0
 11
119.5879046762588
 21
94.000000000001052
 31
0.0
  0
LINE
  5
3C4
  8
0
 10
168.48790467625921
 20
54.500000000000142
 30
0.0
 11
168.48790467625921
 21
65.500000000000028
 31
0.0
  0
LINE
  5
3C5
  8
0
 10
169.2879046762591
 20
54.500000000000021
 30
0.0
 11
169.2879046762591
 21
65.500000000000028
 31
0.0
  0
ARC
  5
3C6
  8
0
 10
172.0879046762592
 20
77.750000000000028
 30
0.0
 40
1.5
 50
360.0
 51
90.000000000000227
  0
ARC
  5
3C7
  8
0
 10
172.0879046762592
 20
42.250000000000028
 30
0.0
 40
1.5
 50
270.0
 51
360.0
  0
LINE
  5
3C8
  8
0
 10
173.58790467625909
 20
42.250000000000028
 30
0.0
 11
173.58790467625909
 21
77.750000000000028
 31
0.0
  0
LINE
  5
3C9
  8
0
 10
172.0879046762592
 20
79.250000000000028
 30
0.0
 11
162.5879046762592
 21
79.250000000000028
 31
0.0
  0
LINE
  5
3CA
  8
0
 10
172.0879046762592
 20
40.750000000000021
 30
0.0
 11
162.58790467625909
 21
40.750000000000021
 31
0.0
  0
LINE
  5
3CB
  8
0
 10
156.08790467625909
 20
61.250000000000028
 30
0.0
 11
151.0879046762582
 21
61.250000000000028
 31
0.0
  0
LINE
  5
3CC
  8
0
 10
156.08790467625909
 20
58.750000000000028
 30
0.0
 11
151.0879046762582
 21
58.750000000000028
 31
0.0
  0
LINE
  5
3CD
  8
0
 10
151.0879046762582
 20
28.499999999999801
 30
0.0
 11
156.0879046762573
 21
28.499999999999801
 31
0.0
  0
LINE
  5
3CE
  8
0
 10
151.0879046762582
 20
91.500000000000256
 30
0.0
 11
156.0879046762573
 21
91.500000000000256
 31
0.0
  0
LINE
  5
3CF
  8
0
 10
156.087904676259
 20
81.000000000000028
 30
0.0
 11
151.08790467625809
 21
81.000000000000028
 31
0.0
  0
LINE
  5
3D0
  8
0
 10
156.087904676259
 20
39.000000000000028
 30
0.0
 11
151.08790467625809
 21
39.000000000000028
 31
0.0
  0
LINE
  5
3D1
  8
0
 10
156.08790467625909
 20
25.750000000000139
 30
0.0
 11
156.08790467625909
 21
94.250000000000142
 31
0.0
  0
LINE
  5
3D2
  8
0
 10
159.5879046762592
 20
94.250000000000142
 30
0.0
 11
156.08790467625909
 21
94.250000000000014
 31
0.0
  0
LINE
  5
3D3
  8
0
 10
159.5879046762592
 20
25.750000000000139
 30
0.0
 11
156.08790467625909
 21
25.750000000000139
 31
0.0
  0
LINE
  5
3D4
  8
0
 10
159.5879046762592
 20
25.750000000000139
 30
0.0
 11
159.58790467625909
 21
94.250000000000142
 31
0.0
  0
LINE
  5
3D5
  8
1
 10
112.0879046762584
 20
60.000000000000028
 30
0.0
 11
178.5879046762592
 21
60.000000000000028
 31
0.0
  0
LINE
  5
3D6
  8
0
 10
162.58790467625909
 20
32.250000000000028
 30
0.0
 11
162.5879046762592
 21
87.750000000000028
 31
0.0
  0
LINE
  5
3D7
  8
0
 10
159.5879046762592
 20
32.250000000000028
 30
0.0
 11
162.5879046762592
 21
32.250000000000028
 31
0.0
  0
LINE
  5
3D8
  8
0
 10
159.5879046762592
 20
87.749999999999957
 30
0.0
 11
162.58790467625909
 21
87.750000000000028
 31
0.0
  0
TEXT
  5
52B
  8
0
 62
     3
 10
0.0
 20
0.0
 30
0.0
 40
10.0
  1
PR-39B
  7
STANDARD1
  0
ENDSEC
  0
EOF
