  0
SECTION
  2
HEADER
  9
$ACADVER
  1
AC1009
  9
$INSBASE
 10
0.0
 20
0.0
 30
0.0
  9
$EXTMIN
 10
0.0
 20
-2.960436562073669
 30
0.0
  9
$EXTMAX
 10
159.07033979561211
 20
121.8688156122476
 30
0.0
  9
$LIMMIN
 10
0.0
 20
0.0
  9
$LIMMAX
 10
187.5
 20
135.0
  9
$ORTHOMODE
 70
     1
  9
$REGENMODE
 70
     1
  9
$FILLMODE
 70
     1
  9
$QTEXTMODE
 70
     0
  9
$MIRRTEXT
 70
     0
  9
$DRAGMODE
 70
     2
  9
$LTSCALE
 40
5.0
  9
$OSMODE
 70
  3071
  9
$ATTMODE
 70
     1
  9
$TEXTSIZE
 40
0.2
  9
$TRACEWID
 40
0.05
  9
$TEXTSTYLE
  7
STANDARD
  9
$CLAYER
  8
0
  9
$CELTYPE
  6
BYLAYER
  9
$CECOLOR
 62
   256
  9
$DIMSCALE
 40
0.5
  9
$DIMASZ
 40
3.0
  9
$DIMEXO
 40
2.0
  9
$DIMDLI
 40
0.38
  9
$DIMRND
 40
0.0
  9
$DIMDLE
 40
0.0
  9
$DIMEXE
 40
2.0
  9
$DIMTP
 40
0.0
  9
$DIMTM
 40
0.0
  9
$DIMTXT
 40
3.2000000000000002
  9
$DIMCEN
 40
0.0
  9
$DIMTSZ
 40
0.0
  9
$DIMTOL
 70
     0
  9
$DIMLIM
 70
     0
  9
$DIMTIH
 70
     0
  9
$DIMTOH
 70
     0
  9
$DIMSE1
 70
     0
  9
$DIMSE2
 70
     0
  9
$DIMTAD
 70
     1
  9
$DIMZIN
 70
     0
  9
$DIMBLK
  1

  9
$DIMASO
 70
     1
  9
$DIMSHO
 70
     0
  9
$DIMPOST
  1

  9
$DIMAPOST
  1

  9
$DIMALT
 70
     0
  9
$DIMALTD
 70
     2
  9
$DIMALTF
 40
25.399999999999999
  9
$DIMLFAC
 40
1.0
  9
$DIMTOFL
 70
     1
  9
$DIMTVP
 40
1.6000000000000001
  9
$DIMTIX
 70
     1
  9
$DIMSOXD
 70
     0
  9
$DIMSAH
 70
     0
  9
$DIMBLK1
  1

  9
$DIMBLK2
  1

  9
$DIMSTYLE
  2
STANDARD
  9
$DIMCLRD
 70
     0
  9
$DIMCLRE
 70
     0
  9
$DIMCLRT
 70
     0
  9
$DIMTFAC
 40
1.0
  9
$DIMGAP
 40
0.09
  9
$LUNITS
 70
     2
  9
$LUPREC
 70
     4
  9
$SKETCHINC
 40
0.1
  9
$FILLETRAD
 40
0.0
  9
$AUNITS
 70
     0
  9
$AUPREC
 70
     4
  9
$MENU
  1
E:\r13\win\SUPPORT\ACAD
  9
$ELEVATION
 40
0.0
  9
$PELEVATION
 40
0.0
  9
$THICKNESS
 40
0.0
  9
$LIMCHECK
 70
     0
  9
$BLIPMODE
 70
     0
  9
$CHAMFERA
 40
0.0
  9
$CHAMFERB
 40
0.0
  9
$SKPOLY
 70
     0
  9
$TDCREATE
 40
2451584.6350524309
  9
$TDUPDATE
 40
2456597.727984271
  9
$TDINDWG
 40
0.0010818866
  9
$TDUSRTIMER
 40
0.0010818866
  9
$USRTIMER
 70
     1
  9
$ANGBASE
 50
0.0
  9
$ANGDIR
 70
     0
  9
$PDMODE
 70
     0
  9
$PDSIZE
 40
0.0
  9
$PLINEWID
 40
0.0
  9
$COORDS
 70
     1
  9
$SPLFRAME
 70
     0
  9
$SPLINETYPE
 70
     6
  9
$SPLINESEGS
 70
     8
  9
$ATTDIA
 70
     0
  9
$ATTREQ
 70
     1
  9
$HANDLING
 70
     1
  9
$HANDSEED
  5
53B
  9
$SURFTAB1
 70
     6
  9
$SURFTAB2
 70
     6
  9
$SURFTYPE
 70
     6
  9
$SURFU
 70
     6
  9
$SURFV
 70
     6
  9
$UCSNAME
  2

  9
$UCSORG
 10
0.0
 20
0.0
 30
0.0
  9
$UCSXDIR
 10
1.0
 20
0.0
 30
0.0
  9
$UCSYDIR
 10
0.0
 20
1.0
 30
0.0
  9
$PUCSNAME
  2

  9
$PUCSORG
 10
0.0
 20
0.0
 30
0.0
  9
$PUCSXDIR
 10
1.0
 20
0.0
 30
0.0
  9
$PUCSYDIR
 10
0.0
 20
1.0
 30
0.0
  9
$USERI1
 70
     0
  9
$USERI2
 70
     1
  9
$USERI3
 70
     1
  9
$USERI4
 70
     0
  9
$USERI5
 70
     0
  9
$USERR1
 40
0.0
  9
$USERR2
 40
0.0
  9
$USERR3
 40
0.0
  9
$USERR4
 40
0.0
  9
$USERR5
 40
0.0
  9
$WORLDVIEW
 70
     1
  9
$SHADEDGE
 70
     3
  9
$SHADEDIF
 70
    70
  9
$TILEMODE
 70
     1
  9
$MAXACTVP
 70
    16
  9
$PLIMCHECK
 70
     0
  9
$PEXTMIN
 10
1.0000000000000000E+020
 20
1.0000000000000000E+020
 30
1.0000000000000000E+020
  9
$PEXTMAX
 10
-1.0000000000000000E+020
 20
-1.0000000000000000E+020
 30
-1.0000000000000000E+020
  9
$PLIMMIN
 10
0.0
 20
0.0
  9
$PLIMMAX
 10
12.0
 20
9.0
  9
$UNITMODE
 70
     0
  9
$VISRETAIN
 70
     0
  9
$PLINEGEN
 70
     0
  9
$PSLTSCALE
 70
     0
  0
ENDSEC
  0
SECTION
  2
TABLES
  0
TABLE
  2
VPORT
 70
     1
  0
VPORT
  2
*ACTIVE
 70
     0
 10
0.0
 20
0.0
 11
1.0
 21
1.0
 12
93.74713919532617
 22
66.313465060797697
 13
0.0
 23
0.0
 14
5.0
 24
5.0
 15
5.0
 25
5.0
 16
0.0
 26
0.0
 36
1.0
 17
0.0
 27
0.0
 37
0.0
 40
140.15365342376049
 41
2.304913294797688
 42
50.0
 43
0.0
 44
0.0
 50
0.0
 51
0.0
 71
     0
 72
   500
 73
     1
 74
     0
 75
     0
 76
     0
 77
     0
 78
     2
  0
ENDTAB
  0
TABLE
  2
LTYPE
 70
     3
  0
LTYPE
  2
CONTINUOUS
 70
     0
  3
Solid Line
 72
    65
 73
     0
 40
0.0
  0
LTYPE
  2
CENTER
 70
     0
  3
____ _ ____ _ ____ _ ____ _ ____ _ ____ _ ____
 72
    65
 73
     4
 40
2.0
 49
1.25
 49
-0.25
 49
0.25
 49
-0.25
  0
LTYPE
  2
PHANTOM2
 70
     0
  3
___ _ _ ___ _ _ ___ _ _ ___ _ _
 72
    65
 73
     6
 40
1.25
 49
0.625
 49
-0.125
 49
0.125
 49
-0.125
 49
0.125
 49
-0.125
  0
ENDTAB
  0
TABLE
  2
LAYER
 70
     3
  0
LAYER
  2
0
 70
     0
 62
     7
  6
CONTINUOUS
  0
LAYER
  2
1
 70
     0
 62
     1
  6
CENTER
  0
LAYER
  2
3
 70
     0
 62
     3
  6
CONTINUOUS
  0
ENDTAB
  0
TABLE
  2
STYLE
 70
     2
  0
STYLE
  2
STANDARD
 70
     0
 40
0.0
 41
1.0
 50
0.0
 71
     0
 42
0.2
  3
TXT
  4
BIGFONT
  0
STYLE
  2
STANDARD1
 70
     0
 40
0.0
 41
1.0
 50
0.0
 71
     0
 42
3.0
  3
txt
  4

  0
ENDTAB
  0
TABLE
  2
VIEW
 70
     1
  0
VIEW
  2
ALL
 70
     0
 40
175.0
 10
142.73710148381011
 20
87.5
 41
0.0
 11
0.0
 21
0.0
 31
1.0
 12
0.0
 22
0.0
 32
0.0
 42
0.0
 43
0.0
 44
0.0
 50
0.0
 71
     0
  0
ENDTAB
  0
TABLE
  2
UCS
 70
     0
  0
ENDTAB
  0
TABLE
  2
APPID
 70
     3
  0
APPID
  2
ACAD
 70
     0
  0
APPID
  2
ACAD_MLEADERVER
 70
     0
  0
APPID
  2
ACAD_NAV_VCDISPLAY
 70
     0
  0
ENDTAB
  0
TABLE
  2
DIMSTYLE
 70
     1
  0
DIMSTYLE
  2
STANDARD
 70
     0
  3

  4

  5

  6

  7

 40
1.0
 41
0.18
 42
0.0625
 43
0.38
 44
0.18
 45
0.0
 46
0.0
 47
0.0
 48
0.0
140
0.18
141
0.09
142
0.0
143
25.399999999999999
144
1.0
145
0.0
146
1.0
147
0.09
 71
     0
 72
     0
 73
     1
 74
     1
 75
     0
 76
     0
 77
     0
 78
     0
170
     0
171
     2
172
     0
173
     0
174
     0
175
     0
176
     0
177
     0
178
     0
  0
ENDTAB
  0
ENDSEC
  0
SECTION
  2
BLOCKS
  0
BLOCK
  8
0
  2
$MODEL_SPACE
 70
     0
 10
0.0
 20
0.0
 30
0.0
  3
$MODEL_SPACE
  1

  0
ENDBLK
  5
3CA
  8
0
  0
BLOCK
 67
     1
  8
0
  2
$PAPER_SPACE
 70
     0
 10
0.0
 20
0.0
 30
0.0
  3
$PAPER_SPACE
  1

  0
ENDBLK
  5
3C8
 67
     1
  8
0
  0
ENDSEC
  0
SECTION
  2
ENTITIES
  0
LINE
  5
338
  8
1
 10
107.5
 20
29.131184378796991
 30
0.0
 11
86.5
 21
29.131184378796998
 31
0.0
  0
LINE
  5
339
  8
0
 10
89.25
 20
18.131184387752342
 30
0.0
 11
96.0
 21
18.131184387752342
 31
0.0
  0
LINE
  5
33A
  8
0
 10
96.0
 20
40.13118436984437
 30
0.0
 11
89.25
 21
40.131184369844412
 31
0.0
  0
LINE
  5
33B
  8
0
 10
90.95170591183313
 20
29.131184378796991
 30
0.0
 11
96.0
 21
29.131184378796991
 31
0.0
  0
LINE
  5
33C
  8
0
 10
90.95170591183313
 20
110.868815621203
 30
0.0
 11
96.0
 21
110.868815621203
 31
0.0
  0
LINE
  5
33D
  8
0
 10
96.0
 20
99.868815630155623
 30
0.0
 11
89.25
 21
99.868815630155595
 31
0.0
  0
LINE
  5
33E
  8
0
 10
89.25
 20
121.8688156122476
 30
0.0
 11
96.0
 21
121.8688156122476
 31
0.0
  0
LINE
  5
33F
  8
1
 10
107.5
 20
110.868815621203
 30
0.0
 11
86.5
 21
110.868815621203
 31
0.0
  0
LINE
  5
340
  8
0
 10
90.951705911833088
 20
76.350852955918214
 30
0.0
 11
96.000000000000014
 21
76.350852955918214
 31
0.0
  0
LINE
  5
341
  8
0
 10
90.95170592078945
 20
82.701705911836825
 30
0.0
 11
96.000000000000014
 21
82.701705911836825
 31
0.0
  0
LINE
  5
342
  8
0
 10
90.95170592078945
 20
57.298294088163182
 30
0.0
 11
96.000000000000014
 21
57.298294088163182
 31
0.0
  0
LINE
  5
343
  8
0
 10
90.951705911833088
 20
63.649147044081779
 30
0.0
 11
96.000000000000014
 21
63.649147044081779
 31
0.0
  0
LINE
  5
344
  8
1
 10
107.5
 20
70.0
 30
0.0
 11
86.500000000000014
 21
70.0
 31
0.0
  0
LINE
  5
346
  8
1
 10
41.479482103206912
 20
85.588457257781371
 30
0.0
 11
41.479482103216718
 21
54.411542742216369
 31
0.0
  0
LINE
  5
347
  8
0
 10
52.479482094263282
 20
76.350852955920431
 30
0.0
 11
52.479482094263282
 21
63.649147033749351
 31
0.0
  0
LINE
  5
348
  8
0
 10
30.47948211217123
 20
63.649147044087698
 30
0.0
 11
30.47948211217123
 21
76.35085296625877
 31
0.0
  0
CIRCLE
  5
34A
  8
0
 10
41.479482103218608
 20
70.000000000000995
 30
0.0
 40
10.75
  0
ARC
  5
34B
  8
0
 10
101.951705969716
 20
69.999999999999844
 30
0.0
 40
12.70170596971613
 50
150.00000015073849
 51
209.9999998492604
  0
LINE
  5
34C
  8
0
 10
89.000000000000014
 20
59.250000008952583
 30
0.0
 11
89.000000000000014
 21
80.74999999104466
 31
0.0
  0
LINE
  5
34D
  8
0
 10
41.479482103217236
 20
57.298294088171332
 30
0.0
 11
30.479482103217251
 21
63.649147049254992
 31
0.0
  0
ARC
  5
34E
  8
0
 10
98.988992716258224
 20
23.631184383274789
 30
0.0
 40
9.7389927162578864
 50
145.6157527021989
 51
214.3842472978022
  0
LINE
  5
34F
  8
0
 10
89.0
 20
39.881184369844412
 30
0.0
 11
89.0
 21
18.381184387752342
 31
0.0
  0
LINE
  5
350
  8
0
 10
89.0
 20
18.381184387752342
 30
0.0
 11
89.25
 21
18.131184387752342
 31
0.0
  0
LINE
  5
351
  8
0
 10
52.479482094253271
 20
63.649147044081438
 30
0.0
 11
41.479482094263268
 21
57.298294082994033
 31
0.0
  0
ARC
  5
352
  8
0
 10
98.988992716258224
 20
34.631184374319211
 30
0.0
 40
9.7389927162578864
 50
145.61575270219771
 51
214.3842472978011
  0
LINE
  5
353
  8
0
 10
89.0
 20
39.881184369844412
 30
0.0
 11
89.25
 21
40.131184369844412
 31
0.0
  0
ARC
  5
354
  8
0
 10
93.063566203809742
 20
60.473720569100863
 30
0.0
 40
3.8135662038093541
 50
123.6264293422654
 51
213.62642918059919
  0
LINE
  5
355
  8
0
 10
89.000000000000014
 20
59.250000008952583
 30
0.0
 11
90.95170592078945
 21
57.298294088163182
 31
0.0
  0
LINE
  5
356
  8
1
 10
54.97948209426329
 20
69.999999993660055
 30
0.0
 11
27.979482112171208
 21
70.000000006348017
 31
0.0
  0
LINE
  5
357
  8
0
 10
30.47948211217123
 20
76.35085295591918
 30
0.0
 11
41.479482112171219
 21
82.701705917006606
 31
0.0
  0
LINE
  5
358
  8
0
 10
89.0
 20
100.11881563015559
 30
0.0
 11
89.0
 21
121.6188156122476
 31
0.0
  0
ARC
  5
359
  8
0
 10
98.988992716258224
 20
116.3688156167252
 30
0.0
 40
9.7389927162578864
 50
145.6157527021978
 51
214.3842472978011
  0
LINE
  5
35A
  8
0
 10
41.479482103217236
 20
82.701705911829293
 30
0.0
 11
52.479482103217258
 21
76.350852950745633
 31
0.0
  0
ARC
  5
35B
  8
0
 10
93.063566203809742
 20
79.526279430899137
 30
0.0
 40
3.8135662038093541
 50
146.37357081940081
 51
236.3735706577346
  0
LINE
  5
35C
  8
0
 10
89.000000000000014
 20
80.749999991047417
 30
0.0
 11
90.95170592078945
 21
82.701705911836825
 31
0.0
  0
ARC
  5
35D
  8
0
 10
98.988992716258224
 20
105.3688156256808
 30
0.0
 40
9.7389927162578864
 50
145.6157527021989
 51
214.38424729780229
  0
LINE
  5
35E
  8
0
 10
89.0
 20
100.11881563015559
 30
0.0
 11
89.25
 21
99.868815630155595
 31
0.0
  0
LINE
  5
35F
  8
0
 10
89.0
 20
121.6188156122476
 30
0.0
 11
89.25
 21
121.8688156122476
 31
0.0
  0
CIRCLE
  5
361
  8
0
 10
145.57033980456069
 20
70.000000000004036
 30
0.0
 40
10.74999999999595
  0
CIRCLE
  5
362
  8
3
 10
145.5703398045647
 20
70.000000000000995
 30
0.0
 40
7.4749999999999988
  0
CIRCLE
  5
363
  8
0
 10
145.5703398045647
 20
70.000000000000995
 30
0.0
 40
8.3309999999999995
  0
LINE
  5
364
  8
0
 10
156.57033979561211
 20
76.350852955914291
 30
0.0
 11
156.57033979561211
 21
63.649147033743191
 31
0.0
  0
LINE
  5
365
  8
0
 10
134.57033981352009
 20
63.649147044081531
 30
0.0
 11
134.57033981352009
 21
76.350852966252631
 31
0.0
  0
LINE
  5
366
  8
0
 10
105.0
 20
62.52499999999997
 30
0.0
 11
105.0
 21
77.475000000000051
 31
0.0
  0
LINE
  5
367
  8
0
 10
96.000000000000014
 20
57.298294088163182
 30
0.0
 11
96.000000000000014
 21
82.701705911836825
 31
0.0
  0
LINE
  5
368
  8
0
 10
103.0
 20
61.668999999999983
 30
0.0
 11
103.0
 21
78.331000000000003
 31
0.0
  0
LINE
  5
369
  8
1
 10
145.5703398045558
 20
85.588457257781371
 30
0.0
 11
145.57033980456561
 21
54.411542742216369
 31
0.0
  0
CIRCLE
  5
36A
  8
0
 10
145.5703398045647
 20
70.000000000000995
 30
0.0
 40
5.0
  0
CIRCLE
  5
36B
  8
0
 10
145.5703398045647
 20
70.000000000000995
 30
0.0
 40
4.3711066486041821
  0
LINE
  5
36C
  8
0
 10
97.500000000000028
 20
59.250000000000007
 30
0.0
 11
97.500000000000028
 21
80.750000000000014
 31
0.0
  0
LINE
  5
373
  8
0
 10
156.57033979561211
 20
63.649147044082781
 30
0.0
 11
145.57033979561211
 21
57.298294082995369
 31
0.0
  0
LINE
  5
374
  8
0
 10
103.0
 20
37.462184378797012
 30
0.0
 11
103.0
 21
20.800184378796988
 31
0.0
  0
LINE
  5
375
  8
0
 10
96.0
 20
40.13118436984437
 30
0.0
 11
96.0
 21
18.131184387752342
 31
0.0
  0
LINE
  5
376
  8
0
 10
105.0
 20
36.60618437879701
 30
0.0
 11
105.0
 21
21.656184378796951
 31
0.0
  0
LINE
  5
377
  8
0
 10
97.5
 20
39.881184378796974
 30
0.0
 11
97.5
 21
18.38118437879697
 31
0.0
  0
LINE
  5
378
  8
3
 10
97.5
 20
21.65618437879705
 30
0.0
 11
103.0
 21
21.656184378797061
 31
0.0
  0
LINE
  5
379
  8
0
 10
97.5
 20
20.80018437879697
 30
0.0
 11
103.0
 21
20.800184378796988
 31
0.0
  0
LINE
  5
37A
  8
0
 10
97.5
 20
18.381184378796998
 30
0.0
 11
96.0
 21
18.381184378796998
 31
0.0
  0
LINE
  5
37B
  8
0
 10
103.0
 20
21.656184378796951
 30
0.0
 11
105.0
 21
21.656184378796951
 31
0.0
  0
LINE
  5
380
  8
3
 10
97.5
 20
36.606184378797003
 30
0.0
 11
103.0
 21
36.606184378796982
 31
0.0
  0
LINE
  5
381
  8
0
 10
103.0
 20
36.606184378797103
 30
0.0
 11
105.0
 21
36.606184378797103
 31
0.0
  0
LINE
  5
382
  8
0
 10
97.5
 20
37.462184378797012
 30
0.0
 11
103.0
 21
37.462184378797012
 31
0.0
  0
LINE
  5
383
  8
0
 10
97.5
 20
39.881184378796952
 30
0.0
 11
96.0
 21
39.881184378796952
 31
0.0
  0
LINE
  5
384
  8
3
 10
97.500000000000028
 20
62.52499999999997
 30
0.0
 11
103.0
 21
62.525000000000013
 31
0.0
  0
LINE
  5
385
  8
0
 10
97.500000000000028
 20
61.668999999999983
 30
0.0
 11
103.0
 21
61.668999999999983
 31
0.0
  0
LINE
  5
386
  8
0
 10
97.500000000000028
 20
59.250000000000043
 30
0.0
 11
96.000000000000028
 21
59.250000000000043
 31
0.0
  0
LINE
  5
387
  8
0
 10
103.0
 20
62.524999999999892
 30
0.0
 11
105.0
 21
62.524999999999892
 31
0.0
  0
LINE
  5
388
  8
0
 10
145.57033980456609
 20
57.298294088172668
 30
0.0
 11
134.57033980456609
 21
63.649147049256328
 31
0.0
  0
LINE
  5
38A
  8
0
 10
145.57033980456609
 20
82.701705911830643
 30
0.0
 11
156.57033980456609
 21
76.350852950746983
 31
0.0
  0
LINE
  5
38B
  8
1
 10
159.07033979561211
 20
69.999999993660055
 30
0.0
 11
132.07033981352009
 21
70.000000006348017
 31
0.0
  0
LINE
  5
38C
  8
0
 10
97.5
 20
100.118815621203
 30
0.0
 11
97.5
 21
121.618815621203
 31
0.0
  0
LINE
  5
38D
  8
0
 10
105.0
 20
103.393815621203
 30
0.0
 11
105.0
 21
118.34381562120301
 31
0.0
  0
LINE
  5
38E
  8
0
 10
96.0
 20
99.868815630155623
 30
0.0
 11
96.0
 21
121.8688156122476
 31
0.0
  0
LINE
  5
38F
  8
0
 10
103.0
 20
102.53781562120299
 30
0.0
 11
103.0
 21
119.199815621203
 31
0.0
  0
LINE
  5
390
  8
0
 10
97.500000000000028
 20
78.331000000000003
 30
0.0
 11
103.0
 21
78.331000000000003
 31
0.0
  0
LINE
  5
391
  8
3
 10
97.500000000000028
 20
77.474999999999966
 30
0.0
 11
103.0
 21
77.474999999999937
 31
0.0
  0
LINE
  5
392
  8
0
 10
103.0
 20
77.475000000000051
 30
0.0
 11
105.0
 21
77.475000000000051
 31
0.0
  0
LINE
  5
393
  8
0
 10
97.500000000000028
 20
80.749999999999986
 30
0.0
 11
96.000000000000028
 21
80.749999999999986
 31
0.0
  0
LINE
  5
394
  8
0
 10
97.5
 20
100.118815621203
 30
0.0
 11
96.0
 21
100.118815621203
 31
0.0
  0
LINE
  5
395
  8
3
 10
97.5
 20
103.393815621203
 30
0.0
 11
103.0
 21
103.393815621203
 31
0.0
  0
LINE
  5
396
  8
0
 10
97.5
 20
102.53781562120299
 30
0.0
 11
103.0
 21
102.53781562120299
 31
0.0
  0
LINE
  5
397
  8
0
 10
103.0
 20
103.3938156212029
 30
0.0
 11
105.0
 21
103.3938156212029
 31
0.0
  0
LINE
  5
398
  8
0
 10
134.5703398135301
 20
76.350852955920544
 30
0.0
 11
145.57033981352009
 21
82.701705917007956
 31
0.0
  0
LINE
  5
399
  8
0
 10
97.5
 20
119.199815621203
 30
0.0
 11
103.0
 21
119.199815621203
 31
0.0
  0
LINE
  5
39A
  8
3
 10
97.5
 20
118.34381562120291
 30
0.0
 11
103.0
 21
118.34381562120291
 31
0.0
  0
LINE
  5
39B
  8
0
 10
97.5
 20
121.618815621203
 30
0.0
 11
96.0
 21
121.618815621203
 31
0.0
  0
LINE
  5
39C
  8
0
 10
103.0
 20
118.34381562120301
 30
0.0
 11
105.0
 21
118.34381562120301
 31
0.0
  0
CIRCLE
  5
465
  8
0
 10
41.479482103217236
 20
70.000000000004036
 30
0.0
 40
8.5
  0
TEXT
  5
4D5
  8
0
 62
     3
 10
0.0
 20
0.0
 30
0.0
 40
10.0
  1
PO-3/8
  7
STANDARD1
  0
ENDSEC
  0
EOF
