  0
SECTION
  2
HEADER
  9
$ACADVER
  1
AC1009
  9
$INSBASE
 10
0.0
 20
0.0
 30
0.0
  9
$EXTMIN
 10
0.0
 20
-2.960436562073669
 30
0.0
  9
$EXTMAX
 10
161.31732426127039
 20
124.45502829758161
 30
0.0
  9
$LIMMIN
 10
0.0
 20
0.0
  9
$LIMMAX
 10
187.5
 20
135.0
  9
$ORTHOMODE
 70
     1
  9
$REGENMODE
 70
     1
  9
$FILLMODE
 70
     1
  9
$QTEXTMODE
 70
     0
  9
$MIRRTEXT
 70
     0
  9
$DRAGMODE
 70
     2
  9
$LTSCALE
 40
5.0
  9
$OSMODE
 70
  3071
  9
$ATTMODE
 70
     1
  9
$TEXTSIZE
 40
2.0000000000000502
  9
$TRACEWID
 40
0.05
  9
$TEXTSTYLE
  7
STANDARD
  9
$CLAYER
  8
0
  9
$CELTYPE
  6
BYLAYER
  9
$CECOLOR
 62
   256
  9
$DIMSCALE
 40
0.5
  9
$DIMASZ
 40
3.0
  9
$DIMEXO
 40
2.0
  9
$DIMDLI
 40
0.38
  9
$DIMRND
 40
0.0
  9
$DIMDLE
 40
0.0
  9
$DIMEXE
 40
2.0
  9
$DIMTP
 40
0.0
  9
$DIMTM
 40
0.0
  9
$DIMTXT
 40
3.2000000000000002
  9
$DIMCEN
 40
0.0
  9
$DIMTSZ
 40
0.0
  9
$DIMTOL
 70
     0
  9
$DIMLIM
 70
     0
  9
$DIMTIH
 70
     0
  9
$DIMTOH
 70
     0
  9
$DIMSE1
 70
     0
  9
$DIMSE2
 70
     0
  9
$DIMTAD
 70
     1
  9
$DIMZIN
 70
     0
  9
$DIMBLK
  1

  9
$DIMASO
 70
     1
  9
$DIMSHO
 70
     0
  9
$DIMPOST
  1

  9
$DIMAPOST
  1

  9
$DIMALT
 70
     0
  9
$DIMALTD
 70
     2
  9
$DIMALTF
 40
25.399999999999999
  9
$DIMLFAC
 40
1.0
  9
$DIMTOFL
 70
     1
  9
$DIMTVP
 40
1.6000000000000001
  9
$DIMTIX
 70
     1
  9
$DIMSOXD
 70
     0
  9
$DIMSAH
 70
     0
  9
$DIMBLK1
  1

  9
$DIMBLK2
  1

  9
$DIMSTYLE
  2
STANDARD
  9
$DIMCLRD
 70
     0
  9
$DIMCLRE
 70
     0
  9
$DIMCLRT
 70
     0
  9
$DIMTFAC
 40
1.0
  9
$DIMGAP
 40
0.09
  9
$LUNITS
 70
     2
  9
$LUPREC
 70
     4
  9
$SKETCHINC
 40
0.1
  9
$FILLETRAD
 40
0.0
  9
$AUNITS
 70
     0
  9
$AUPREC
 70
     4
  9
$MENU
  1
E:\r13\win\SUPPORT\ACAD
  9
$ELEVATION
 40
0.0
  9
$PELEVATION
 40
0.0
  9
$THICKNESS
 40
0.0
  9
$LIMCHECK
 70
     0
  9
$BLIPMODE
 70
     0
  9
$CHAMFERA
 40
0.0
  9
$CHAMFERB
 40
0.0
  9
$SKPOLY
 70
     0
  9
$TDCREATE
 40
2451607.471991783
  9
$TDUPDATE
 40
2456597.7235087622
  9
$TDINDWG
 40
0.0002137963
  9
$TDUSRTIMER
 40
0.0002137963
  9
$USRTIMER
 70
     1
  9
$ANGBASE
 50
0.0
  9
$ANGDIR
 70
     0
  9
$PDMODE
 70
     0
  9
$PDSIZE
 40
0.0
  9
$PLINEWID
 40
0.0
  9
$COORDS
 70
     1
  9
$SPLFRAME
 70
     0
  9
$SPLINETYPE
 70
     6
  9
$SPLINESEGS
 70
     8
  9
$ATTDIA
 70
     0
  9
$ATTREQ
 70
     1
  9
$HANDLING
 70
     1
  9
$HANDSEED
  5
415
  9
$SURFTAB1
 70
     6
  9
$SURFTAB2
 70
     6
  9
$SURFTYPE
 70
     6
  9
$SURFU
 70
     6
  9
$SURFV
 70
     6
  9
$UCSNAME
  2

  9
$UCSORG
 10
0.0
 20
0.0
 30
0.0
  9
$UCSXDIR
 10
1.0
 20
0.0
 30
0.0
  9
$UCSYDIR
 10
0.0
 20
1.0
 30
0.0
  9
$PUCSNAME
  2

  9
$PUCSORG
 10
0.0
 20
0.0
 30
0.0
  9
$PUCSXDIR
 10
1.0
 20
0.0
 30
0.0
  9
$PUCSYDIR
 10
0.0
 20
1.0
 30
0.0
  9
$USERI1
 70
     0
  9
$USERI2
 70
     1
  9
$USERI3
 70
     1
  9
$USERI4
 70
     0
  9
$USERI5
 70
     0
  9
$USERR1
 40
0.0
  9
$USERR2
 40
0.0
  9
$USERR3
 40
0.0
  9
$USERR4
 40
0.0
  9
$USERR5
 40
0.0
  9
$WORLDVIEW
 70
     1
  9
$SHADEDGE
 70
     3
  9
$SHADEDIF
 70
    70
  9
$TILEMODE
 70
     1
  9
$MAXACTVP
 70
    16
  9
$PLIMCHECK
 70
     0
  9
$PEXTMIN
 10
1.0000000000000000E+020
 20
1.0000000000000000E+020
 30
1.0000000000000000E+020
  9
$PEXTMAX
 10
-1.0000000000000000E+020
 20
-1.0000000000000000E+020
 30
-1.0000000000000000E+020
  9
$PLIMMIN
 10
0.0
 20
0.0
  9
$PLIMMAX
 10
12.0
 20
9.0
  9
$UNITMODE
 70
     0
  9
$VISRETAIN
 70
     0
  9
$PLINEGEN
 70
     0
  9
$PSLTSCALE
 70
     0
  0
ENDSEC
  0
SECTION
  2
TABLES
  0
TABLE
  2
VPORT
 70
     1
  0
VPORT
  2
*ACTIVE
 70
     0
 10
0.0
 20
0.0
 11
1.0
 21
1.0
 12
93.74713919532617
 22
66.313465060797697
 13
0.0
 23
0.0
 14
5.0
 24
5.0
 15
5.0
 25
5.0
 16
0.0
 26
0.0
 36
1.0
 17
0.0
 27
0.0
 37
0.0
 40
140.15365342376049
 41
2.304913294797688
 42
50.0
 43
0.0
 44
0.0
 50
0.0
 51
0.0
 71
     0
 72
   500
 73
     1
 74
     0
 75
     0
 76
     0
 77
     0
 78
     2
  0
ENDTAB
  0
TABLE
  2
LTYPE
 70
     3
  0
LTYPE
  2
CONTINUOUS
 70
     0
  3
Solid Line
 72
    65
 73
     0
 40
0.0
  0
LTYPE
  2
CENTER
 70
     0
  3
____ _ ____ _ ____ _ ____ _ ____ _ ____ _ ____
 72
    65
 73
     4
 40
2.0
 49
1.25
 49
-0.25
 49
0.25
 49
-0.25
  0
LTYPE
  2
PHANTOM2
 70
     0
  3
___ _ _ ___ _ _ ___ _ _ ___ _ _
 72
    65
 73
     6
 40
1.25
 49
0.625
 49
-0.125
 49
0.125
 49
-0.125
 49
0.125
 49
-0.125
  0
ENDTAB
  0
TABLE
  2
LAYER
 70
     3
  0
LAYER
  2
0
 70
     0
 62
     7
  6
CONTINUOUS
  0
LAYER
  2
1
 70
     0
 62
     1
  6
CENTER
  0
LAYER
  2
3
 70
     0
 62
     3
  6
CONTINUOUS
  0
ENDTAB
  0
TABLE
  2
STYLE
 70
     3
  0
STYLE
  2
STANDARD
 70
     0
 40
0.0
 41
1.0
 50
0.0
 71
     0
 42
2.0000000000000502
  3
TXT
  4
BIGFONT
  0
STYLE
  2
SIM180
 70
     0
 40
0.0
 41
1.8
 50
0.0
 71
     0
 42
0.8
  3
SIMPLEX
  4

  0
STYLE
  2
STANDARD1
 70
     0
 40
0.0
 41
1.0
 50
0.0
 71
     0
 42
3.0
  3
txt
  4

  0
ENDTAB
  0
TABLE
  2
VIEW
 70
     1
  0
VIEW
  2
ALL
 70
     0
 40
175.0
 10
143.23529411764699
 20
87.5
 41
0.0
 11
0.0
 21
0.0
 31
1.0
 12
0.0
 22
0.0
 32
0.0
 42
0.0
 43
0.0
 44
0.0
 50
0.0
 71
     0
  0
ENDTAB
  0
TABLE
  2
UCS
 70
     0
  0
ENDTAB
  0
TABLE
  2
APPID
 70
     3
  0
APPID
  2
ACAD
 70
     0
  0
APPID
  2
ACAD_MLEADERVER
 70
     0
  0
APPID
  2
ACAD_NAV_VCDISPLAY
 70
     0
  0
ENDTAB
  0
TABLE
  2
DIMSTYLE
 70
     1
  0
DIMSTYLE
  2
STANDARD
 70
     0
  3

  4

  5

  6

  7

 40
1.0
 41
0.18
 42
0.0625
 43
0.38
 44
0.18
 45
0.0
 46
0.0
 47
0.0
 48
0.0
140
0.18
141
0.09
142
0.0
143
25.399999999999999
144
1.0
145
0.0
146
1.0
147
0.09
 71
     0
 72
     0
 73
     1
 74
     1
 75
     0
 76
     0
 77
     0
 78
     0
170
     0
171
     2
172
     0
173
     0
174
     0
175
     0
176
     0
177
     0
178
     0
  0
ENDTAB
  0
ENDSEC
  0
SECTION
  2
BLOCKS
  0
BLOCK
  8
0
  2
$MODEL_SPACE
 70
     0
 10
0.0
 20
0.0
 30
0.0
  3
$MODEL_SPACE
  1

  0
ENDBLK
  5
294
  8
0
  0
BLOCK
 67
     1
  8
0
  2
$PAPER_SPACE
 70
     0
 10
0.0
 20
0.0
 30
0.0
  3
$PAPER_SPACE
  1

  0
ENDBLK
  5
292
 67
     1
  8
0
  0
ENDSEC
  0
SECTION
  2
ENTITIES
  0
LINE
  5
1B4
  8
1
 10
107.5
 20
70.0
 30
0.0
 11
86.500000000000057
 21
70.0
 31
0.0
  0
LINE
  5
1B5
  8
0
 10
90.951705911833074
 20
63.649147044081822
 30
0.0
 11
96.0
 21
63.649147044081822
 31
0.0
  0
LINE
  5
1B6
  8
0
 10
90.951705920789436
 20
57.298294088163182
 30
0.0
 11
96.0
 21
57.298294088163182
 31
0.0
  0
LINE
  5
1B7
  8
0
 10
90.951705920789436
 20
82.701705911836825
 30
0.0
 11
96.0
 21
82.701705911836825
 31
0.0
  0
LINE
  5
1B8
  8
0
 10
90.951705911833074
 20
76.350852955918242
 30
0.0
 11
96.0
 21
76.350852955918242
 31
0.0
  0
LINE
  5
1B9
  8
1
 10
107.5
 20
26.54497169346304
 30
0.0
 11
86.500000000000014
 21
26.54497169346304
 31
0.0
  0
LINE
  5
1BA
  8
0
 10
89.25
 20
15.54497170241838
 30
0.0
 11
96.0
 21
15.54497170241838
 31
0.0
  0
LINE
  5
1BB
  8
0
 10
96.0
 20
37.544971684510429
 30
0.0
 11
89.25
 21
37.544971684510458
 31
0.0
  0
LINE
  5
1BC
  8
0
 10
90.95170591183313
 20
26.54497169346304
 30
0.0
 11
96.0
 21
26.54497169346304
 31
0.0
  0
LINE
  5
1BD
  8
0
 10
90.95170591183313
 20
113.4550283065369
 30
0.0
 11
96.0
 21
113.4550283065369
 31
0.0
  0
LINE
  5
1BE
  8
0
 10
96.0
 20
102.4550283154896
 30
0.0
 11
89.25
 21
102.4550283154895
 31
0.0
  0
LINE
  5
1BF
  8
0
 10
89.25
 20
124.45502829758161
 30
0.0
 11
96.0
 21
124.45502829758161
 31
0.0
  0
LINE
  5
1C0
  8
1
 10
107.5
 20
113.4550283065369
 30
0.0
 11
86.500000000000014
 21
113.4550283065369
 31
0.0
  0
LINE
  5
1C2
  8
0
 10
89.0
 20
59.250000008952611
 30
0.0
 11
89.0
 21
80.74999999104466
 31
0.0
  0
ARC
  5
1C3
  8
0
 10
101.951705969716
 20
69.999999999999886
 30
0.0
 40
12.70170596971613
 50
150.00000015073849
 51
209.9999998492604
  0
LINE
  5
1C4
  8
0
 10
41.148626981582908
 20
64.350000000000136
 30
0.0
 11
47.148626981582908
 21
64.350000000000136
 31
0.0
  0
LINE
  5
1C5
  8
0
 10
42.348626981582903
 20
65.350000000000136
 30
0.0
 11
45.948626982052822
 21
65.350000000000136
 31
0.0
  0
LINE
  5
1C6
  8
0
 10
44.348626981582903
 20
70.59999999929525
 30
0.0
 11
38.166318427637343
 21
70.59999999929525
 31
0.0
  0
LINE
  5
1C7
  8
0
 10
44.348626981582903
 20
69.399999999295261
 30
0.0
 11
38.166318427637343
 21
69.399999999295261
 31
0.0
  0
LINE
  5
1C8
  8
0
 10
42.348626981582903
 20
74.650000000000134
 30
0.0
 11
45.948626982052822
 21
74.650000000000134
 31
0.0
  0
LINE
  5
1C9
  8
0
 10
41.148626981582908
 20
75.650000000000134
 30
0.0
 11
47.148626981582908
 21
75.650000000000134
 31
0.0
  0
LINE
  5
1CA
  8
0
 10
31.848626990538271
 20
63.649147044080721
 30
0.0
 11
31.848626990538271
 21
76.350852966251765
 31
0.0
  0
LINE
  5
1CB
  8
0
 10
53.848626972630321
 20
76.350852955913439
 30
0.0
 11
53.848626972630321
 21
63.649147033742373
 31
0.0
  0
CIRCLE
  5
1CC
  8
0
 10
42.848626981582932
 20
70.000000000000142
 30
0.0
 40
9.0
  0
CIRCLE
  5
1CD
  8
0
 10
42.848626981582932
 20
70.000000000000142
 30
0.0
 40
10.75
  0
LINE
  5
1CE
  8
1
 10
42.848626988905217
 20
85.588457262013236
 30
0.0
 11
42.848626974254508
 21
54.411542737983972
 31
0.0
  0
LINE
  5
1CF
  8
0
 10
42.848626981584303
 20
57.298294088171851
 30
0.0
 11
31.8486269815843
 21
63.649147049255511
 31
0.0
  0
ARC
  5
1D0
  8
0
 10
98.988992716258224
 20
21.044971697940831
 30
0.0
 40
9.7389927162578864
 50
145.6157527021989
 51
214.3842472978022
  0
LINE
  5
1D1
  8
0
 10
89.0
 20
37.294971684510458
 30
0.0
 11
89.0
 21
15.79497170241838
 31
0.0
  0
LINE
  5
1D2
  8
0
 10
89.0
 20
15.79497170241838
 30
0.0
 11
89.25
 21
15.54497170241838
 31
0.0
  0
LINE
  5
1D3
  8
0
 10
53.848626972630321
 20
63.649147044081957
 30
0.0
 11
42.848626972630321
 21
57.298294082994552
 31
0.0
  0
LINE
  5
1D4
  8
0
 10
35.048626981582913
 20
70.000000003665519
 30
0.0
 11
39.448626981582102
 21
72.540341188099418
 31
0.0
  0
LINE
  5
1D5
  8
0
 10
41.148626981582908
 20
75.650000000000134
 30
0.0
 11
41.148626981582908
 21
73.367820322792724
 31
0.0
  0
LINE
  5
1D6
  8
0
 10
42.348626981582903
 20
74.650000000000134
 30
0.0
 11
42.348626981582903
 21
72.674999999765163
 31
0.0
  0
LINE
  5
1D7
  8
0
 10
39.448626981582102
 20
72.540341188099418
 30
0.0
 11
39.448626981582102
 21
71.340341188099416
 31
0.0
  0
LINE
  5
1D8
  8
0
 10
38.166318427637343
 20
70.59999999929525
 30
0.0
 11
39.448626981582102
 21
71.340341188099416
 31
0.0
  0
LINE
  5
1D9
  8
0
 10
42.348626981582903
 20
72.674999999765163
 30
0.0
 11
40.448626983496418
 21
71.578034489409646
 31
0.0
  0
LINE
  5
1DA
  8
0
 10
40.448626982845283
 20
72.963675135088806
 30
0.0
 11
40.448626983496418
 21
71.578034489409646
 31
0.0
  0
LINE
  5
1DB
  8
0
 10
41.148626981582908
 20
73.367820322792724
 30
0.0
 11
40.448626982845283
 21
72.963675135088806
 31
0.0
  0
LINE
  5
1DC
  8
0
 10
35.048626981582913
 20
69.999999994924963
 30
0.0
 11
39.448626981582102
 21
67.459658810491078
 31
0.0
  0
LINE
  5
1DD
  8
0
 10
42.348626981582903
 20
65.350000000000136
 30
0.0
 11
42.348626981582903
 21
67.325000000235093
 31
0.0
  0
LINE
  5
1DE
  8
0
 10
41.148626981582908
 20
66.632179677207546
 30
0.0
 11
40.448626982845283
 21
67.036324864911435
 31
0.0
  0
LINE
  5
1DF
  8
0
 10
39.448626981582102
 20
67.459658810491078
 30
0.0
 11
39.448626981582102
 21
68.659658810491095
 31
0.0
  0
LINE
  5
1E0
  8
0
 10
38.166318427637343
 20
69.399999999295261
 30
0.0
 11
39.448626981582102
 21
68.659658810491081
 31
0.0
  0
LINE
  5
1E1
  8
0
 10
40.448626982845283
 20
67.036324864911435
 30
0.0
 11
40.448626983496418
 21
68.421965510590624
 31
0.0
  0
LINE
  5
1E2
  8
0
 10
42.348626981582903
 20
67.325000000235093
 30
0.0
 11
40.448626983496418
 21
68.421965510590624
 31
0.0
  0
LINE
  5
1E3
  8
0
 10
41.148626981582908
 20
64.350000000000136
 30
0.0
 11
41.148626981582908
 21
66.632179677207546
 31
0.0
  0
ARC
  5
1E4
  8
0
 10
98.988992716258224
 20
32.044971688985257
 30
0.0
 40
9.7389927162578864
 50
145.61575270219771
 51
214.3842472978011
  0
LINE
  5
1E5
  8
0
 10
89.0
 20
37.294971684510458
 30
0.0
 11
89.25
 21
37.544971684510458
 31
0.0
  0
LINE
  5
1E6
  8
0
 10
89.0
 20
59.250000008952611
 30
0.0
 11
90.951705920789436
 21
57.298294088163182
 31
0.0
  0
ARC
  5
1E7
  8
0
 10
93.063566203809714
 20
60.473720569100863
 30
0.0
 40
3.8135662038093541
 50
123.6264293422654
 51
213.62642918059919
  0
LINE
  5
1E8
  8
0
 10
31.848626990548279
 20
76.350852955919692
 30
0.0
 11
42.848626990538271
 21
82.701705917007104
 31
0.0
  0
LINE
  5
1E9
  8
1
 10
29.348626990538271
 20
69.999999999991743
 30
0.0
 11
56.348626972630321
 21
70.000000000000284
 31
0.0
  0
LINE
  5
1EA
  8
0
 10
89.0
 20
102.7050283154895
 30
0.0
 11
89.0
 21
124.20502829758161
 31
0.0
  0
ARC
  5
1EB
  8
0
 10
98.988992716258224
 20
107.9550283110147
 30
0.0
 40
9.7389927162578864
 50
145.6157527021989
 51
214.38424729780229
  0
LINE
  5
1EC
  8
0
 10
42.848626981584303
 20
82.701705911829805
 30
0.0
 11
53.848626981584289
 21
76.350852950746145
 31
0.0
  0
LINE
  5
1ED
  8
0
 10
44.348626981582903
 20
69.999999999295255
 30
0.0
 11
44.348626981582903
 21
70.59999999929525
 31
0.0
  0
LINE
  5
1EE
  8
0
 10
45.948626982052822
 20
74.650000000000134
 30
0.0
 11
45.948626984237968
 21
70.000000001456897
 31
0.0
  0
LINE
  5
1EF
  8
0
 10
47.148626981582908
 20
75.650000000000134
 30
0.0
 11
47.148626984237971
 21
70.000000002020812
 31
0.0
  0
TEXT
  5
1F0
  8
3
 10
49.048626981581947
 20
70.557142857140846
 30
0.0
 40
1.0
  1
E
 50
270.0
 41
1.8
  7
SIM180
 72
     1
 11
49.048626981581947
 21
69.999999999997982
 31
0.0
  0
TEXT
  5
1F1
  8
3
 10
47.939413056475239
 20
73.58249986782053
 30
0.0
 40
1.0
  1
E
 50
300.0
 41
1.8
  7
SIM180
 72
     1
 11
48.217984485046657
 21
73.099999999997777
 31
0.0
  0
TEXT
  5
1F2
  8
3
 10
48.704260167093459
 20
72.101439933153586
 30
0.0
 40
1.0
  1
L
 50
285.0
 41
1.8
  7
SIM180
 72
     1
 11
48.83736710457476
 21
71.604678079633487
 31
0.0
  0
LINE
  5
1F3
  8
0
 10
47.148626981582908
 20
64.350000000000136
 30
0.0
 11
47.148626984237971
 21
69.999999997979472
 31
0.0
  0
LINE
  5
1F4
  8
0
 10
45.948626982052822
 20
65.350000000000136
 30
0.0
 11
45.948626984237968
 21
69.999999998543373
 31
0.0
  0
LINE
  5
1F5
  8
0
 10
44.348626981582903
 20
69.999999999295255
 30
0.0
 11
44.348626981582903
 21
69.399999999295261
 31
0.0
  0
TEXT
  5
1F6
  8
3
 10
48.560841627901702
 20
67.49384599116523
 30
0.0
 40
1.0
  1
A
 50
240.0
 41
1.8
  7
SIM180
 72
     1
 11
48.21798448504456
 21
66.899999999998755
 31
0.0
  0
TEXT
  5
1F7
  8
3
 10
48.9926585316352
 20
68.974877416136124
 30
0.0
 40
1.0
  1
S
 50
255.0
 41
1.8
  7
SIM180
 72
     1
 11
48.83736710457368
 21
68.395321920362704
 31
0.0
  0
ARC
  5
1F8
  8
0
 10
93.063566203809714
 20
79.526279430899137
 30
0.0
 40
3.8135662038093541
 50
146.37357081940081
 51
236.3735706577346
  0
LINE
  5
1F9
  8
0
 10
89.0
 20
80.749999991047446
 30
0.0
 11
90.951705920789436
 21
82.701705911836825
 31
0.0
  0
LINE
  5
1FA
  8
0
 10
89.0
 20
102.7050283154895
 30
0.0
 11
89.25
 21
102.4550283154895
 31
0.0
  0
ARC
  5
1FB
  8
0
 10
98.988992716258224
 20
118.95502830205911
 30
0.0
 40
9.7389927162578864
 50
145.6157527021978
 51
214.3842472978011
  0
LINE
  5
1FC
  8
0
 10
89.0
 20
124.20502829758161
 30
0.0
 11
89.25
 21
124.45502829758161
 31
0.0
  0
LINE
  5
1FE
  8
0
 10
103.0
 20
61.668999999999983
 30
0.0
 11
103.0
 21
78.331000000000003
 31
0.0
  0
LINE
  5
1FF
  8
0
 10
96.0
 20
57.298294088163182
 30
0.0
 11
96.0
 21
82.701705911836825
 31
0.0
  0
LINE
  5
200
  8
0
 10
105.0
 20
62.52499999999997
 30
0.0
 11
105.0
 21
77.47500000000008
 31
0.0
  0
LINE
  5
201
  8
0
 10
97.5
 20
59.25
 30
0.0
 11
97.5
 21
80.750000000000014
 31
0.0
  0
CIRCLE
  5
202
  8
0
 10
147.81732427022169
 20
70.000000000004022
 30
0.0
 40
10.750000000003981
  0
CIRCLE
  5
203
  8
3
 10
147.81732427022581
 20
70.000000000000995
 30
0.0
 40
7.4749999999999988
  0
CIRCLE
  5
204
  8
0
 10
147.81732427022581
 20
70.000000000000995
 30
0.0
 40
8.3309999999999995
  0
LINE
  5
205
  8
0
 10
158.8173242612732
 20
76.350852955914291
 30
0.0
 11
158.8173242612732
 21
63.649147033743191
 31
0.0
  0
LINE
  5
206
  8
0
 10
136.81732427918109
 20
63.649147044081531
 30
0.0
 11
136.81732427918109
 21
76.350852966252631
 31
0.0
  0
LINE
  5
207
  8
1
 10
147.8173242702168
 20
85.588457257814795
 30
0.0
 11
147.81732427022669
 21
54.411542742255371
 31
0.0
  0
CIRCLE
  5
208
  8
0
 10
147.81732427022581
 20
70.000000000000995
 30
0.0
 40
5.0
  0
CIRCLE
  5
209
  8
0
 10
147.81732427022581
 20
70.000000000000995
 30
0.0
 40
4.3711066486041821
  0
LINE
  5
210
  8
0
 10
158.8173242612732
 20
63.649147044082781
 30
0.0
 11
147.8173242612732
 21
57.298294082995369
 31
0.0
  0
LINE
  5
211
  8
0
 10
103.0
 20
34.875971693463057
 30
0.0
 11
103.0
 21
18.213971693463019
 31
0.0
  0
LINE
  5
212
  8
0
 10
96.0
 20
37.544971684510429
 30
0.0
 11
96.0
 21
15.54497170241838
 31
0.0
  0
LINE
  5
213
  8
0
 10
105.0
 20
34.019971693463063
 30
0.0
 11
105.0
 21
19.069971693462989
 31
0.0
  0
LINE
  5
214
  8
0
 10
97.5
 20
37.29497169346304
 30
0.0
 11
97.5
 21
15.79497169346304
 31
0.0
  0
LINE
  5
215
  8
3
 10
97.499999999999986
 20
19.069971693463071
 30
0.0
 11
103.0
 21
19.069971693463099
 31
0.0
  0
LINE
  5
216
  8
0
 10
97.5
 20
18.213971693463019
 30
0.0
 11
103.0
 21
18.213971693463019
 31
0.0
  0
LINE
  5
217
  8
0
 10
97.5
 20
15.79497169346307
 30
0.0
 11
95.999999999999986
 21
15.79497169346307
 31
0.0
  0
LINE
  5
218
  8
0
 10
103.0
 20
19.069971693462989
 30
0.0
 11
105.0
 21
19.069971693462989
 31
0.0
  0
LINE
  5
21D
  8
0
 10
97.499999999999986
 20
34.875971693463057
 30
0.0
 11
103.0
 21
34.875971693463057
 31
0.0
  0
LINE
  5
21E
  8
3
 10
97.499999999999986
 20
34.019971693463063
 30
0.0
 11
103.0
 21
34.019971693463042
 31
0.0
  0
LINE
  5
21F
  8
0
 10
103.0
 20
34.019971693463148
 30
0.0
 11
105.0
 21
34.019971693463148
 31
0.0
  0
LINE
  5
220
  8
0
 10
97.5
 20
37.294971693463012
 30
0.0
 11
95.999999999999986
 21
37.294971693463012
 31
0.0
  0
LINE
  5
221
  8
0
 10
97.5
 20
61.668999999999983
 30
0.0
 11
103.0
 21
61.668999999999983
 31
0.0
  0
LINE
  5
222
  8
3
 10
97.5
 20
62.52499999999997
 30
0.0
 11
103.0
 21
62.525000000000027
 31
0.0
  0
LINE
  5
223
  8
0
 10
97.5
 20
59.250000000000057
 30
0.0
 11
96.0
 21
59.250000000000057
 31
0.0
  0
LINE
  5
224
  8
0
 10
103.0
 20
62.52499999999992
 30
0.0
 11
105.0
 21
62.52499999999992
 31
0.0
  0
LINE
  5
225
  8
0
 10
147.8173242702272
 20
57.298294088172668
 30
0.0
 11
136.81732427022709
 21
63.649147049256342
 31
0.0
  0
LINE
  5
227
  8
0
 10
147.8173242702272
 20
82.701705911830643
 30
0.0
 11
158.8173242702272
 21
76.350852950746983
 31
0.0
  0
LINE
  5
228
  8
1
 10
161.31732426127039
 20
69.999999993660055
 30
0.0
 11
134.31732427917839
 21
70.000000006348003
 31
0.0
  0
LINE
  5
229
  8
0
 10
97.5
 20
102.7050283065369
 30
0.0
 11
97.5
 21
124.2050283065369
 31
0.0
  0
LINE
  5
22A
  8
0
 10
105.0
 20
105.98002830653689
 30
0.0
 11
105.0
 21
120.930028306537
 31
0.0
  0
LINE
  5
22B
  8
0
 10
96.0
 20
102.4550283154896
 30
0.0
 11
96.0
 21
124.45502829758161
 31
0.0
  0
LINE
  5
22C
  8
0
 10
103.0
 20
105.1240283065369
 30
0.0
 11
103.0
 21
121.78602830653691
 31
0.0
  0
LINE
  5
22D
  8
3
 10
97.5
 20
77.474999999999966
 30
0.0
 11
103.0
 21
77.474999999999966
 31
0.0
  0
LINE
  5
22E
  8
0
 10
97.5
 20
78.331000000000003
 30
0.0
 11
103.0
 21
78.331000000000003
 31
0.0
  0
LINE
  5
22F
  8
0
 10
103.0
 20
77.47500000000008
 30
0.0
 11
105.0
 21
77.47500000000008
 31
0.0
  0
LINE
  5
230
  8
0
 10
97.5
 20
80.749999999999929
 30
0.0
 11
96.0
 21
80.749999999999929
 31
0.0
  0
LINE
  5
231
  8
3
 10
97.499999999999986
 20
105.98002830653689
 30
0.0
 11
103.0
 21
105.98002830653689
 31
0.0
  0
LINE
  5
232
  8
0
 10
97.499999999999986
 20
105.1240283065369
 30
0.0
 11
103.0
 21
105.1240283065369
 31
0.0
  0
LINE
  5
233
  8
0
 10
97.5
 20
102.705028306537
 30
0.0
 11
95.999999999999986
 21
102.705028306537
 31
0.0
  0
LINE
  5
234
  8
0
 10
103.0
 20
105.98002830653679
 30
0.0
 11
105.0
 21
105.98002830653679
 31
0.0
  0
LINE
  5
235
  8
0
 10
136.8173242791911
 20
76.350852955920544
 30
0.0
 11
147.81732427918109
 21
82.701705917007956
 31
0.0
  0
LINE
  5
236
  8
0
 10
97.5
 20
121.78602830653691
 30
0.0
 11
103.0
 21
121.78602830653691
 31
0.0
  0
LINE
  5
237
  8
3
 10
97.499999999999986
 20
120.9300283065369
 30
0.0
 11
103.0
 21
120.9300283065369
 31
0.0
  0
LINE
  5
238
  8
0
 10
103.0
 20
120.930028306537
 30
0.0
 11
105.0
 21
120.930028306537
 31
0.0
  0
LINE
  5
239
  8
0
 10
97.5
 20
124.2050283065369
 30
0.0
 11
95.999999999999986
 21
124.2050283065369
 31
0.0
  0
TEXT
  5
380
  8
0
 62
     3
 10
0.0
 20
0.0
 30
0.0
 40
10.0
  1
PN-3/8D
  7
STANDARD1
  0
ENDSEC
  0
EOF
