  0
SECTION
  2
HEADER
  9
$ACADVER
  1
AC1009
  9
$INSBASE
 10
0.0
 20
0.0
 30
0.0
  9
$EXTMIN
 10
0.0
 20
-2.960436562073669
 30
0.0
  9
$EXTMAX
 10
161.31732426127039
 20
119.45502829758161
 30
0.0
  9
$LIMMIN
 10
0.0
 20
0.0
  9
$LIMMAX
 10
187.5
 20
135.0
  9
$ORTHOMODE
 70
     1
  9
$REGENMODE
 70
     1
  9
$FILLMODE
 70
     1
  9
$QTEXTMODE
 70
     0
  9
$MIRRTEXT
 70
     0
  9
$DRAGMODE
 70
     2
  9
$LTSCALE
 40
5.0
  9
$OSMODE
 70
  3071
  9
$ATTMODE
 70
     1
  9
$TEXTSIZE
 40
2.0000000000000502
  9
$TRACEWID
 40
0.05
  9
$TEXTSTYLE
  7
STANDARD
  9
$CLAYER
  8
0
  9
$CELTYPE
  6
BYLAYER
  9
$CECOLOR
 62
   256
  9
$DIMSCALE
 40
0.5
  9
$DIMASZ
 40
3.0
  9
$DIMEXO
 40
2.0
  9
$DIMDLI
 40
0.38
  9
$DIMRND
 40
0.0
  9
$DIMDLE
 40
0.0
  9
$DIMEXE
 40
2.0
  9
$DIMTP
 40
0.0
  9
$DIMTM
 40
0.0
  9
$DIMTXT
 40
3.2000000000000002
  9
$DIMCEN
 40
0.0
  9
$DIMTSZ
 40
0.0
  9
$DIMTOL
 70
     0
  9
$DIMLIM
 70
     0
  9
$DIMTIH
 70
     0
  9
$DIMTOH
 70
     0
  9
$DIMSE1
 70
     0
  9
$DIMSE2
 70
     0
  9
$DIMTAD
 70
     1
  9
$DIMZIN
 70
     0
  9
$DIMBLK
  1

  9
$DIMASO
 70
     1
  9
$DIMSHO
 70
     0
  9
$DIMPOST
  1

  9
$DIMAPOST
  1

  9
$DIMALT
 70
     0
  9
$DIMALTD
 70
     2
  9
$DIMALTF
 40
25.399999999999999
  9
$DIMLFAC
 40
1.0
  9
$DIMTOFL
 70
     1
  9
$DIMTVP
 40
1.6000000000000001
  9
$DIMTIX
 70
     1
  9
$DIMSOXD
 70
     0
  9
$DIMSAH
 70
     0
  9
$DIMBLK1
  1

  9
$DIMBLK2
  1

  9
$DIMSTYLE
  2
STANDARD
  9
$DIMCLRD
 70
     0
  9
$DIMCLRE
 70
     0
  9
$DIMCLRT
 70
     0
  9
$DIMTFAC
 40
1.0
  9
$DIMGAP
 40
0.09
  9
$LUNITS
 70
     2
  9
$LUPREC
 70
     4
  9
$SKETCHINC
 40
0.1
  9
$FILLETRAD
 40
0.0
  9
$AUNITS
 70
     0
  9
$AUPREC
 70
     4
  9
$MENU
  1
E:\r13\win\SUPPORT\ACAD
  9
$ELEVATION
 40
0.0
  9
$PELEVATION
 40
0.0
  9
$THICKNESS
 40
0.0
  9
$LIMCHECK
 70
     0
  9
$BLIPMODE
 70
     0
  9
$CHAMFERA
 40
0.0
  9
$CHAMFERB
 40
0.0
  9
$SKPOLY
 70
     0
  9
$TDCREATE
 40
2449839.7947337958
  9
$TDUPDATE
 40
2456597.7235010769
  9
$TDINDWG
 40
0.0002558565
  9
$TDUSRTIMER
 40
0.0002558565
  9
$USRTIMER
 70
     1
  9
$ANGBASE
 50
0.0
  9
$ANGDIR
 70
     0
  9
$PDMODE
 70
     0
  9
$PDSIZE
 40
0.0
  9
$PLINEWID
 40
0.0
  9
$COORDS
 70
     1
  9
$SPLFRAME
 70
     0
  9
$SPLINETYPE
 70
     6
  9
$SPLINESEGS
 70
     8
  9
$ATTDIA
 70
     0
  9
$ATTREQ
 70
     1
  9
$HANDLING
 70
     1
  9
$HANDSEED
  5
295
  9
$SURFTAB1
 70
     6
  9
$SURFTAB2
 70
     6
  9
$SURFTYPE
 70
     6
  9
$SURFU
 70
     6
  9
$SURFV
 70
     6
  9
$UCSNAME
  2

  9
$UCSORG
 10
0.0
 20
0.0
 30
0.0
  9
$UCSXDIR
 10
1.0
 20
0.0
 30
0.0
  9
$UCSYDIR
 10
0.0
 20
1.0
 30
0.0
  9
$PUCSNAME
  2

  9
$PUCSORG
 10
0.0
 20
0.0
 30
0.0
  9
$PUCSXDIR
 10
1.0
 20
0.0
 30
0.0
  9
$PUCSYDIR
 10
0.0
 20
1.0
 30
0.0
  9
$USERI1
 70
     0
  9
$USERI2
 70
     1
  9
$USERI3
 70
     1
  9
$USERI4
 70
     0
  9
$USERI5
 70
     0
  9
$USERR1
 40
0.0
  9
$USERR2
 40
0.0
  9
$USERR3
 40
0.0
  9
$USERR4
 40
0.0
  9
$USERR5
 40
0.0
  9
$WORLDVIEW
 70
     1
  9
$SHADEDGE
 70
     3
  9
$SHADEDIF
 70
    70
  9
$TILEMODE
 70
     1
  9
$MAXACTVP
 70
    16
  9
$PLIMCHECK
 70
     0
  9
$PEXTMIN
 10
1.0000000000000000E+020
 20
1.0000000000000000E+020
 30
1.0000000000000000E+020
  9
$PEXTMAX
 10
-1.0000000000000000E+020
 20
-1.0000000000000000E+020
 30
-1.0000000000000000E+020
  9
$PLIMMIN
 10
0.0
 20
0.0
  9
$PLIMMAX
 10
12.0
 20
9.0
  9
$UNITMODE
 70
     0
  9
$VISRETAIN
 70
     0
  9
$PLINEGEN
 70
     0
  9
$PSLTSCALE
 70
     0
  0
ENDSEC
  0
SECTION
  2
TABLES
  0
TABLE
  2
VPORT
 70
     1
  0
VPORT
  2
*ACTIVE
 70
     0
 10
0.0
 20
0.0
 11
1.0
 21
1.0
 12
93.74713919532617
 22
66.313465060797697
 13
0.0
 23
0.0
 14
5.0
 24
5.0
 15
5.0
 25
5.0
 16
0.0
 26
0.0
 36
1.0
 17
0.0
 27
0.0
 37
0.0
 40
140.15365342376049
 41
2.304913294797688
 42
50.0
 43
0.0
 44
0.0
 50
0.0
 51
0.0
 71
     0
 72
   500
 73
     1
 74
     0
 75
     0
 76
     0
 77
     0
 78
     2
  0
ENDTAB
  0
TABLE
  2
LTYPE
 70
     3
  0
LTYPE
  2
CONTINUOUS
 70
     0
  3
Solid Line
 72
    65
 73
     0
 40
0.0
  0
LTYPE
  2
CENTER
 70
     0
  3
____ _ ____ _ ____ _ ____ _ ____ _ ____ _ ____
 72
    65
 73
     4
 40
2.0
 49
1.25
 49
-0.25
 49
0.25
 49
-0.25
  0
LTYPE
  2
PHANTOM2
 70
     0
  3
___ _ _ ___ _ _ ___ _ _ ___ _ _
 72
    65
 73
     6
 40
1.25
 49
0.625
 49
-0.125
 49
0.125
 49
-0.125
 49
0.125
 49
-0.125
  0
ENDTAB
  0
TABLE
  2
LAYER
 70
     3
  0
LAYER
  2
0
 70
     0
 62
     7
  6
CONTINUOUS
  0
LAYER
  2
1
 70
     0
 62
     1
  6
CENTER
  0
LAYER
  2
3
 70
     0
 62
     3
  6
CONTINUOUS
  0
ENDTAB
  0
TABLE
  2
STYLE
 70
     3
  0
STYLE
  2
STANDARD
 70
     0
 40
0.0
 41
1.0
 50
0.0
 71
     0
 42
2.0000000000000502
  3
TXT
  4
BIGFONT
  0
STYLE
  2
SIM180
 70
     0
 40
0.0
 41
1.8
 50
0.0
 71
     0
 42
0.8
  3
SIMPLEX
  4

  0
STYLE
  2
STANDARD1
 70
     0
 40
0.0
 41
1.0
 50
0.0
 71
     0
 42
3.0
  3
txt
  4

  0
ENDTAB
  0
TABLE
  2
VIEW
 70
     1
  0
VIEW
  2
ALL
 70
     0
 40
175.0
 10
143.23529411764699
 20
87.5
 41
0.0
 11
0.0
 21
0.0
 31
1.0
 12
0.0
 22
0.0
 32
0.0
 42
0.0
 43
0.0
 44
0.0
 50
0.0
 71
     0
  0
ENDTAB
  0
TABLE
  2
UCS
 70
     0
  0
ENDTAB
  0
TABLE
  2
APPID
 70
     3
  0
APPID
  2
ACAD
 70
     0
  0
APPID
  2
ACAD_MLEADERVER
 70
     0
  0
APPID
  2
ACAD_NAV_VCDISPLAY
 70
     0
  0
ENDTAB
  0
TABLE
  2
DIMSTYLE
 70
     1
  0
DIMSTYLE
  2
STANDARD
 70
     0
  3

  4

  5

  6

  7

 40
1.0
 41
0.18
 42
0.0625
 43
0.38
 44
0.18
 45
0.0
 46
0.0
 47
0.0
 48
0.0
140
0.18
141
0.09
142
0.0
143
25.399999999999999
144
1.0
145
0.0
146
1.0
147
0.09
 71
     0
 72
     0
 73
     1
 74
     1
 75
     0
 76
     0
 77
     0
 78
     0
170
     0
171
     2
172
     0
173
     0
174
     0
175
     0
176
     0
177
     0
178
     0
  0
ENDTAB
  0
ENDSEC
  0
SECTION
  2
BLOCKS
  0
BLOCK
  8
0
  2
$MODEL_SPACE
 70
     0
 10
0.0
 20
0.0
 30
0.0
  3
$MODEL_SPACE
  1

  0
ENDBLK
  5
114
  8
0
  0
BLOCK
 67
     1
  8
0
  2
$PAPER_SPACE
 70
     0
 10
0.0
 20
0.0
 30
0.0
  3
$PAPER_SPACE
  1

  0
ENDBLK
  5
112
 67
     1
  8
0
  0
ENDSEC
  0
SECTION
  2
ENTITIES
  0
TEXT
  5
3E
  8
3
 10
45.354780997110218
 20
70.712214646325904
 30
0.0
 40
1.0
  1
A
 50
330.00000000000011
 41
1.8
  7
SIM180
 72
     1
 11
45.9486269882767
 21
70.369357503468763
 31
0.0
  0
TEXT
  5
3F
  8
3
 10
43.873749572139282
 20
71.144031550059395
 30
0.0
 40
1.0
  1
S
 50
345.0
 41
1.8
  7
SIM180
 72
     1
 11
44.453305067912723
 21
70.988740122997882
 31
0.0
  0
TEXT
  5
40
  8
3
 10
42.291484131134588
 20
71.200000000006156
 30
0.0
 40
1.0
  1
E
 50
360.0
 41
1.8
  7
SIM180
 72
     1
 11
42.848626988277438
 21
71.200000000006156
 31
0.0
  0
TEXT
  5
41
  8
3
 10
40.747187055121898
 20
70.855633185517661
 30
0.0
 40
1.0
  1
L
 50
14.99999999999997
 41
1.8
  7
SIM180
 72
     1
 11
41.24394890864199
 21
70.988740122998962
 31
0.0
  0
TEXT
  5
42
  8
3
 10
39.26612712045489
 20
70.090786074899441
 30
0.0
 40
1.0
  1
E
 50
29.999999999999961
 41
1.8
  7
SIM180
 72
     1
 11
39.74862698827765
 21
70.369357503470866
 31
0.0
  0
LINE
  5
43
  8
0
 10
40.077345695366219
 20
67.500000001306347
 30
0.0
 11
41.462986341797283
 21
67.500000000655206
 31
0.0
  0
LINE
  5
44
  8
0
 10
47.351959086685667
 20
65.699999997887886
 30
0.0
 11
48.498626988275291
 21
65.699999997349011
 31
0.0
  0
LINE
  5
45
  8
0
 10
45.273498118166863
 20
64.499999998864524
 30
0.0
 11
47.298626988275359
 21
64.499999997912909
 31
0.0
  0
LINE
  5
46
  8
0
 10
47.005548925265749
 20
67.499999998050583
 30
0.0
 11
48.391189570945031
 21
67.499999997399442
 31
0.0
  0
LINE
  5
47
  8
0
 10
44.234267633907521
 20
67.499999999352866
 30
0.0
 11
45.619908279586653
 21
67.499999998701725
 31
0.0
  0
LINE
  5
48
  8
0
 10
47.351959086685653
 20
65.699999997887886
 30
0.0
 11
48.391189570945031
 21
67.499999997399442
 31
0.0
  0
LINE
  5
49
  8
0
 10
45.273498118166899
 20
64.499999998864581
 30
0.0
 11
47.005548925265842
 21
67.49999999805064
 31
0.0
  0
LINE
  5
4A
  8
0
 10
38.345294887327427
 20
65.700000002120333
 30
0.0
 11
37.306064402504077
 21
67.50000000260863
 31
0.0
  0
LINE
  5
4B
  8
0
 10
40.423755856973919
 20
64.500000001143533
 30
0.0
 11
38.691705048935219
 21
67.500000001957488
 31
0.0
  0
LINE
  5
4C
  8
0
 10
42.248626988275348
 20
66.13923048446415
 30
0.0
 11
41.462986341797333
 21
67.500000000655206
 31
0.0
  0
LINE
  5
4D
  8
0
 10
43.448626988275358
 20
66.139230484626779
 30
0.0
 11
44.234267633907457
 21
67.499999999352866
 31
0.0
  0
LINE
  5
4E
  8
0
 10
43.448626988275358
 20
66.139230484626779
 30
0.0
 11
43.448626988275329
 21
70.500000000016968
 31
0.0
  0
LINE
  5
4F
  8
0
 10
42.248626988275348
 20
66.13923048446415
 30
0.0
 11
42.248626988275312
 21
70.500000000285993
 31
0.0
  0
LINE
  5
50
  8
0
 10
42.848626988228361
 20
62.700000000004053
 30
0.0
 11
45.619908279586653
 21
67.499999998701725
 31
0.0
  0
LINE
  5
51
  8
0
 10
42.848626988228297
 20
62.700000000004053
 30
0.0
 11
40.077345695366219
 21
67.500000001306347
 31
0.0
  0
LINE
  5
52
  8
0
 10
42.248626988275312
 20
70.500000000285993
 30
0.0
 11
43.448626988275358
 21
70.499999999722064
 31
0.0
  0
LINE
  5
53
  8
0
 10
37.306064402504077
 20
67.50000000260863
 30
0.0
 11
38.691705048935219
 21
67.500000001957488
 31
0.0
  0
LINE
  5
54
  8
0
 10
38.39862698827536
 20
60.90000000209514
 30
0.0
 11
38.39862698827536
 21
64.50000000209522
 31
0.0
  0
LINE
  5
55
  8
0
 10
47.29862698827538
 20
60.899999997912829
 30
0.0
 11
47.298626988275359
 21
64.499999997912909
 31
0.0
  0
LINE
  5
56
  8
0
 10
48.498626988275319
 20
59.699999997348947
 30
0.0
 11
48.498626988275319
 21
65.699999997349067
 31
0.0
  0
LINE
  5
57
  8
0
 10
37.198626988275372
 20
59.700000002659152
 30
0.0
 11
37.198626988275372
 21
65.700000002659152
 31
0.0
  0
LINE
  5
58
  8
0
 10
38.39862698827536
 20
64.50000000209522
 30
0.0
 11
40.423755856973919
 21
64.500000001143533
 31
0.0
  0
LINE
  5
59
  8
0
 10
37.198626988275372
 20
65.700000002659152
 30
0.0
 11
38.345294887327427
 21
65.700000002120333
 31
0.0
  0
LINE
  5
5A
  8
0
 10
38.39862698827536
 20
60.90000000209514
 30
0.0
 11
47.298626988275359
 21
60.899999997912829
 31
0.0
  0
LINE
  5
5B
  8
0
 10
37.198626988275372
 20
59.700000002659152
 30
0.0
 11
48.498626988275319
 21
59.699999997348947
 31
0.0
  0
CIRCLE
  5
5C
  8
0
 10
147.81732427022581
 20
65.000000000000995
 30
0.0
 40
4.3711066486041821
  0
CIRCLE
  5
5D
  8
0
 10
147.81732427022581
 20
65.000000000000995
 30
0.0
 40
5.0
  0
LINE
  5
5E
  8
1
 10
161.31732426127039
 20
64.999999993660055
 30
0.0
 11
134.31732427917839
 21
65.000000006348003
 31
0.0
  0
LINE
  5
5F
  8
1
 10
147.8173242702168
 20
80.588457257814795
 30
0.0
 11
147.81732427022669
 21
49.411542742255371
 31
0.0
  0
LINE
  5
60
  8
1
 10
42.84862698828433
 20
49.41154274222658
 30
0.0
 11
42.848626988274468
 21
80.588457257785961
 31
0.0
  0
LINE
  5
61
  8
1
 10
29.348626997230681
 20
65.000000006348046
 30
0.0
 11
56.348626979322731
 21
64.999999993660097
 31
0.0
  0
LINE
  5
62
  8
1
 10
107.5
 20
65.0
 30
0.0
 11
86.500000000000014
 21
65.0
 31
0.0
  0
LINE
  5
63
  8
3
 10
97.499999999999986
 20
72.474999999999966
 30
0.0
 11
103.0
 21
72.474999999999937
 31
0.0
  0
LINE
  5
64
  8
0
 10
103.0
 20
57.524999999999892
 30
0.0
 11
105.0
 21
57.524999999999892
 31
0.0
  0
LINE
  5
65
  8
0
 10
103.0
 20
56.668999999999983
 30
0.0
 11
103.0
 21
73.331000000000003
 31
0.0
  0
LINE
  5
66
  8
0
 10
89.0
 20
54.250000008952583
 30
0.0
 11
90.951705920789436
 21
52.298294088163182
 31
0.0
  0
LINE
  5
67
  8
0
 10
96.0
 20
52.298294088163182
 30
0.0
 11
96.0
 21
77.701705911836825
 31
0.0
  0
LINE
  5
68
  8
0
 10
89.0
 20
54.250000008952583
 30
0.0
 11
89.0
 21
75.74999999104466
 31
0.0
  0
LINE
  5
69
  8
0
 10
105.0
 20
57.52499999999997
 30
0.0
 11
105.0
 21
72.475000000000051
 31
0.0
  0
LINE
  5
6A
  8
0
 10
97.499999999999986
 20
56.668999999999983
 30
0.0
 11
103.0
 21
56.668999999999983
 31
0.0
  0
LINE
  5
6B
  8
3
 10
97.499999999999986
 20
57.52499999999997
 30
0.0
 11
103.0
 21
57.525000000000013
 31
0.0
  0
LINE
  5
6C
  8
0
 10
103.0
 20
72.475000000000051
 30
0.0
 11
105.0
 21
72.475000000000051
 31
0.0
  0
LINE
  5
6D
  8
0
 10
97.499999999999986
 20
73.331000000000003
 30
0.0
 11
103.0
 21
73.331000000000003
 31
0.0
  0
LINE
  5
6E
  8
0
 10
90.951705911833074
 20
58.649147044081779
 30
0.0
 11
96.0
 21
58.649147044081779
 31
0.0
  0
LINE
  5
6F
  8
0
 10
90.951705920789436
 20
52.298294088163182
 30
0.0
 11
96.0
 21
52.298294088163182
 31
0.0
  0
LINE
  5
70
  8
0
 10
90.951705920789436
 20
77.701705911836825
 30
0.0
 11
96.0
 21
77.701705911836825
 31
0.0
  0
LINE
  5
71
  8
0
 10
90.951705911833074
 20
71.350852955918214
 30
0.0
 11
96.0
 21
71.350852955918214
 31
0.0
  0
LINE
  5
72
  8
0
 10
89.0
 20
75.749999991047417
 30
0.0
 11
90.951705920789436
 21
77.701705911836825
 31
0.0
  0
ARC
  5
73
  8
0
 10
101.951705969716
 20
64.999999999999844
 30
0.0
 40
12.70170596971613
 50
150.00000015073849
 51
209.9999998492604
  0
ARC
  5
74
  8
0
 10
93.063566203809714
 20
55.473720569100863
 30
0.0
 40
3.8135662038093541
 50
123.6264293422654
 51
213.62642918059919
  0
ARC
  5
75
  8
0
 10
93.063566203809714
 20
74.526279430899137
 30
0.0
 40
3.8135662038093541
 50
146.37357081940081
 51
236.3735706577346
  0
LINE
  5
76
  8
1
 10
107.5
 20
108.4550283065369
 30
0.0
 11
86.500000000000014
 21
108.4550283065369
 31
0.0
  0
LINE
  5
77
  8
3
 10
97.499999999999986
 20
115.9300283065369
 30
0.0
 11
103.0
 21
115.9300283065369
 31
0.0
  0
LINE
  5
78
  8
0
 10
103.0
 20
100.98002830653679
 30
0.0
 11
105.0
 21
100.98002830653679
 31
0.0
  0
LINE
  5
79
  8
0
 10
103.0
 20
100.1240283065369
 30
0.0
 11
103.0
 21
116.78602830653691
 31
0.0
  0
ARC
  5
7A
  8
0
 10
98.988992716258224
 20
102.9550283110147
 30
0.0
 40
9.7389927162578864
 50
145.6157527021989
 51
214.38424729780229
  0
ARC
  5
7B
  8
0
 10
98.988992716258224
 20
113.95502830205911
 30
0.0
 40
9.7389927162578864
 50
145.6157527021978
 51
214.3842472978011
  0
LINE
  5
7C
  8
0
 10
89.0
 20
119.20502829758161
 30
0.0
 11
89.25
 21
119.45502829758161
 31
0.0
  0
LINE
  5
7D
  8
0
 10
89.0
 20
97.705028315489542
 30
0.0
 11
89.25
 21
97.455028315489542
 31
0.0
  0
LINE
  5
7E
  8
0
 10
89.25
 20
119.45502829758161
 30
0.0
 11
96.0
 21
119.45502829758161
 31
0.0
  0
LINE
  5
7F
  8
0
 10
96.0
 20
97.455028315489571
 30
0.0
 11
89.25
 21
97.455028315489542
 31
0.0
  0
LINE
  5
80
  8
0
 10
96.0
 20
97.455028315489571
 30
0.0
 11
96.0
 21
119.45502829758161
 31
0.0
  0
CIRCLE
  5
81
  8
0
 10
42.848626988275342
 20
65.000000000007134
 30
0.0
 40
10.75
  0
CIRCLE
  5
82
  8
0
 10
42.848626988275342
 20
65.000000000007134
 30
0.0
 40
9.0
  0
LINE
  5
83
  8
0
 10
89.0
 20
97.705028315489542
 30
0.0
 11
89.0
 21
119.20502829758161
 31
0.0
  0
LINE
  5
84
  8
0
 10
136.81732427918109
 20
58.649147044081531
 30
0.0
 11
136.81732427918109
 21
71.350852966252631
 31
0.0
  0
LINE
  5
85
  8
0
 10
136.8173242791911
 20
71.350852955920544
 30
0.0
 11
147.81732427918109
 21
77.701705917007956
 31
0.0
  0
LINE
  5
86
  8
0
 10
147.8173242702272
 20
77.701705911830658
 30
0.0
 11
158.8173242702272
 21
71.350852950746983
 31
0.0
  0
LINE
  5
87
  8
0
 10
158.8173242612732
 20
71.350852955914291
 30
0.0
 11
158.8173242612732
 21
58.649147033743191
 31
0.0
  0
LINE
  5
88
  8
0
 10
158.8173242612732
 20
58.649147044082781
 30
0.0
 11
147.8173242612732
 21
52.298294082995369
 31
0.0
  0
LINE
  5
89
  8
0
 10
147.8173242702272
 20
52.298294088172668
 30
0.0
 11
136.81732427022709
 21
58.649147049256342
 31
0.0
  0
LINE
  5
8A
  8
0
 10
42.848626988276699
 20
52.298294088178842
 30
0.0
 11
31.84862698827671
 21
58.649147049262488
 31
0.0
  0
LINE
  5
8B
  8
0
 10
53.848626979322731
 20
58.649147044088949
 30
0.0
 11
42.848626979322731
 21
52.298294083001537
 31
0.0
  0
LINE
  5
8C
  8
0
 10
53.848626979322731
 20
71.350852955920431
 30
0.0
 11
53.848626979322731
 21
58.649147033749351
 31
0.0
  0
LINE
  5
8D
  8
0
 10
42.848626988276699
 20
77.701705911836797
 30
0.0
 11
53.848626988276713
 21
71.350852950753136
 31
0.0
  0
LINE
  5
8E
  8
0
 10
31.848626997240689
 20
71.350852955926683
 30
0.0
 11
42.848626997230681
 21
77.701705917014095
 31
0.0
  0
LINE
  5
8F
  8
0
 10
31.848626997230681
 20
58.649147044087698
 30
0.0
 11
31.848626997230681
 21
71.35085296625877
 31
0.0
  0
LINE
  5
90
  8
0
 10
105.0
 20
100.98002830653689
 30
0.0
 11
105.0
 21
115.930028306537
 31
0.0
  0
LINE
  5
91
  8
0
 10
97.499999999999986
 20
100.1240283065369
 30
0.0
 11
103.0
 21
100.1240283065369
 31
0.0
  0
LINE
  5
92
  8
3
 10
97.499999999999986
 20
100.98002830653689
 30
0.0
 11
103.0
 21
100.98002830653689
 31
0.0
  0
LINE
  5
93
  8
0
 10
103.0
 20
115.930028306537
 30
0.0
 11
105.0
 21
115.930028306537
 31
0.0
  0
LINE
  5
94
  8
0
 10
97.5
 20
116.78602830653691
 30
0.0
 11
103.0
 21
116.78602830653691
 31
0.0
  0
CIRCLE
  5
95
  8
0
 10
147.81732427022581
 20
65.000000000000995
 30
0.0
 40
8.3309999999999995
  0
CIRCLE
  5
96
  8
3
 10
147.81732427022581
 20
65.000000000000995
 30
0.0
 40
7.4749999999999988
  0
LINE
  5
97
  8
0
 10
90.95170591183313
 20
108.4550283065369
 30
0.0
 11
96.0
 21
108.4550283065369
 31
0.0
  0
LINE
  5
98
  8
0
 10
97.5
 20
119.2050283065369
 30
0.0
 11
95.999999999999986
 21
119.2050283065369
 31
0.0
  0
LINE
  5
99
  8
0
 10
97.5
 20
97.705028306536974
 30
0.0
 11
97.5
 21
119.2050283065369
 31
0.0
  0
LINE
  5
9A
  8
0
 10
97.5
 20
97.705028306536988
 30
0.0
 11
95.999999999999986
 21
97.705028306536988
 31
0.0
  0
LINE
  5
9B
  8
0
 10
97.5
 20
54.25
 30
0.0
 11
97.5
 21
75.75
 31
0.0
  0
LINE
  5
9C
  8
0
 10
97.5
 20
54.250000000000028
 30
0.0
 11
95.999999999999986
 21
54.250000000000028
 31
0.0
  0
LINE
  5
9D
  8
0
 10
97.5
 20
75.749999999999972
 30
0.0
 11
95.999999999999986
 21
75.749999999999972
 31
0.0
  0
CIRCLE
  5
9E
  8
0
 10
147.81732427022169
 20
65.000000000004022
 30
0.0
 40
10.750000000003981
  0
LINE
  5
9F
  8
0
 10
97.5
 20
32.294971693463012
 30
0.0
 11
95.999999999999986
 21
32.294971693463012
 31
0.0
  0
LINE
  5
A0
  8
0
 10
97.5
 20
32.29497169346304
 30
0.0
 11
97.5
 21
10.79497169346304
 31
0.0
  0
LINE
  5
A1
  8
0
 10
97.5
 20
10.79497169346307
 30
0.0
 11
95.999999999999986
 21
10.79497169346307
 31
0.0
  0
LINE
  5
A2
  8
0
 10
90.95170591183313
 20
21.54497169346304
 30
0.0
 11
96.0
 21
21.54497169346304
 31
0.0
  0
LINE
  5
A3
  8
0
 10
97.5
 20
13.213971693463019
 30
0.0
 11
103.0
 21
13.213971693463019
 31
0.0
  0
LINE
  5
A4
  8
0
 10
103.0
 20
14.069971693462991
 30
0.0
 11
105.0
 21
14.069971693462991
 31
0.0
  0
LINE
  5
A5
  8
3
 10
97.499999999999986
 20
29.01997169346307
 30
0.0
 11
103.0
 21
29.019971693463042
 31
0.0
  0
LINE
  5
A6
  8
0
 10
97.499999999999986
 20
29.875971693463061
 30
0.0
 11
103.0
 21
29.875971693463061
 31
0.0
  0
LINE
  5
A7
  8
0
 10
105.0
 20
29.01997169346307
 30
0.0
 11
105.0
 21
14.069971693462991
 31
0.0
  0
LINE
  5
A8
  8
0
 10
89.0
 20
32.294971684510458
 30
0.0
 11
89.0
 21
10.79497170241838
 31
0.0
  0
LINE
  5
A9
  8
0
 10
96.0
 20
32.544971684510429
 30
0.0
 11
96.0
 21
10.54497170241838
 31
0.0
  0
LINE
  5
AA
  8
0
 10
96.0
 20
32.544971684510429
 30
0.0
 11
89.25
 21
32.544971684510458
 31
0.0
  0
LINE
  5
AB
  8
0
 10
89.25
 20
10.54497170241838
 30
0.0
 11
96.0
 21
10.54497170241838
 31
0.0
  0
LINE
  5
AC
  8
0
 10
89.0
 20
32.294971684510458
 30
0.0
 11
89.25
 21
32.544971684510458
 31
0.0
  0
LINE
  5
AD
  8
0
 10
89.0
 20
10.79497170241838
 30
0.0
 11
89.25
 21
10.54497170241838
 31
0.0
  0
ARC
  5
AE
  8
0
 10
98.988992716258224
 20
16.04497169794082
 30
0.0
 40
9.7389927162578864
 50
145.6157527021989
 51
214.3842472978022
  0
ARC
  5
AF
  8
0
 10
98.988992716258224
 20
27.04497168898526
 30
0.0
 40
9.7389927162578864
 50
145.61575270219771
 51
214.3842472978011
  0
LINE
  5
B0
  8
0
 10
103.0
 20
29.875971693463061
 30
0.0
 11
103.0
 21
13.213971693463019
 31
0.0
  0
LINE
  5
B1
  8
0
 10
103.0
 20
29.019971693463152
 30
0.0
 11
105.0
 21
29.019971693463152
 31
0.0
  0
LINE
  5
B2
  8
3
 10
97.499999999999986
 20
14.069971693463071
 30
0.0
 11
103.0
 21
14.069971693463099
 31
0.0
  0
LINE
  5
B3
  8
1
 10
107.5
 20
21.54497169346304
 30
0.0
 11
86.500000000000014
 21
21.54497169346304
 31
0.0
  0
TEXT
  5
200
  8
0
 62
     3
 10
0.0
 20
0.0
 30
0.0
 40
10.0
  1
PN-3/8
  7
STANDARD1
  0
ENDSEC
  0
EOF
