  0
SECTION
  2
HEADER
  9
$ACADVER
  1
AC1009
  9
$INSBASE
 10
0.0
 20
0.0
 30
0.0
  9
$EXTMIN
 10
0.0
 20
-2.960436562073669
 30
0.0
  9
$EXTMAX
 10
177.97264078739781
 20
131.95843141262409
 30
0.0
  9
$LIMMIN
 10
0.0
 20
0.0
  9
$LIMMAX
 10
187.5
 20
135.0
  9
$ORTHOMODE
 70
     1
  9
$REGENMODE
 70
     1
  9
$FILLMODE
 70
     1
  9
$QTEXTMODE
 70
     0
  9
$MIRRTEXT
 70
     0
  9
$DRAGMODE
 70
     2
  9
$LTSCALE
 40
5.0
  9
$OSMODE
 70
  3071
  9
$ATTMODE
 70
     1
  9
$TEXTSIZE
 40
2.0000000000000502
  9
$TRACEWID
 40
0.05
  9
$TEXTSTYLE
  7
STANDARD
  9
$CLAYER
  8
0
  9
$CELTYPE
  6
BYLAYER
  9
$CECOLOR
 62
   256
  9
$DIMSCALE
 40
0.5
  9
$DIMASZ
 40
3.0
  9
$DIMEXO
 40
2.0
  9
$DIMDLI
 40
0.38
  9
$DIMRND
 40
0.0
  9
$DIMDLE
 40
0.0
  9
$DIMEXE
 40
2.0
  9
$DIMTP
 40
0.0
  9
$DIMTM
 40
0.0
  9
$DIMTXT
 40
3.2000000000000002
  9
$DIMCEN
 40
0.0
  9
$DIMTSZ
 40
0.0
  9
$DIMTOL
 70
     0
  9
$DIMLIM
 70
     0
  9
$DIMTIH
 70
     0
  9
$DIMTOH
 70
     0
  9
$DIMSE1
 70
     0
  9
$DIMSE2
 70
     0
  9
$DIMTAD
 70
     1
  9
$DIMZIN
 70
     0
  9
$DIMBLK
  1

  9
$DIMASO
 70
     1
  9
$DIMSHO
 70
     0
  9
$DIMPOST
  1

  9
$DIMAPOST
  1

  9
$DIMALT
 70
     0
  9
$DIMALTD
 70
     2
  9
$DIMALTF
 40
25.399999999999999
  9
$DIMLFAC
 40
1.0
  9
$DIMTOFL
 70
     1
  9
$DIMTVP
 40
1.6000000000000001
  9
$DIMTIX
 70
     1
  9
$DIMSOXD
 70
     0
  9
$DIMSAH
 70
     0
  9
$DIMBLK1
  1

  9
$DIMBLK2
  1

  9
$DIMSTYLE
  2
STANDARD
  9
$DIMCLRD
 70
     0
  9
$DIMCLRE
 70
     0
  9
$DIMCLRT
 70
     0
  9
$DIMTFAC
 40
1.0
  9
$DIMGAP
 40
0.09
  9
$LUNITS
 70
     2
  9
$LUPREC
 70
     4
  9
$SKETCHINC
 40
0.1
  9
$FILLETRAD
 40
0.0
  9
$AUNITS
 70
     0
  9
$AUPREC
 70
     4
  9
$MENU
  1
E:\r13\win\SUPPORT\ACAD
  9
$ELEVATION
 40
0.0
  9
$PELEVATION
 40
0.0
  9
$THICKNESS
 40
0.0
  9
$LIMCHECK
 70
     0
  9
$BLIPMODE
 70
     0
  9
$CHAMFERA
 40
0.0
  9
$CHAMFERB
 40
0.0
  9
$SKPOLY
 70
     0
  9
$TDCREATE
 40
2449839.795127315
  9
$TDUPDATE
 40
2456597.7234937502
  9
$TDINDWG
 40
0.00017375
  9
$TDUSRTIMER
 40
0.00017375
  9
$USRTIMER
 70
     1
  9
$ANGBASE
 50
0.0
  9
$ANGDIR
 70
     0
  9
$PDMODE
 70
     0
  9
$PDSIZE
 40
0.0
  9
$PLINEWID
 40
0.0
  9
$COORDS
 70
     1
  9
$SPLFRAME
 70
     0
  9
$SPLINETYPE
 70
     6
  9
$SPLINESEGS
 70
     8
  9
$ATTDIA
 70
     0
  9
$ATTREQ
 70
     1
  9
$HANDLING
 70
     1
  9
$HANDSEED
  5
2B4
  9
$SURFTAB1
 70
     6
  9
$SURFTAB2
 70
     6
  9
$SURFTYPE
 70
     6
  9
$SURFU
 70
     6
  9
$SURFV
 70
     6
  9
$UCSNAME
  2

  9
$UCSORG
 10
0.0
 20
0.0
 30
0.0
  9
$UCSXDIR
 10
1.0
 20
0.0
 30
0.0
  9
$UCSYDIR
 10
0.0
 20
1.0
 30
0.0
  9
$PUCSNAME
  2

  9
$PUCSORG
 10
0.0
 20
0.0
 30
0.0
  9
$PUCSXDIR
 10
1.0
 20
0.0
 30
0.0
  9
$PUCSYDIR
 10
0.0
 20
1.0
 30
0.0
  9
$USERI1
 70
     0
  9
$USERI2
 70
     1
  9
$USERI3
 70
     1
  9
$USERI4
 70
     0
  9
$USERI5
 70
     0
  9
$USERR1
 40
0.0
  9
$USERR2
 40
0.0
  9
$USERR3
 40
0.0
  9
$USERR4
 40
0.0
  9
$USERR5
 40
0.0
  9
$WORLDVIEW
 70
     1
  9
$SHADEDGE
 70
     3
  9
$SHADEDIF
 70
    70
  9
$TILEMODE
 70
     1
  9
$MAXACTVP
 70
    16
  9
$PLIMCHECK
 70
     0
  9
$PEXTMIN
 10
1.0000000000000000E+020
 20
1.0000000000000000E+020
 30
1.0000000000000000E+020
  9
$PEXTMAX
 10
-1.0000000000000000E+020
 20
-1.0000000000000000E+020
 30
-1.0000000000000000E+020
  9
$PLIMMIN
 10
0.0
 20
0.0
  9
$PLIMMAX
 10
12.0
 20
9.0
  9
$UNITMODE
 70
     0
  9
$VISRETAIN
 70
     0
  9
$PLINEGEN
 70
     0
  9
$PSLTSCALE
 70
     0
  0
ENDSEC
  0
SECTION
  2
TABLES
  0
TABLE
  2
VPORT
 70
     1
  0
VPORT
  2
*ACTIVE
 70
     0
 10
0.0
 20
0.0
 11
1.0
 21
1.0
 12
93.74713919532617
 22
66.313465060797697
 13
0.0
 23
0.0
 14
5.0
 24
5.0
 15
5.0
 25
5.0
 16
0.0
 26
0.0
 36
1.0
 17
0.0
 27
0.0
 37
0.0
 40
140.15365342376049
 41
2.304913294797688
 42
50.0
 43
0.0
 44
0.0
 50
0.0
 51
0.0
 71
     0
 72
   500
 73
     1
 74
     0
 75
     0
 76
     0
 77
     0
 78
     2
  0
ENDTAB
  0
TABLE
  2
LTYPE
 70
     3
  0
LTYPE
  2
CONTINUOUS
 70
     0
  3
Solid Line
 72
    65
 73
     0
 40
0.0
  0
LTYPE
  2
CENTER
 70
     0
  3
____ _ ____ _ ____ _ ____ _ ____ _ ____ _ ____
 72
    65
 73
     4
 40
2.0
 49
1.25
 49
-0.25
 49
0.25
 49
-0.25
  0
LTYPE
  2
PHANTOM2
 70
     0
  3
___ _ _ ___ _ _ ___ _ _ ___ _ _
 72
    65
 73
     6
 40
1.25
 49
0.625
 49
-0.125
 49
0.125
 49
-0.125
 49
0.125
 49
-0.125
  0
ENDTAB
  0
TABLE
  2
LAYER
 70
     3
  0
LAYER
  2
0
 70
     0
 62
     7
  6
CONTINUOUS
  0
LAYER
  2
1
 70
     0
 62
     1
  6
CENTER
  0
LAYER
  2
3
 70
     0
 62
     3
  6
CONTINUOUS
  0
ENDTAB
  0
TABLE
  2
STYLE
 70
     3
  0
STYLE
  2
STANDARD
 70
     0
 40
0.0
 41
1.0
 50
0.0
 71
     0
 42
2.0000000000000502
  3
TXT
  4
BIGFONT
  0
STYLE
  2
SIM180
 70
     0
 40
0.0
 41
1.8
 50
0.0
 71
     0
 42
0.8
  3
SIMPLEX
  4

  0
STYLE
  2
STANDARD1
 70
     0
 40
0.0
 41
1.0
 50
0.0
 71
     0
 42
3.0
  3
txt
  4

  0
ENDTAB
  0
TABLE
  2
VIEW
 70
     1
  0
VIEW
  2
ALL
 70
     0
 40
175.0
 10
143.23529411764699
 20
87.5
 41
0.0
 11
0.0
 21
0.0
 31
1.0
 12
0.0
 22
0.0
 32
0.0
 42
0.0
 43
0.0
 44
0.0
 50
0.0
 71
     0
  0
ENDTAB
  0
TABLE
  2
UCS
 70
     0
  0
ENDTAB
  0
TABLE
  2
APPID
 70
     3
  0
APPID
  2
ACAD
 70
     0
  0
APPID
  2
ACAD_MLEADERVER
 70
     0
  0
APPID
  2
ACAD_NAV_VCDISPLAY
 70
     0
  0
ENDTAB
  0
TABLE
  2
DIMSTYLE
 70
     1
  0
DIMSTYLE
  2
STANDARD
 70
     0
  3

  4

  5

  6

  7

 40
1.0
 41
0.18
 42
0.0625
 43
0.38
 44
0.18
 45
0.0
 46
0.0
 47
0.0
 48
0.0
140
0.18
141
0.09
142
0.0
143
25.399999999999999
144
1.0
145
0.0
146
1.0
147
0.09
 71
     0
 72
     0
 73
     1
 74
     1
 75
     0
 76
     0
 77
     0
 78
     0
170
     0
171
     2
172
     0
173
     0
174
     0
175
     0
176
     0
177
     0
178
     0
  0
ENDTAB
  0
ENDSEC
  0
SECTION
  2
BLOCKS
  0
BLOCK
  8
0
  2
$MODEL_SPACE
 70
     0
 10
0.0
 20
0.0
 30
0.0
  3
$MODEL_SPACE
  1

  0
ENDBLK
  5
133
  8
0
  0
BLOCK
 67
     1
  8
0
  2
$PAPER_SPACE
 70
     0
 10
0.0
 20
0.0
 30
0.0
  3
$PAPER_SPACE
  1

  0
ENDBLK
  5
131
 67
     1
  8
0
  0
ENDSEC
  0
SECTION
  2
ENTITIES
  0
TEXT
  5
3E
  8
3
 10
42.184062232572579
 20
76.817299258815822
 30
0.0
 40
1.3
  1
A
 50
330.00000000000011
 41
1.8
  7
SIM180
 72
     1
 11
42.956062021088997
 21
76.371584973101534
 31
0.0
  0
TEXT
  5
3F
  8
3
 10
39.790830327608539
 20
77.572468053327896
 30
0.0
 40
1.3
  1
S
 50
345.0
 41
1.8
  7
SIM180
 72
     1
 11
40.54425247211401
 21
77.37058919814794
 31
0.0
  0
TEXT
  5
40
  8
3
 10
37.231776306802892
 20
77.71133093525728
 30
0.0
 40
1.3
  1
E
 50
360.0
 41
1.8
  7
SIM180
 72
     1
 11
37.956062021088613
 21
77.71133093525728
 31
0.0
  0
TEXT
  5
41
  8
3
 10
34.722081160487072
 20
77.197550179422251
 30
0.0
 40
1.3
  1
L
 50
14.99999999999997
 41
1.8
  7
SIM180
 72
     1
 11
35.367871570063187
 21
77.37058919814794
 31
0.0
  0
TEXT
  5
42
  8
3
 10
32.328812192918683
 20
76.009442115958677
 30
0.0
 40
1.3
  1
E
 50
29.999999999999961
 41
1.8
  7
SIM180
 72
     1
 11
32.956062021088272
 21
76.371584973101534
 31
0.0
  0
LINE
  5
43
  8
0
 10
34.203285270243853
 20
71.811330937015185
 30
0.0
 11
35.93533607828256
 21
71.811330936201301
 31
0.0
  0
LINE
  5
44
  8
0
 10
39.976787962610167
 20
71.811330934302106
 30
0.0
 11
41.708838769709189
 21
71.811330933488222
 31
0.0
  0
LINE
  5
45
  8
0
 10
43.440889576808047
 20
71.811330932674224
 30
0.0
 11
45.172940383906969
 21
71.811330931860326
 31
0.0
  0
LINE
  5
46
  8
0
 10
43.729564711324493
 20
69.311330932538652
 30
0.0
 11
45.956062021088599
 21
69.311330931492336
 31
0.0
  0
LINE
  5
47
  8
0
 10
41.131488500676149
 20
67.811330933759493
 30
0.0
 11
44.456062021088663
 21
67.811330932197208
 31
0.0
  0
LINE
  5
48
  8
0
 10
43.729564711324493
 20
69.311330932538652
 30
0.0
 11
45.172940383906969
 21
71.811330931860326
 31
0.0
  0
LINE
  5
49
  8
0
 10
41.131488500676149
 20
67.811330933759436
 30
0.0
 11
43.440889576808047
 21
71.811330932674281
 31
0.0
  0
LINE
  5
4A
  8
0
 10
32.182559327531933
 20
69.311330937964868
 30
0.0
 11
30.739183654166329
 21
71.811330938643124
 31
0.0
  0
LINE
  5
4B
  8
0
 10
34.780635539590158
 20
67.811330936744056
 30
0.0
 11
32.471234462205139
 21
71.811330937829183
 31
0.0
  0
LINE
  5
4C
  8
0
 10
37.20606202108867
 20
69.610369040765335
 30
0.0
 11
35.93533607828261
 21
71.811330936201301
 31
0.0
  0
LINE
  5
4D
  8
0
 10
38.706062021088663
 20
69.610369041090991
 30
0.0
 11
39.976787962610217
 21
71.811330934302163
 31
0.0
  0
LINE
  5
4E
  8
0
 10
38.706062021088663
 20
69.610369041090991
 30
0.0
 11
38.706062021088663
 21
76.211330935251652
 31
0.0
  0
LINE
  5
4F
  8
0
 10
37.20606202108867
 20
69.610369040765335
 30
0.0
 11
37.20606202108867
 21
76.211330935251652
 31
0.0
  0
LINE
  5
50
  8
0
 10
37.9560620209947
 20
65.311330935251689
 30
0.0
 11
41.708838769709139
 21
71.811330933488222
 31
0.0
  0
LINE
  5
51
  8
0
 10
37.956062020994644
 20
65.311330935251689
 30
0.0
 11
34.203285270243853
 21
71.811330937015242
 31
0.0
  0
LINE
  5
52
  8
0
 10
37.20606202108867
 20
76.211330935604138
 30
0.0
 11
38.706062021088663
 21
76.21133093489928
 31
0.0
  0
LINE
  5
53
  8
0
 10
30.739183654166329
 20
71.811330938643124
 30
0.0
 11
32.471234462205139
 21
71.811330937829126
 31
0.0
  0
LINE
  5
54
  8
0
 10
31.456062021088659
 20
62.411330938306193
 30
0.0
 11
31.456062021088659
 21
67.811330938306213
 31
0.0
  0
LINE
  5
55
  8
0
 10
44.456062021088663
 20
62.411330932197117
 30
0.0
 11
44.456062021088663
 21
67.811330932197208
 31
0.0
  0
LINE
  5
56
  8
0
 10
45.956062021088663
 20
60.911330931492373
 30
0.0
 11
45.956062021088663
 21
69.311330931492336
 31
0.0
  0
LINE
  5
57
  8
0
 10
29.95606202108873
 20
60.911330939011172
 30
0.0
 11
29.95606202108867
 21
69.311330939011143
 31
0.0
  0
LINE
  5
58
  8
0
 10
31.456062021088609
 20
67.811330938306284
 30
0.0
 11
34.780635539590207
 21
67.811330936744
 31
0.0
  0
LINE
  5
59
  8
0
 10
29.95606202108867
 20
69.311330939011143
 30
0.0
 11
32.182559327531933
 21
69.311330937964868
 31
0.0
  0
LINE
  5
5A
  8
0
 10
31.456062021088659
 20
62.411330938306193
 30
0.0
 11
44.456062021088663
 21
62.411330932197167
 31
0.0
  0
LINE
  5
5B
  8
0
 10
29.95606202108867
 20
60.911330939011172
 30
0.0
 11
45.956062021088663
 21
60.911330931492373
 31
0.0
  0
CIRCLE
  5
5C
  8
0
 10
158.47264078739781
 20
67.711330935247091
 30
0.0
 40
8.4114755314712966
  0
CIRCLE
  5
5D
  8
0
 10
158.47264078739781
 20
67.711330935247091
 30
0.0
 40
9.25
  0
LINE
  5
5E
  8
1
 10
177.97264078739781
 20
67.71133092608828
 30
0.0
 11
138.97264078739789
 21
67.711330944415337
 31
0.0
  0
LINE
  5
5F
  8
1
 10
158.47264078739781
 20
89.073290880234296
 30
0.0
 11
158.47264078739781
 21
46.349370990273471
 31
0.0
  0
LINE
  5
60
  8
1
 10
37.956062021088663
 20
46.349370990276078
 30
0.0
 11
37.956062021088641
 21
89.073290880243761
 31
0.0
  0
LINE
  5
61
  8
1
 10
18.45606202108856
 20
67.711330944415295
 30
0.0
 11
57.456062021088663
 21
67.711330926088252
 31
0.0
  0
LINE
  5
62
  8
1
 10
112.5
 20
67.711330935251851
 30
0.0
 11
87.499999999999986
 21
67.711330935251851
 31
0.0
  0
LINE
  5
63
  8
3
 10
100.4999999999999
 20
79.769830935251889
 30
0.0
 11
108.0
 21
79.769830935251889
 31
0.0
  0
LINE
  5
64
  8
0
 10
108.0
 20
55.652830935251863
 30
0.0
 11
110.0
 21
55.652830935251863
 31
0.0
  0
LINE
  5
65
  8
0
 10
108.0
 20
54.490830935251829
 30
0.0
 11
108.0
 21
80.931830935251924
 31
0.0
  0
LINE
  5
66
  8
0
 10
90.0
 20
52.461330948279901
 30
0.0
 11
93.225208612060214
 21
49.236122336219687
 31
0.0
  0
LINE
  5
67
  8
0
 10
98.500000000000014
 20
49.236122336219687
 30
0.0
 11
98.499999999999943
 21
86.186539534284009
 31
0.0
  0
LINE
  5
68
  8
0
 10
90.0
 20
52.461330948279901
 30
0.0
 11
90.0
 21
82.961330922231994
 31
0.0
  0
LINE
  5
69
  8
0
 10
110.0
 20
55.652830935251806
 30
0.0
 11
110.0
 21
79.769830935251832
 31
0.0
  0
LINE
  5
6A
  8
0
 10
100.4999999999999
 20
54.490830935251779
 30
0.0
 11
108.0
 21
54.490830935251829
 31
0.0
  0
LINE
  5
6B
  8
3
 10
100.4999999999999
 20
55.652830935251806
 30
0.0
 11
108.0
 21
55.652830935251806
 31
0.0
  0
LINE
  5
6C
  8
0
 10
100.4999999999999
 20
80.931830935251867
 30
0.0
 11
108.0
 21
80.931830935251924
 31
0.0
  0
LINE
  5
6D
  8
0
 10
108.0
 20
79.769830935251832
 30
0.0
 11
110.0
 21
79.769830935251832
 31
0.0
  0
LINE
  5
6E
  8
0
 10
93.225208599030566
 20
58.473726635734231
 30
0.0
 11
98.500000000000014
 21
58.473726635734231
 31
0.0
  0
LINE
  5
6F
  8
0
 10
93.225208612060214
 20
49.236122336219687
 30
0.0
 11
98.500000000000014
 21
49.236122336219687
 31
0.0
  0
LINE
  5
70
  8
0
 10
93.225208612060214
 20
86.186539534284009
 30
0.0
 11
98.499999999999943
 21
86.186539534284009
 31
0.0
  0
LINE
  5
71
  8
0
 10
93.225208599030566
 20
76.948935234769465
 30
0.0
 11
98.500000000000014
 21
76.948935234769465
 31
0.0
  0
LINE
  5
72
  8
0
 10
90.0
 20
82.961330922223794
 30
0.0
 11
93.225208612060214
 21
86.186539534284009
 31
0.0
  0
ARC
  5
73
  8
0
 10
109.2252086832201
 20
67.711330935251738
 30
0.0
 40
18.47520868322021
 50
150.00000015073221
 51
209.9999998492672
  0
ARC
  5
74
  8
0
 10
96.297005387352485
 20
53.854924490309926
 30
0.0
 40
5.5470053873528187
 50
123.6264293422151
 51
213.6264291808333
  0
ARC
  5
75
  8
0
 10
96.297005387352485
 20
81.567737380193762
 30
0.0
 40
5.5470053873528187
 50
146.37357081916679
 51
236.373570657785
  0
LINE
  5
76
  8
1
 10
112.5
 20
114.95843141262409
 30
0.0
 11
87.5
 21
114.95843141262409
 31
0.0
  0
LINE
  5
77
  8
3
 10
100.5
 20
127.0169314126241
 30
0.0
 11
108.0
 21
127.0169314126241
 31
0.0
  0
LINE
  5
78
  8
0
 10
108.0
 20
102.8999314126241
 30
0.0
 11
110.0
 21
102.8999314126241
 31
0.0
  0
LINE
  5
79
  8
0
 10
108.0
 20
101.73793141262411
 30
0.0
 11
108.0
 21
128.17893141262419
 31
0.0
  0
ARC
  5
7A
  8
0
 10
104.9158075872932
 20
106.9584314191344
 30
0.0
 40
14.16580758729301
 50
145.61575270220951
 51
214.38424729779291
  0
ARC
  5
7B
  8
0
 10
104.9158075872932
 20
122.9584314061138
 30
0.0
 40
14.16580758729301
 50
145.61575270220709
 51
214.38424729779049
  0
LINE
  5
7C
  8
0
 10
90.0
 20
130.20843139960419
 30
0.0
 11
90.750000000000014
 21
130.95843139960419
 31
0.0
  0
LINE
  5
7D
  8
0
 10
90.0
 20
99.708431425652179
 30
0.0
 11
90.750000000000014
 21
98.958431425652194
 31
0.0
  0
LINE
  5
7E
  8
0
 10
90.750000000000014
 20
130.95843139960419
 30
0.0
 11
98.500000000000014
 21
130.95843139960431
 31
0.0
  0
LINE
  5
7F
  8
0
 10
98.500000000000014
 20
98.958431425652236
 30
0.0
 11
90.750000000000014
 21
98.958431425652194
 31
0.0
  0
LINE
  5
80
  8
0
 10
98.500000000000014
 20
97.958431412624179
 30
0.0
 11
98.500000000000014
 21
131.95843141262409
 31
0.0
  0
CIRCLE
  5
81
  8
0
 10
37.956062021088663
 20
67.711330935256555
 30
0.0
 40
15.25
  0
CIRCLE
  5
82
  8
0
 10
37.956062021088663
 20
67.711330935256555
 30
0.0
 40
12.5
  0
LINE
  5
83
  8
0
 10
90.0
 20
99.708431425652179
 30
0.0
 11
90.0
 21
130.20843139960419
 31
0.0
  0
LINE
  5
84
  8
0
 10
142.47264080041759
 20
58.473726635727552
 30
0.0
 11
142.47264080041759
 21
61.966768252450748
 31
0.0
  0
LINE
  5
85
  8
0
 10
142.4726408004322
 20
76.948935234766125
 30
0.0
 11
145.49770357695411
 21
78.695456043108564
 31
0.0
  0
LINE
  5
86
  8
0
 10
158.47264078739369
 20
86.186539534271745
 30
0.0
 11
161.4977035639096
 21
84.440018725935374
 31
0.0
  0
LINE
  5
87
  8
0
 10
174.47264077436969
 20
76.94893523475703
 30
0.0
 11
174.47264077436969
 21
73.455893618075976
 31
0.0
  0
LINE
  5
88
  8
0
 10
174.47264077436969
 20
58.473726635729371
 30
0.0
 11
171.4475779978234
 21
56.727205827374441
 31
0.0
  0
LINE
  5
89
  8
0
 10
158.47264078739369
 20
49.236122336223751
 30
0.0
 11
155.44757801085291
 21
50.982643144574467
 31
0.0
  0
LINE
  5
8A
  8
0
 10
37.956062021084563
 20
49.236122336233251
 30
0.0
 11
21.95606202108458
 21
58.473726643264037
 31
0.0
  0
LINE
  5
8B
  8
0
 10
53.956062008060599
 20
58.473726635738892
 30
0.0
 11
37.956062008060599
 21
49.236122328702628
 31
0.0
  0
LINE
  5
8C
  8
0
 10
53.956062008060599
 20
76.948935234766481
 30
0.0
 11
53.956062008060599
 21
58.47372662069948
 31
0.0
  0
LINE
  5
8D
  8
0
 10
37.95606202108457
 20
86.186539534281195
 30
0.0
 11
53.956062021084563
 21
76.948935227250416
 31
0.0
  0
LINE
  5
8E
  8
0
 10
21.956062034123089
 20
76.94893523477559
 30
0.0
 11
37.956062034108541
 21
86.186539541811825
 31
0.0
  0
LINE
  5
8F
  8
0
 10
21.956062034108541
 20
58.473726635737073
 30
0.0
 11
21.956062034108541
 21
76.94893524980408
 31
0.0
  0
LINE
  5
90
  8
0
 10
110.0
 20
102.8999314126241
 30
0.0
 11
110.0
 21
127.0169314126241
 31
0.0
  0
LINE
  5
91
  8
0
 10
100.5
 20
101.73793141262411
 30
0.0
 11
108.0
 21
101.73793141262411
 31
0.0
  0
LINE
  5
92
  8
3
 10
100.5
 20
102.8999314126241
 30
0.0
 11
108.0
 21
102.8999314126241
 31
0.0
  0
LINE
  5
93
  8
0
 10
100.5
 20
128.17893141262411
 30
0.0
 11
108.0
 21
128.17893141262419
 31
0.0
  0
LINE
  5
94
  8
0
 10
108.0
 20
127.0169314126241
 30
0.0
 11
110.0
 21
127.0169314126241
 31
0.0
  0
CIRCLE
  5
95
  8
0
 10
158.47264078739781
 20
67.711330935247091
 30
0.0
 40
13.220499999999999
  0
CIRCLE
  5
96
  8
3
 10
158.47264078739781
 20
67.711330935247091
 30
0.0
 40
12.0585
  0
LINE
  5
97
  8
0
 10
93.225208599030566
 20
114.95843141262409
 30
0.0
 11
98.500000000000014
 21
114.95843141262409
 31
0.0
  0
LINE
  5
98
  8
0
 10
100.5
 20
97.958431412624122
 30
0.0
 11
100.5
 21
131.95843141262409
 31
0.0
  0
LINE
  5
99
  8
0
 10
100.5
 20
131.95843141262409
 30
0.0
 11
98.500000000000014
 21
131.95843141262409
 31
0.0
  0
LINE
  5
9A
  8
0
 10
100.5
 20
97.958431412624122
 30
0.0
 11
98.500000000000014
 21
97.958431412624179
 31
0.0
  0
LINE
  5
9B
  8
0
 10
100.4999999999999
 20
50.71133093525183
 30
0.0
 11
100.4999999999999
 21
84.711330935251837
 31
0.0
  0
LINE
  5
9C
  8
0
 10
100.4999999999999
 20
84.711330935251837
 30
0.0
 11
98.499999999999972
 21
84.711330935251894
 31
0.0
  0
LINE
  5
9D
  8
0
 10
100.4999999999999
 20
50.71133093525183
 30
0.0
 11
98.499999999999972
 21
50.711330935251887
 31
0.0
  0
CIRCLE
  5
9E
  8
0
 10
158.47264078739781
 20
67.711330935251809
 30
0.0
 40
16.999999999999961
  0
LINE
  5
9F
  8
0
 10
155.44757801085251
 20
84.440018725929406
 30
0.0
 11
158.47264080041759
 21
86.186539541802375
 31
0.0
  0
LINE
  5
A0
  8
0
 10
142.47264080041759
 20
73.455893618052855
 30
0.0
 11
142.47264080041759
 21
76.948935249794616
 31
0.0
  0
LINE
  5
A1
  8
0
 10
145.49770357696841
 20
56.727205827378633
 30
0.0
 11
142.47264078739369
 21
58.47372664325453
 31
0.0
  0
LINE
  5
A2
  8
0
 10
161.49770356395669
 20
50.982643144577118
 30
0.0
 11
158.47264077436969
 21
49.236122328693128
 31
0.0
  0
LINE
  5
A3
  8
0
 10
174.47264077436969
 20
61.966768252427642
 30
0.0
 11
174.47264077436969
 21
58.473726620689959
 31
0.0
  0
LINE
  5
A4
  8
0
 10
171.44757799784909
 20
78.695456043099384
 30
0.0
 11
174.47264078739369
 21
76.948935227240966
 31
0.0
  0
ARC
  5
A5
  8
0
 10
37.956062021088641
 20
67.71133093525178
 30
0.0
 40
17.00000000000005
 50
340.25007707441648
 51
19.74992292558353
  0
ARC
  5
A6
  8
0
 10
37.956062021088641
 20
67.71133093525178
 30
0.0
 40
17.00000000000005
 50
40.250077074460819
 51
79.749922925556561
  0
ARC
  5
A7
  8
0
 10
37.956062021088641
 20
67.71133093525178
 30
0.0
 40
17.00000000000005
 50
100.2500770745584
 51
139.74992292549859
  0
ARC
  5
A8
  8
0
 10
37.956062021088641
 20
67.71133093525178
 30
0.0
 40
17.00000000000005
 50
160.25007707449751
 51
199.7499229255024
  0
ARC
  5
A9
  8
0
 10
37.956062021088641
 20
67.71133093525178
 30
0.0
 40
17.00000000000005
 50
220.25007707440719
 51
259.74992292561012
  0
ARC
  5
AA
  8
0
 10
37.956062021088641
 20
67.71133093525178
 30
0.0
 40
17.00000000000005
 50
280.25007707443768
 51
319.74992292557431
  0
LINE
  5
AB
  8
0
 10
100.5
 20
4.9233594701780774
 30
0.0
 11
98.500000000000014
 21
4.9233594701781342
 31
0.0
  0
LINE
  5
AC
  8
0
 10
100.5
 20
38.923359470178077
 30
0.0
 11
98.500000000000014
 21
38.923359470178141
 31
0.0
  0
LINE
  5
AD
  8
0
 10
100.5
 20
4.9233594701780774
 30
0.0
 11
100.5
 21
38.923359470178077
 31
0.0
  0
LINE
  5
AE
  8
0
 10
93.225208599030566
 20
21.923359470178081
 30
0.0
 11
98.500000000000014
 21
21.923359470178081
 31
0.0
  0
LINE
  5
AF
  8
0
 10
108.0
 20
33.981859470178058
 30
0.0
 11
110.0
 21
33.981859470178058
 31
0.0
  0
LINE
  5
B0
  8
0
 10
100.5
 20
35.143859470178121
 30
0.0
 11
108.0
 21
35.14385947017815
 31
0.0
  0
LINE
  5
B1
  8
3
 10
100.5
 20
9.8648594701780397
 30
0.0
 11
108.0
 21
9.8648594701780397
 31
0.0
  0
LINE
  5
B2
  8
0
 10
100.5
 20
8.7028594701780335
 30
0.0
 11
108.0
 21
8.7028594701780602
 31
0.0
  0
LINE
  5
B3
  8
0
 10
110.0
 20
9.8648594701780397
 30
0.0
 11
110.0
 21
33.981859470178058
 31
0.0
  0
LINE
  5
B4
  8
0
 10
90.0
 20
6.6733594832061343
 30
0.0
 11
90.0
 21
37.173359457158213
 31
0.0
  0
LINE
  5
B5
  8
0
 10
98.500000000000014
 20
4.9233594701781342
 30
0.0
 11
98.500000000000014
 21
38.923359470178113
 31
0.0
  0
LINE
  5
B6
  8
0
 10
98.500000000000014
 20
5.9233594832061911
 30
0.0
 11
90.750000000000014
 21
5.9233594832061343
 31
0.0
  0
LINE
  5
B7
  8
0
 10
90.750000000000014
 20
37.923359457158213
 30
0.0
 11
98.500000000000014
 21
37.923359457158263
 31
0.0
  0
LINE
  5
B8
  8
0
 10
90.0
 20
6.6733594832061343
 30
0.0
 11
90.750000000000014
 21
5.9233594832061343
 31
0.0
  0
LINE
  5
B9
  8
0
 10
90.0
 20
37.173359457158213
 30
0.0
 11
90.750000000000014
 21
37.923359457158213
 31
0.0
  0
ARC
  5
BA
  8
0
 10
104.9158075872932
 20
29.923359463667801
 30
0.0
 40
14.16580758729301
 50
145.61575270220709
 51
214.38424729779049
  0
ARC
  5
BB
  8
0
 10
104.9158075872932
 20
13.923359476688351
 30
0.0
 40
14.16580758729301
 50
145.61575270220951
 51
214.38424729779291
  0
LINE
  5
BC
  8
0
 10
108.0
 20
8.7028594701780602
 30
0.0
 11
108.0
 21
35.14385947017815
 31
0.0
  0
LINE
  5
BD
  8
0
 10
108.0
 20
9.8648594701780965
 30
0.0
 11
110.0
 21
9.8648594701780965
 31
0.0
  0
LINE
  5
BE
  8
3
 10
100.5
 20
33.981859470178101
 30
0.0
 11
108.0
 21
33.981859470178108
 31
0.0
  0
LINE
  5
BF
  8
1
 10
112.5
 20
21.923359470178081
 30
0.0
 11
87.5
 21
21.923359470178081
 31
0.0
  0
LINE
  5
C0
  8
1
 10
95.000000007518807
 20
71.221158507703763
 30
0.0
 11
95.000000007518807
 21
64.201503362799912
 31
0.0
  0
POLYLINE
  5
C1
  8
0
 66
     1
 10
0.0
 20
0.0
 30
0.0
 70
     1
  0
VERTEX
  5
C2
  8
0
 10
95.000000007518807
 20
68.711330935251851
 30
0.0
 42
0.0976217071300594
  0
VERTEX
  5
C3
  8
0
 10
94.613089008462879
 20
68.635062270582267
 30
0.0
 42
0.0981268978429881
  0
VERTEX
  5
C4
  8
0
 10
94.285944083208918
 20
68.418437716438405
 30
0.0
 42
0.098849898947075
 70
     2
 50
224.71983967955811
  0
VERTEX
  5
C5
  8
0
 10
94.047964452439786
 20
68.065478574970143
 30
0.0
 42
0.1177437558611763
 50
224.71983967955811
  0
VERTEX
  5
C6
  8
0
 10
93.990172435066896
 20
67.711330935251851
 30
0.0
 42
0.0993672836225739
  0
VERTEX
  5
C7
  8
0
 10
94.066889526815714
 20
67.329114599139814
 30
0.0
 42
0.0988498989470639
  0
VERTEX
  5
C8
  8
0
 10
94.285944083208918
 20
67.004224154065298
 30
0.0
 42
0.0981268978429882
 70
     2
 50
315.28016032044189
  0
VERTEX
  5
C9
  8
0
 10
94.613089008462879
 20
66.787599599921435
 30
0.0
 42
0.0976217071300594
 50
315.28016032044189
  0
VERTEX
  5
CA
  8
0
 10
95.000000007518807
 20
66.711330935251851
 30
0.0
 42
0.0976217071300738
  0
VERTEX
  5
CB
  8
0
 10
95.386911006574749
 20
66.78759959992145
 30
0.0
 42
0.0981268978429931
  0
VERTEX
  5
CC
  8
0
 10
95.714055931828696
 20
67.004224154065298
 30
0.0
 42
0.0988498989470383
 70
     2
 50
44.719839679558071
  0
VERTEX
  5
CD
  8
0
 10
95.933110488221885
 20
67.329114599139757
 30
0.0
 42
0.0993672836225774
 50
44.719839679558071
  0
VERTEX
  5
CE
  8
0
 10
96.009827579970732
 20
67.711330935251851
 30
0.0
 42
0.0993672836225739
  0
VERTEX
  5
CF
  8
0
 10
95.933110488221899
 20
68.093547271363889
 30
0.0
 42
0.0988498989470637
  0
VERTEX
  5
D0
  8
0
 10
95.714055931828696
 20
68.418437716438405
 30
0.0
 42
0.0981268978429683
 70
     2
 50
135.28016032044189
  0
VERTEX
  5
D1
  8
0
 10
95.386911006574763
 20
68.635062270582267
 30
0.0
 42
0.0976217071300524
 50
135.28016032044189
  0
SEQEND
  5
D2
  8
0
  0
TEXT
  5
21F
  8
0
 62
     3
 10
0.0
 20
0.0
 30
0.0
 40
10.0
  1
PN-3/4H
  7
STANDARD1
  0
ENDSEC
  0
EOF
