  0
SECTION
  2
HEADER
  9
$ACADVER
  1
AC1009
  9
$INSBASE
 10
0.0
 20
0.0
 30
0.0
  9
$EXTMIN
 10
0.0
 20
-2.960436562073669
 30
0.0
  9
$EXTMAX
 10
337.6060201019954
 20
238.60161870502051
 30
0.0
  9
$LIMMIN
 10
0.0
 20
0.0
  9
$LIMMAX
 10
375.0
 20
270.0
  9
$ORTHOMODE
 70
     1
  9
$REGENMODE
 70
     1
  9
$FILLMODE
 70
     1
  9
$QTEXTMODE
 70
     0
  9
$MIRRTEXT
 70
     0
  9
$DRAGMODE
 70
     2
  9
$LTSCALE
 40
10.0
  9
$OSMODE
 70
  3071
  9
$ATTMODE
 70
     1
  9
$TEXTSIZE
 40
2.0000000000000502
  9
$TRACEWID
 40
0.05
  9
$TEXTSTYLE
  7
STANDARD
  9
$CLAYER
  8
0
  9
$CELTYPE
  6
BYLAYER
  9
$CECOLOR
 62
   256
  9
$DIMSCALE
 40
1.0
  9
$DIMASZ
 40
3.0
  9
$DIMEXO
 40
2.0
  9
$DIMDLI
 40
0.38
  9
$DIMRND
 40
0.0
  9
$DIMDLE
 40
0.0
  9
$DIMEXE
 40
2.0
  9
$DIMTP
 40
0.0
  9
$DIMTM
 40
0.0
  9
$DIMTXT
 40
3.2000000000000002
  9
$DIMCEN
 40
0.0
  9
$DIMTSZ
 40
0.0
  9
$DIMTOL
 70
     0
  9
$DIMLIM
 70
     0
  9
$DIMTIH
 70
     0
  9
$DIMTOH
 70
     0
  9
$DIMSE1
 70
     0
  9
$DIMSE2
 70
     0
  9
$DIMTAD
 70
     1
  9
$DIMZIN
 70
     0
  9
$DIMBLK
  1

  9
$DIMASO
 70
     1
  9
$DIMSHO
 70
     0
  9
$DIMPOST
  1

  9
$DIMAPOST
  1

  9
$DIMALT
 70
     0
  9
$DIMALTD
 70
     2
  9
$DIMALTF
 40
25.399999999999999
  9
$DIMLFAC
 40
1.0
  9
$DIMTOFL
 70
     1
  9
$DIMTVP
 40
1.6000000000000001
  9
$DIMTIX
 70
     1
  9
$DIMSOXD
 70
     0
  9
$DIMSAH
 70
     0
  9
$DIMBLK1
  1

  9
$DIMBLK2
  1

  9
$DIMSTYLE
  2
STANDARD
  9
$DIMCLRD
 70
     0
  9
$DIMCLRE
 70
     0
  9
$DIMCLRT
 70
     0
  9
$DIMTFAC
 40
1.0
  9
$DIMGAP
 40
0.09
  9
$LUNITS
 70
     2
  9
$LUPREC
 70
     4
  9
$SKETCHINC
 40
0.1
  9
$FILLETRAD
 40
0.0
  9
$AUNITS
 70
     0
  9
$AUPREC
 70
     4
  9
$MENU
  1
E:\r13\win\SUPPORT\ACAD
  9
$ELEVATION
 40
0.0
  9
$PELEVATION
 40
0.0
  9
$THICKNESS
 40
0.0
  9
$LIMCHECK
 70
     0
  9
$BLIPMODE
 70
     0
  9
$CHAMFERA
 40
0.0
  9
$CHAMFERB
 40
0.0
  9
$SKPOLY
 70
     0
  9
$TDCREATE
 40
2449839.795150463
  9
$TDUPDATE
 40
2456597.7234063889
  9
$TDINDWG
 40
0.0002885532
  9
$TDUSRTIMER
 40
0.0002885532
  9
$USRTIMER
 70
     1
  9
$ANGBASE
 50
0.0
  9
$ANGDIR
 70
     0
  9
$PDMODE
 70
     0
  9
$PDSIZE
 40
0.0
  9
$PLINEWID
 40
0.0
  9
$COORDS
 70
     1
  9
$SPLFRAME
 70
     0
  9
$SPLINETYPE
 70
     6
  9
$SPLINESEGS
 70
     8
  9
$ATTDIA
 70
     0
  9
$ATTREQ
 70
     1
  9
$HANDLING
 70
     1
  9
$HANDSEED
  5
2EA
  9
$SURFTAB1
 70
     6
  9
$SURFTAB2
 70
     6
  9
$SURFTYPE
 70
     6
  9
$SURFU
 70
     6
  9
$SURFV
 70
     6
  9
$UCSNAME
  2

  9
$UCSORG
 10
0.0
 20
0.0
 30
0.0
  9
$UCSXDIR
 10
1.0
 20
0.0
 30
0.0
  9
$UCSYDIR
 10
0.0
 20
1.0
 30
0.0
  9
$PUCSNAME
  2

  9
$PUCSORG
 10
0.0
 20
0.0
 30
0.0
  9
$PUCSXDIR
 10
1.0
 20
0.0
 30
0.0
  9
$PUCSYDIR
 10
0.0
 20
1.0
 30
0.0
  9
$USERI1
 70
     0
  9
$USERI2
 70
     1
  9
$USERI3
 70
     1
  9
$USERI4
 70
     0
  9
$USERI5
 70
     0
  9
$USERR1
 40
0.0
  9
$USERR2
 40
0.0
  9
$USERR3
 40
0.0
  9
$USERR4
 40
0.0
  9
$USERR5
 40
0.0
  9
$WORLDVIEW
 70
     1
  9
$SHADEDGE
 70
     3
  9
$SHADEDIF
 70
    70
  9
$TILEMODE
 70
     1
  9
$MAXACTVP
 70
    16
  9
$PLIMCHECK
 70
     0
  9
$PEXTMIN
 10
1.0000000000000000E+020
 20
1.0000000000000000E+020
 30
1.0000000000000000E+020
  9
$PEXTMAX
 10
-1.0000000000000000E+020
 20
-1.0000000000000000E+020
 30
-1.0000000000000000E+020
  9
$PLIMMIN
 10
0.0
 20
0.0
  9
$PLIMMAX
 10
12.0
 20
9.0
  9
$UNITMODE
 70
     0
  9
$VISRETAIN
 70
     0
  9
$PLINEGEN
 70
     0
  9
$PSLTSCALE
 70
     0
  0
ENDSEC
  0
SECTION
  2
TABLES
  0
TABLE
  2
VPORT
 70
     1
  0
VPORT
  2
*ACTIVE
 70
     0
 10
0.0
 20
0.0
 11
1.0
 21
1.0
 12
187.49427839065231
 22
134.10366293909439
 13
0.0
 23
0.0
 14
10.0
 24
10.0
 15
10.0
 25
10.0
 16
0.0
 26
0.0
 36
1.0
 17
0.0
 27
0.0
 37
0.0
 40
277.29405978699532
 41
2.304913294797688
 42
50.0
 43
0.0
 44
0.0
 50
0.0
 51
0.0
 71
     0
 72
   500
 73
     1
 74
     0
 75
     0
 76
     0
 77
     0
 78
     2
  0
ENDTAB
  0
TABLE
  2
LTYPE
 70
     3
  0
LTYPE
  2
CONTINUOUS
 70
     0
  3
Solid Line
 72
    65
 73
     0
 40
0.0
  0
LTYPE
  2
CENTER
 70
     0
  3
____ _ ____ _ ____ _ ____ _ ____ _ ____ _ ____
 72
    65
 73
     4
 40
2.0
 49
1.25
 49
-0.25
 49
0.25
 49
-0.25
  0
LTYPE
  2
PHANTOM2
 70
     0
  3
___ _ _ ___ _ _ ___ _ _ ___ _ _
 72
    65
 73
     6
 40
1.25
 49
0.625
 49
-0.125
 49
0.125
 49
-0.125
 49
0.125
 49
-0.125
  0
ENDTAB
  0
TABLE
  2
LAYER
 70
     3
  0
LAYER
  2
0
 70
     0
 62
     7
  6
CONTINUOUS
  0
LAYER
  2
1
 70
     0
 62
     1
  6
CENTER
  0
LAYER
  2
3
 70
     0
 62
     3
  6
CONTINUOUS
  0
ENDTAB
  0
TABLE
  2
STYLE
 70
     3
  0
STYLE
  2
STANDARD
 70
     0
 40
0.0
 41
1.0
 50
0.0
 71
     0
 42
2.0000000000000502
  3
TXT
  4
BIGFONT
  0
STYLE
  2
SIM180
 70
     0
 40
0.0
 41
1.8
 50
0.0
 71
     0
 42
0.8
  3
SIMPLEX
  4

  0
STYLE
  2
STANDARD1
 70
     0
 40
0.0
 41
1.0
 50
0.0
 71
     0
 42
3.0
  3
txt
  4

  0
ENDTAB
  0
TABLE
  2
VIEW
 70
     1
  0
VIEW
  2
ALL
 70
     0
 40
270.0
 10
220.99159663865549
 20
135.0
 41
0.0
 11
0.0
 21
0.0
 31
1.0
 12
0.0
 22
0.0
 32
0.0
 42
0.0
 43
0.0
 44
0.0
 50
0.0
 71
     0
  0
ENDTAB
  0
TABLE
  2
UCS
 70
     0
  0
ENDTAB
  0
TABLE
  2
APPID
 70
     3
  0
APPID
  2
ACAD
 70
     0
  0
APPID
  2
ACAD_MLEADERVER
 70
     0
  0
APPID
  2
ACAD_NAV_VCDISPLAY
 70
     0
  0
ENDTAB
  0
TABLE
  2
DIMSTYLE
 70
     1
  0
DIMSTYLE
  2
STANDARD
 70
     0
  3

  4

  5

  6

  7

 40
1.0
 41
0.18
 42
0.0625
 43
0.38
 44
0.18
 45
0.0
 46
0.0
 47
0.0
 48
0.0
140
0.18
141
0.09
142
0.0
143
25.399999999999999
144
1.0
145
0.0
146
1.0
147
0.09
 71
     0
 72
     0
 73
     1
 74
     1
 75
     0
 76
     0
 77
     0
 78
     0
170
     0
171
     2
172
     0
173
     0
174
     0
175
     0
176
     0
177
     0
178
     0
  0
ENDTAB
  0
ENDSEC
  0
SECTION
  2
BLOCKS
  0
BLOCK
  8
0
  2
$MODEL_SPACE
 70
     0
 10
0.0
 20
0.0
 30
0.0
  3
$MODEL_SPACE
  1

  0
ENDBLK
  5
131
  8
0
  0
BLOCK
 67
     1
  8
0
  2
$PAPER_SPACE
 70
     0
 10
0.0
 20
0.0
 30
0.0
  3
$PAPER_SPACE
  1

  0
ENDBLK
  5
12F
 67
     1
  8
0
  0
ENDSEC
  0
SECTION
  2
ENTITIES
  0
TEXT
  5
35
  8
3
 10
82.439551516396094
 20
140.7496400814066
 30
0.0
 40
1.8
  1
A
 50
330.00000000000011
 41
1.8
  7
SIM180
 72
     1
 11
83.508474300495763
 21
140.1324972242638
 31
0.0
  0
TEXT
  5
36
  8
3
 10
79.643457235803027
 20
141.58085673627861
 30
0.0
 40
1.8
  1
S
 50
345.0
 41
1.8
  7
SIM180
 72
     1
 11
80.686657128195208
 21
141.30133216756789
 31
0.0
  0
TEXT
  5
37
  8
3
 10
76.655617157638602
 20
141.69999999998569
 30
0.0
 40
1.8
  1
E
 50
360.0
 41
1.8
  7
SIM180
 72
     1
 11
77.65847430049574
 21
141.69999999998569
 31
0.0
  0
TEXT
  5
38
  8
3
 10
73.736120136460087
 20
141.06173968010151
 30
0.0
 40
1.8
  1
L
 50
14.99999999999997
 41
1.8
  7
SIM180
 72
     1
 11
74.630291472796259
 21
141.30133216756781
 31
0.0
  0
TEXT
  5
39
  8
3
 10
70.939974538414802
 20
139.6310686528351
 30
0.0
 40
1.8
  1
E
 50
30.0
 41
1.8
  7
SIM180
 72
     1
 11
71.808474300495774
 21
140.13249722426369
 31
0.0
  0
LINE
  5
3A
  8
0
 10
84.124797315422015
 20
134.99999999998781
 30
0.0
 11
85.972318176829376
 21
134.9999999999888
 31
0.0
  0
LINE
  5
3B
  8
0
 10
81.411251050229893
 20
130.2999999999864
 30
0.0
 11
85.908474300495854
 21
130.2999999999887
 31
0.0
  0
LINE
  5
3C
  8
0
 10
84.182532342340977
 20
131.8999999999879
 30
0.0
 11
87.508474300495763
 21
131.8999999999896
 31
0.0
  0
LINE
  5
3D
  8
0
 10
73.039672146980521
 20
134.99999999998201
 30
0.0
 11
74.887193008386518
 21
134.99999999998289
 31
0.0
  0
LINE
  5
3E
  8
0
 10
80.429755592607293
 20
134.9999999999859
 30
0.0
 11
82.277276454014654
 21
134.99999999998681
 31
0.0
  0
LINE
  5
3F
  8
0
 10
71.134416258655151
 20
131.89999999998111
 30
0.0
 11
69.344630424167846
 21
134.99999999997999
 31
0.0
  0
LINE
  5
40
  8
0
 10
73.905697550764657
 20
130.29999999998239
 30
0.0
 11
71.192151285574184
 21
134.99999999998099
 31
0.0
  0
LINE
  5
41
  8
0
 10
76.858474300495786
 20
131.58564064603991
 30
0.0
 11
74.887193008386575
 21
134.99999999998289
 31
0.0
  0
LINE
  5
42
  8
0
 10
84.182532342340977
 20
131.8999999999879
 30
0.0
 11
85.972318176829376
 21
134.9999999999888
 31
0.0
  0
LINE
  5
43
  8
0
 10
81.411251050229893
 20
130.2999999999864
 30
0.0
 11
84.124797315422015
 21
134.99999999998781
 31
0.0
  0
LINE
  5
44
  8
0
 10
78.458474300495794
 20
131.5856406460388
 30
0.0
 11
80.429755592607293
 21
134.99999999998579
 31
0.0
  0
LINE
  5
45
  8
0
 10
78.458474300495794
 20
131.5856406460388
 30
0.0
 11
78.458474300495752
 21
140.3999999999844
 31
0.0
  0
LINE
  5
46
  8
0
 10
76.858474300495786
 20
131.58564064603991
 30
0.0
 11
76.858474300495729
 21
140.3999999999844
 31
0.0
  0
LINE
  5
47
  8
0
 10
77.658474300496138
 20
126.9999999999843
 30
0.0
 11
82.277276454014697
 21
134.9999999999869
 31
0.0
  0
LINE
  5
48
  8
0
 10
77.658474300496081
 20
126.9999999999843
 30
0.0
 11
73.039672146980465
 21
134.99999999998181
 31
0.0
  0
LINE
  5
49
  8
0
 10
76.858474300495729
 20
140.399999999984
 30
0.0
 11
78.458474300495794
 21
140.3999999999848
 31
0.0
  0
LINE
  5
4A
  8
0
 10
69.344630424167846
 20
134.99999999997999
 30
0.0
 11
71.192151285574241
 21
134.9999999999809
 31
0.0
  0
LINE
  5
4B
  8
0
 10
85.908474300495797
 20
123.1999999999888
 30
0.0
 11
85.908474300495797
 21
130.2999999999887
 31
0.0
  0
LINE
  5
4C
  8
0
 10
69.408474300495968
 20
123.19999999998019
 30
0.0
 11
69.408474300495911
 21
130.29999999998
 31
0.0
  0
LINE
  5
4D
  8
0
 10
87.508474300495763
 20
121.59999999998961
 30
0.0
 11
87.508474300495763
 21
131.8999999999896
 31
0.0
  0
LINE
  5
4E
  8
0
 10
67.808474300495774
 20
121.5999999999793
 30
0.0
 11
67.808474300495774
 21
131.89999999997929
 31
0.0
  0
LINE
  5
4F
  8
0
 10
69.408474300495911
 20
130.29999999998
 30
0.0
 11
73.905697550764714
 21
130.29999999998239
 31
0.0
  0
LINE
  5
50
  8
0
 10
67.808474300495774
 20
131.89999999997929
 30
0.0
 11
71.134416258655151
 21
131.89999999998111
 31
0.0
  0
LINE
  5
51
  8
0
 10
69.408474300495968
 20
123.19999999998019
 30
0.0
 11
85.908474300495797
 21
123.1999999999888
 31
0.0
  0
LINE
  5
52
  8
0
 10
67.808474300495774
 20
121.5999999999793
 30
0.0
 11
87.508474300495763
 21
121.59999999998961
 31
0.0
  0
CIRCLE
  5
53
  8
0
 10
313.60602011745999
 20
129.99999999998661
 30
0.0
 40
12.25
  0
LINE
  5
54
  8
1
 10
313.60602011744447
 20
156.93931021133341
 30
0.0
 11
313.60602011747278
 21
103.0606897886382
 31
0.0
  0
LINE
  5
55
  8
1
 10
101.6584742939546
 20
130.0000000089093
 30
0.0
 11
53.658474324886498
 21
130.0000000089093
 31
0.0
  0
LINE
  5
56
  8
1
 10
205.0
 20
129.99999999998451
 30
0.0
 11
173.0
 21
129.99999999998451
 31
0.0
  0
LINE
  5
57
  8
3
 10
188.99999999999989
 20
114.8544999999846
 30
0.0
 11
198.0
 21
114.8544999999845
 31
0.0
  0
LINE
  5
58
  8
0
 10
198.0
 20
145.14549999998451
 30
0.0
 11
200.0
 21
145.14549999998459
 31
0.0
  0
LINE
  5
59
  8
0
 10
198.0
 20
113.3754999999845
 30
0.0
 11
198.0
 21
146.62449999998449
 31
0.0
  0
LINE
  5
5A
  8
0
 10
178.0
 20
111.7500000154491
 30
0.0
 11
181.68931022681161
 21
108.0606897886375
 31
0.0
  0
LINE
  5
5B
  8
0
 10
187.0
 20
108.0606897886375
 30
0.0
 11
187.0
 21
151.93931021133139
 31
0.0
  0
LINE
  5
5C
  8
0
 10
178.0
 20
111.7500000154491
 30
0.0
 11
178.0
 21
148.2499999845171
 31
0.0
  0
LINE
  5
5D
  8
0
 10
188.99999999999989
 20
113.3754999999845
 30
0.0
 11
198.0
 21
113.3754999999845
 31
0.0
  0
LINE
  5
5E
  8
0
 10
198.0
 20
114.8544999999845
 30
0.0
 11
200.0
 21
114.8544999999844
 31
0.0
  0
LINE
  5
5F
  8
3
 10
188.99999999999989
 20
145.14549999998439
 30
0.0
 11
198.0
 21
145.14549999998451
 31
0.0
  0
LINE
  5
60
  8
0
 10
188.99999999999989
 20
146.62449999998449
 30
0.0
 11
198.0
 21
146.62449999998449
 31
0.0
  0
LINE
  5
61
  8
0
 10
200.0
 20
114.8544999999844
 30
0.0
 11
200.0
 21
145.14549999998451
 31
0.0
  0
LINE
  5
62
  8
0
 10
181.68931021134819
 20
119.03034489430711
 30
0.0
 11
187.0
 21
119.03034489430711
 31
0.0
  0
LINE
  5
63
  8
0
 10
181.68931022681161
 20
108.0606897886375
 30
0.0
 11
187.0
 21
108.0606897886375
 31
0.0
  0
LINE
  5
64
  8
0
 10
181.68931022681161
 20
151.93931021133139
 30
0.0
 11
187.0
 21
151.93931021133139
 31
0.0
  0
LINE
  5
65
  8
0
 10
181.68931021134819
 20
140.96965510566179
 30
0.0
 11
187.0
 21
140.96965510566179
 31
0.0
  0
LINE
  5
66
  8
0
 10
178.0
 20
148.24999998451989
 30
0.0
 11
181.68931022681161
 21
151.93931021133139
 31
0.0
  0
ARC
  5
67
  8
0
 10
200.68931031132769
 20
129.99999999998471
 30
0.0
 40
21.939310311327951
 50
150.0000001507384
 51
209.99999984926279
  0
ARC
  5
68
  8
0
 10
185.33706889748501
 20
113.5455173466143
 30
0.0
 40
6.5870688974851346
 50
123.62642934224
 51
213.62642918075909
  0
ARC
  5
69
  8
0
 10
185.33706889748501
 20
146.4544826533546
 30
0.0
 40
6.5870688974851346
 50
146.373570819241
 51
236.3735706577601
  0
LINE
  5
6A
  8
1
 10
205.0
 20
218.6016187050204
 30
0.0
 11
173.0
 21
218.6016187050204
 31
0.0
  0
LINE
  5
6B
  8
3
 10
188.99999999999989
 20
203.4561187050206
 30
0.0
 11
198.0
 21
203.45611870502049
 31
0.0
  0
LINE
  5
6C
  8
0
 10
198.0
 20
233.74711870502051
 30
0.0
 11
200.0
 21
233.7471187050206
 31
0.0
  0
LINE
  5
6D
  8
0
 10
198.0
 20
201.9771187050205
 30
0.0
 11
198.0
 21
235.2261187050205
 31
0.0
  0
ARC
  5
6E
  8
0
 10
195.5718965099073
 20
228.1016186972864
 30
0.0
 40
16.821896509907202
 50
145.61575270220709
 51
214.38424729779271
  0
ARC
  5
6F
  8
0
 10
195.5718965099073
 20
209.10161871275281
 30
0.0
 40
16.821896509907202
 50
145.61575270220729
 51
214.38424729779291
  0
LINE
  5
70
  8
0
 10
178.0
 20
236.85161868955311
 30
0.0
 11
178.75
 21
237.60161868955311
 31
0.0
  0
LINE
  5
71
  8
0
 10
178.0
 20
200.35161872048499
 30
0.0
 11
178.75
 21
199.60161872048499
 31
0.0
  0
LINE
  5
72
  8
0
 10
178.75
 20
237.60161868955311
 30
0.0
 11
187.0
 21
237.60161868955311
 31
0.0
  0
LINE
  5
73
  8
0
 10
187.0
 20
199.60161872048499
 30
0.0
 11
178.75
 21
199.60161872048499
 31
0.0
  0
LINE
  5
74
  8
0
 10
187.0
 20
198.6016187050204
 30
0.0
 11
186.99999999999989
 21
238.6016187050204
 31
0.0
  0
CIRCLE
  5
75
  8
0
 10
77.658474309419177
 20
130.0000000089093
 30
0.0
 40
18.25
  0
CIRCLE
  5
76
  8
0
 10
77.658474309419177
 20
130.0000000089093
 30
0.0
 40
16.0
  0
LINE
  5
77
  8
0
 10
178.0
 20
200.35161872048499
 30
0.0
 11
178.0
 21
236.85161868955311
 31
0.0
  0
LINE
  5
78
  8
0
 10
294.60602013292731
 20
119.03034489430701
 30
0.0
 11
294.60602013292731
 21
123.7550019920303
 31
0.0
  0
LINE
  5
79
  8
0
 10
294.60602013294459
 20
140.96965510566531
 30
0.0
 11
298.69769317949567
 21
143.33198364053021
 31
0.0
  0
LINE
  5
7A
  8
0
 10
313.6060201174613
 20
151.93931021132821
 30
0.0
 11
332.6060201174613
 21
140.9696550967291
 31
0.0
  0
LINE
  5
7B
  8
0
 10
332.6060201019954
 20
140.9696551056544
 30
0.0
 11
332.6060201019954
 21
136.2449980257731
 31
0.0
  0
LINE
  5
7C
  8
0
 10
332.6060201019954
 20
119.0303448943091
 30
0.0
 11
328.51434702241221
 21
116.6680163403753
 31
0.0
  0
LINE
  5
7D
  8
0
 10
313.6060201174613
 20
108.0606897886462
 30
0.0
 11
309.5143470301835
 21
110.4230183470212
 31
0.0
  0
LINE
  5
7E
  8
0
 10
77.658474309420541
 20
108.060689797569
 30
0.0
 11
58.658474309420541
 21
119.0303449121681
 31
0.0
  0
LINE
  5
7F
  8
0
 10
96.658474293954527
 20
119.03034490323201
 30
0.0
 11
77.658474293954583
 21
108.06068978862641
 31
0.0
  0
LINE
  5
80
  8
0
 10
96.658474293954527
 20
140.96965511457731
 30
0.0
 11
96.658474293954527
 21
119.0303448853727
 31
0.0
  0
LINE
  5
81
  8
0
 10
77.658474309420541
 20
151.939310220251
 30
0.0
 11
96.658474309420484
 21
140.9696551056519
 31
0.0
  0
LINE
  5
82
  8
0
 10
58.658474324903793
 20
140.96965511458811
 30
0.0
 11
77.658474324886498
 21
151.93931022919361
 31
0.0
  0
LINE
  5
83
  8
0
 10
58.658474324886498
 20
119.0303449032298
 30
0.0
 11
58.658474324886498
 21
140.96965513243441
 31
0.0
  0
LINE
  5
84
  8
0
 10
188.99999999999989
 20
201.9771187050205
 30
0.0
 11
198.0
 21
201.9771187050205
 31
0.0
  0
LINE
  5
85
  8
0
 10
198.0
 20
203.45611870502049
 30
0.0
 11
200.0
 21
203.4561187050204
 31
0.0
  0
LINE
  5
86
  8
3
 10
188.99999999999989
 20
233.7471187050204
 30
0.0
 11
198.0
 21
233.7471187050204
 31
0.0
  0
LINE
  5
87
  8
0
 10
188.99999999999989
 20
235.2261187050205
 30
0.0
 11
198.0
 21
235.2261187050205
 31
0.0
  0
LINE
  5
88
  8
0
 10
200.0
 20
203.4561187050204
 30
0.0
 11
200.0
 21
233.7471187050204
 31
0.0
  0
CIRCLE
  5
89
  8
0
 10
313.60602011745999
 20
129.99999999998661
 30
0.0
 40
16.624500000000001
  0
CIRCLE
  5
8A
  8
3
 10
313.60602011745999
 20
129.99999999998661
 30
0.0
 40
15.1455
  0
LINE
  5
8B
  8
0
 10
181.6893102113483
 20
218.6016187050204
 30
0.0
 11
187.0
 21
218.6016187050204
 31
0.0
  0
LINE
  5
95
  8
0
 10
188.99999999999989
 20
198.6016187050204
 30
0.0
 11
188.99999999999989
 21
238.6016187050204
 31
0.0
  0
LINE
  5
96
  8
0
 10
188.99999999999989
 20
238.60161870502051
 30
0.0
 11
186.99999999999989
 21
238.60161870502051
 31
0.0
  0
LINE
  5
97
  8
0
 10
188.99999999999989
 20
198.60161870502029
 30
0.0
 11
186.99999999999989
 21
198.6016187050204
 31
0.0
  0
LINE
  5
98
  8
0
 10
188.99999999999989
 20
109.9999999999844
 30
0.0
 11
186.99999999999989
 21
109.9999999999844
 31
0.0
  0
LINE
  5
99
  8
0
 10
188.99999999999989
 20
109.9999999999844
 30
0.0
 11
188.99999999999989
 21
149.9999999999844
 31
0.0
  0
LINE
  5
9A
  8
0
 10
188.99999999999989
 20
149.99999999998451
 30
0.0
 11
186.99999999999989
 21
149.99999999998451
 31
0.0
  0
LINE
  5
9B
  8
1
 10
289.60602013292731
 20
130.0000000089093
 30
0.0
 11
337.6060201019954
 21
130.0000000089093
 31
0.0
  0
CIRCLE
  5
9C
  8
0
 10
313.60602011745863
 20
130.0000000089093
 30
0.0
 40
19.999999991075239
  0
LINE
  5
9D
  8
0
 10
309.51434707859858
 20
149.57698168091551
 30
0.0
 11
313.60602013292731
 21
151.93931022027081
 31
0.0
  0
LINE
  5
9E
  8
0
 10
294.60602013292731
 20
136.24499802578831
 30
0.0
 11
294.60602013292731
 21
140.96965512351159
 31
0.0
  0
LINE
  5
9F
  8
0
 10
298.69769321248299
 20
116.6680163403993
 30
0.0
 11
294.6060201174613
 21
119.03034490324529
 31
0.0
  0
LINE
  5
A0
  8
0
 10
317.69769320477559
 20
110.42301834703029
 30
0.0
 11
313.6060201019954
 21
108.06068977970359
 31
0.0
  0
LINE
  5
A1
  8
0
 10
332.6060201019954
 20
123.75500199204539
 30
0.0
 11
332.6060201019954
 21
119.0303448764499
 31
0.0
  0
LINE
  5
A2
  8
1
 10
77.658474300495726
 20
106.0000000243914
 30
0.0
 11
77.658474300495726
 21
153.99999999345951
 31
0.0
  0
ARC
  5
A3
  8
0
 10
77.658474300495755
 20
130.0000000089093
 30
0.0
 40
19.999999991075178
 50
101.8051275562258
 51
138.19487244383129
  0
ARC
  5
A4
  8
0
 10
77.658474300495755
 20
130.0000000089093
 30
0.0
 40
19.999999991075178
 50
41.805127638046173
 51
78.194872361971179
  0
ARC
  5
A5
  8
0
 10
77.658474300495755
 20
130.0000000089093
 30
0.0
 40
19.999999991075178
 50
341.8051276790074
 51
18.19487232099257
  0
ARC
  5
A6
  8
0
 10
77.658474300495755
 20
130.0000000089093
 30
0.0
 40
19.999999991075178
 50
281.80512763811282
 51
318.19487236189929
  0
ARC
  5
A7
  8
0
 10
77.658474300495755
 20
130.0000000089093
 30
0.0
 40
19.999999991075178
 50
221.8051275561516
 51
258.19487244386568
  0
ARC
  5
A8
  8
0
 10
77.658474300495755
 20
130.0000000089093
 30
0.0
 40
19.999999991075178
 50
161.80512751524611
 51
198.19487248475389
  0
LINE
  5
A9
  8
0
 10
188.99999999999989
 20
61.398381294948621
 30
0.0
 11
186.99999999999989
 21
61.398381294948557
 31
0.0
  0
LINE
  5
AA
  8
0
 10
188.99999999999989
 20
21.398381294948511
 30
0.0
 11
186.99999999999989
 21
21.398381294948511
 31
0.0
  0
LINE
  5
AB
  8
0
 10
188.99999999999989
 20
61.398381294948557
 30
0.0
 11
188.99999999999989
 21
21.39838129494856
 31
0.0
  0
LINE
  5
AC
  8
0
 10
181.6893102113483
 20
41.398381294948543
 30
0.0
 11
187.0
 21
41.398381294948543
 31
0.0
  0
LINE
  5
AD
  8
0
 10
200.0
 20
56.543881294948562
 30
0.0
 11
200.0
 21
26.252881294948509
 31
0.0
  0
LINE
  5
AE
  8
0
 10
188.99999999999989
 20
24.773881294948499
 30
0.0
 11
198.0
 21
24.77388129494847
 31
0.0
  0
LINE
  5
AF
  8
3
 10
188.99999999999989
 20
26.252881294948509
 30
0.0
 11
198.0
 21
26.252881294948509
 31
0.0
  0
LINE
  5
B0
  8
0
 10
198.0
 20
56.543881294948513
 30
0.0
 11
200.0
 21
56.543881294948562
 31
0.0
  0
LINE
  5
B1
  8
0
 10
188.99999999999989
 20
58.02288129494849
 30
0.0
 11
198.0
 21
58.02288129494849
 31
0.0
  0
LINE
  5
B2
  8
0
 10
178.0
 20
59.648381279483942
 30
0.0
 11
178.0
 21
23.148381310415861
 31
0.0
  0
LINE
  5
B3
  8
0
 10
187.0
 20
61.398381294948557
 30
0.0
 11
186.99999999999989
 21
21.398381294948539
 31
0.0
  0
LINE
  5
B4
  8
0
 10
187.0
 20
60.398381279483942
 30
0.0
 11
178.75
 21
60.398381279483942
 31
0.0
  0
LINE
  5
B5
  8
0
 10
178.75
 20
22.398381310415861
 30
0.0
 11
187.0
 21
22.398381310415861
 31
0.0
  0
LINE
  5
B6
  8
0
 10
178.0
 20
59.648381279483942
 30
0.0
 11
178.75
 21
60.398381279483942
 31
0.0
  0
LINE
  5
B7
  8
0
 10
178.0
 20
23.148381310415861
 30
0.0
 11
178.75
 21
22.398381310415861
 31
0.0
  0
ARC
  5
B8
  8
0
 10
195.5718965099073
 20
50.898381287216182
 30
0.0
 40
16.821896509907202
 50
145.615752702207
 51
214.3842472977926
  0
ARC
  5
B9
  8
0
 10
195.5718965099073
 20
31.898381302682601
 30
0.0
 40
16.821896509907202
 50
145.61575270220729
 51
214.38424729779291
  0
LINE
  5
BA
  8
0
 10
198.0
 20
58.02288129494849
 30
0.0
 11
198.0
 21
24.77388129494847
 31
0.0
  0
LINE
  5
BB
  8
0
 10
198.0
 20
26.252881294948448
 30
0.0
 11
200.0
 21
26.252881294948399
 31
0.0
  0
LINE
  5
BC
  8
3
 10
188.99999999999989
 20
56.543881294948392
 30
0.0
 11
198.0
 21
56.543881294948449
 31
0.0
  0
LINE
  5
BD
  8
1
 10
205.0
 20
41.398381294948543
 30
0.0
 11
173.0
 21
41.398381294948543
 31
0.0
  0
POLYLINE
  5
BE
  8
0
 66
     1
 10
0.0
 20
0.0
 30
0.0
 70
     1
  0
VERTEX
  5
BF
  8
0
 10
185.00982757251541
 20
129.99999999998451
 30
0.0
 42
0.099367282826149
  0
VERTEX
  5
C0
  8
0
 10
184.93311048062361
 20
130.38221633993339
 30
0.0
 42
0.0988498986249341
  0
VERTEX
  5
C1
  8
0
 10
184.71405592435471
 20
130.70710678748179
 30
0.0
 42
0.0981268981759647
 70
     2
 50
135.28016006658859
  0
VERTEX
  5
C2
  8
0
 10
184.3582978045946
 20
130.94267805500971
 30
0.0
 42
0.1158205923368962
 50
135.28016006658859
  0
VERTEX
  5
C3
  8
0
 10
183.9999999999996
 20
131.0000000089093
 30
0.0
 42
0.0976217079153073
  0
VERTEX
  5
C4
  8
0
 10
183.6130890013398
 20
130.92373134369251
 30
0.0
 42
0.0981268981759513
  0
VERTEX
  5
C5
  8
0
 10
183.28594407564449
 20
130.70710678748179
 30
0.0
 42
0.0988498986249954
 70
     2
 50
224.71983993341129
  0
VERTEX
  5
C6
  8
0
 10
183.06688951937559
 20
130.38221633993331
 30
0.0
 42
0.0993672828261707
 50
224.71983993341129
  0
VERTEX
  5
C7
  8
0
 10
182.9901724274838
 20
129.99999999998451
 30
0.0
 42
0.0993672828261347
  0
VERTEX
  5
C8
  8
0
 10
183.06688951937551
 20
129.6177836600358
 30
0.0
 42
0.0988498986250369
  0
VERTEX
  5
C9
  8
0
 10
183.28594407564449
 20
129.29289321248709
 30
0.0
 42
0.0981268981758604
 70
     2
 50
315.28016006658868
  0
VERTEX
  5
CA
  8
0
 10
183.61308900133969
 20
129.0762686562764
 30
0.0
 42
0.0976217079152505
 50
315.28016006658868
  0
VERTEX
  5
CB
  8
0
 10
183.9999999999996
 20
128.99999999105961
 30
0.0
 42
0.0976217079153144
  0
VERTEX
  5
CC
  8
0
 10
184.38691099865929
 20
129.0762686562764
 30
0.0
 42
0.0981268981759714
  0
VERTEX
  5
CD
  8
0
 10
184.71405592435471
 20
129.29289321248709
 30
0.0
 42
0.0988498986249651
 70
     2
 50
44.719839933411322
  0
VERTEX
  5
CE
  8
0
 10
184.93311048062361
 20
129.6177836600356
 30
0.0
 42
0.0993672828261346
 50
44.719839933411322
  0
SEQEND
  5
CF
  8
0
  0
LINE
  5
D0
  8
1
 10
184.0193387585845
 20
133.50183876091131
 30
0.0
 11
184.0193387585845
 21
126.5000531217263
 31
0.0
  0
TEXT
  5
255
  8
0
 62
     3
 10
0.0
 20
0.0
 30
0.0
 40
10.0
  1
PN-1H
  7
STANDARD1
  0
ENDSEC
  0
EOF
