  0
SECTION
  2
HEADER
  9
$ACADVER
  1
AC1009
  9
$INSBASE
 10
0.0
 20
0.0
 30
0.0
  9
$EXTMIN
 10
0.0
 20
-2.960436562073669
 30
0.0
  9
$EXTMAX
 10
165.61927179111041
 20
124.10263417006691
 30
0.0
  9
$LIMMIN
 10
0.0
 20
0.0
  9
$LIMMAX
 10
187.5
 20
135.0
  9
$ORTHOMODE
 70
     1
  9
$REGENMODE
 70
     1
  9
$FILLMODE
 70
     1
  9
$QTEXTMODE
 70
     0
  9
$MIRRTEXT
 70
     0
  9
$DRAGMODE
 70
     2
  9
$LTSCALE
 40
5.0
  9
$OSMODE
 70
  3071
  9
$ATTMODE
 70
     1
  9
$TEXTSIZE
 40
2.0000000000000502
  9
$TRACEWID
 40
0.05
  9
$TEXTSTYLE
  7
STANDARD
  9
$CLAYER
  8
0
  9
$CELTYPE
  6
BYLAYER
  9
$CECOLOR
 62
   256
  9
$DIMSCALE
 40
0.5
  9
$DIMASZ
 40
3.0
  9
$DIMEXO
 40
2.0
  9
$DIMDLI
 40
0.38
  9
$DIMRND
 40
0.0
  9
$DIMDLE
 40
0.0
  9
$DIMEXE
 40
2.0
  9
$DIMTP
 40
0.0
  9
$DIMTM
 40
0.0
  9
$DIMTXT
 40
3.2000000000000002
  9
$DIMCEN
 40
0.0
  9
$DIMTSZ
 40
0.0
  9
$DIMTOL
 70
     0
  9
$DIMLIM
 70
     0
  9
$DIMTIH
 70
     0
  9
$DIMTOH
 70
     0
  9
$DIMSE1
 70
     0
  9
$DIMSE2
 70
     0
  9
$DIMTAD
 70
     1
  9
$DIMZIN
 70
     0
  9
$DIMBLK
  1

  9
$DIMASO
 70
     1
  9
$DIMSHO
 70
     0
  9
$DIMPOST
  1

  9
$DIMAPOST
  1

  9
$DIMALT
 70
     0
  9
$DIMALTD
 70
     2
  9
$DIMALTF
 40
25.399999999999999
  9
$DIMLFAC
 40
1.0
  9
$DIMTOFL
 70
     1
  9
$DIMTVP
 40
1.6000000000000001
  9
$DIMTIX
 70
     1
  9
$DIMSOXD
 70
     0
  9
$DIMSAH
 70
     0
  9
$DIMBLK1
  1

  9
$DIMBLK2
  1

  9
$DIMSTYLE
  2
STANDARD
  9
$DIMCLRD
 70
     0
  9
$DIMCLRE
 70
     0
  9
$DIMCLRT
 70
     0
  9
$DIMTFAC
 40
1.0
  9
$DIMGAP
 40
0.09
  9
$LUNITS
 70
     2
  9
$LUPREC
 70
     4
  9
$SKETCHINC
 40
0.1
  9
$FILLETRAD
 40
0.0
  9
$AUNITS
 70
     0
  9
$AUPREC
 70
     4
  9
$MENU
  1
E:\r13\win\SUPPORT\ACAD
  9
$ELEVATION
 40
0.0
  9
$PELEVATION
 40
0.0
  9
$THICKNESS
 40
0.0
  9
$LIMCHECK
 70
     0
  9
$BLIPMODE
 70
     0
  9
$CHAMFERA
 40
0.0
  9
$CHAMFERB
 40
0.0
  9
$SKPOLY
 70
     0
  9
$TDCREATE
 40
2451607.470134838
  9
$TDUPDATE
 40
2456597.7234657528
  9
$TDINDWG
 40
0.0001622106
  9
$TDUSRTIMER
 40
0.0001622106
  9
$USRTIMER
 70
     1
  9
$ANGBASE
 50
0.0
  9
$ANGDIR
 70
     0
  9
$PDMODE
 70
     0
  9
$PDSIZE
 40
0.0
  9
$PLINEWID
 40
0.0
  9
$COORDS
 70
     1
  9
$SPLFRAME
 70
     0
  9
$SPLINETYPE
 70
     6
  9
$SPLINESEGS
 70
     8
  9
$ATTDIA
 70
     0
  9
$ATTREQ
 70
     1
  9
$HANDLING
 70
     1
  9
$HANDSEED
  5
423
  9
$SURFTAB1
 70
     6
  9
$SURFTAB2
 70
     6
  9
$SURFTYPE
 70
     6
  9
$SURFU
 70
     6
  9
$SURFV
 70
     6
  9
$UCSNAME
  2

  9
$UCSORG
 10
0.0
 20
0.0
 30
0.0
  9
$UCSXDIR
 10
1.0
 20
0.0
 30
0.0
  9
$UCSYDIR
 10
0.0
 20
1.0
 30
0.0
  9
$PUCSNAME
  2

  9
$PUCSORG
 10
0.0
 20
0.0
 30
0.0
  9
$PUCSXDIR
 10
1.0
 20
0.0
 30
0.0
  9
$PUCSYDIR
 10
0.0
 20
1.0
 30
0.0
  9
$USERI1
 70
     0
  9
$USERI2
 70
     1
  9
$USERI3
 70
     1
  9
$USERI4
 70
     0
  9
$USERI5
 70
     0
  9
$USERR1
 40
0.0
  9
$USERR2
 40
0.0
  9
$USERR3
 40
0.0
  9
$USERR4
 40
0.0
  9
$USERR5
 40
0.0
  9
$WORLDVIEW
 70
     1
  9
$SHADEDGE
 70
     3
  9
$SHADEDIF
 70
    70
  9
$TILEMODE
 70
     1
  9
$MAXACTVP
 70
    16
  9
$PLIMCHECK
 70
     0
  9
$PEXTMIN
 10
1.0000000000000000E+020
 20
1.0000000000000000E+020
 30
1.0000000000000000E+020
  9
$PEXTMAX
 10
-1.0000000000000000E+020
 20
-1.0000000000000000E+020
 30
-1.0000000000000000E+020
  9
$PLIMMIN
 10
0.0
 20
0.0
  9
$PLIMMAX
 10
12.0
 20
9.0
  9
$UNITMODE
 70
     0
  9
$VISRETAIN
 70
     0
  9
$PLINEGEN
 70
     0
  9
$PSLTSCALE
 70
     0
  0
ENDSEC
  0
SECTION
  2
TABLES
  0
TABLE
  2
VPORT
 70
     1
  0
VPORT
  2
*ACTIVE
 70
     0
 10
0.0
 20
0.0
 11
1.0
 21
1.0
 12
93.74713919532617
 22
66.313465060797697
 13
0.0
 23
0.0
 14
5.0
 24
5.0
 15
5.0
 25
5.0
 16
0.0
 26
0.0
 36
1.0
 17
0.0
 27
0.0
 37
0.0
 40
140.15365342376049
 41
2.304913294797688
 42
50.0
 43
0.0
 44
0.0
 50
0.0
 51
0.0
 71
     0
 72
   500
 73
     1
 74
     0
 75
     0
 76
     0
 77
     0
 78
     2
  0
ENDTAB
  0
TABLE
  2
LTYPE
 70
     3
  0
LTYPE
  2
CONTINUOUS
 70
     0
  3
Solid Line
 72
    65
 73
     0
 40
0.0
  0
LTYPE
  2
CENTER
 70
     0
  3
____ _ ____ _ ____ _ ____ _ ____ _ ____ _ ____
 72
    65
 73
     4
 40
2.0
 49
1.25
 49
-0.25
 49
0.25
 49
-0.25
  0
LTYPE
  2
PHANTOM2
 70
     0
  3
___ _ _ ___ _ _ ___ _ _ ___ _ _
 72
    65
 73
     6
 40
1.25
 49
0.625
 49
-0.125
 49
0.125
 49
-0.125
 49
0.125
 49
-0.125
  0
ENDTAB
  0
TABLE
  2
LAYER
 70
     3
  0
LAYER
  2
0
 70
     0
 62
     7
  6
CONTINUOUS
  0
LAYER
  2
1
 70
     0
 62
     1
  6
CENTER
  0
LAYER
  2
3
 70
     0
 62
     3
  6
CONTINUOUS
  0
ENDTAB
  0
TABLE
  2
STYLE
 70
     3
  0
STYLE
  2
STANDARD
 70
     0
 40
0.0
 41
1.0
 50
0.0
 71
     0
 42
2.0000000000000502
  3
TXT
  4
BIGFONT
  0
STYLE
  2
SIM180
 70
     0
 40
0.0
 41
1.8
 50
0.0
 71
     0
 42
0.8
  3
SIMPLEX
  4

  0
STYLE
  2
STANDARD1
 70
     0
 40
0.0
 41
1.0
 50
0.0
 71
     0
 42
3.0
  3
txt
  4

  0
ENDTAB
  0
TABLE
  2
VIEW
 70
     1
  0
VIEW
  2
ALL
 70
     0
 40
175.0
 10
143.23529411764699
 20
87.5
 41
0.0
 11
0.0
 21
0.0
 31
1.0
 12
0.0
 22
0.0
 32
0.0
 42
0.0
 43
0.0
 44
0.0
 50
0.0
 71
     0
  0
ENDTAB
  0
TABLE
  2
UCS
 70
     0
  0
ENDTAB
  0
TABLE
  2
APPID
 70
     3
  0
APPID
  2
ACAD
 70
     0
  0
APPID
  2
ACAD_MLEADERVER
 70
     0
  0
APPID
  2
ACAD_NAV_VCDISPLAY
 70
     0
  0
ENDTAB
  0
TABLE
  2
DIMSTYLE
 70
     1
  0
DIMSTYLE
  2
STANDARD
 70
     0
  3

  4

  5

  6

  7

 40
1.0
 41
0.18
 42
0.0625
 43
0.38
 44
0.18
 45
0.0
 46
0.0
 47
0.0
 48
0.0
140
0.18
141
0.09
142
0.0
143
25.399999999999999
144
1.0
145
0.0
146
1.0
147
0.09
 71
     0
 72
     0
 73
     1
 74
     1
 75
     0
 76
     0
 77
     0
 78
     0
170
     0
171
     2
172
     0
173
     0
174
     0
175
     0
176
     0
177
     0
178
     0
  0
ENDTAB
  0
ENDSEC
  0
SECTION
  2
BLOCKS
  0
BLOCK
  8
0
  2
$MODEL_SPACE
 70
     0
 10
0.0
 20
0.0
 30
0.0
  3
$MODEL_SPACE
  1

  0
ENDBLK
  5
2A2
  8
0
  0
BLOCK
 67
     1
  8
0
  2
$PAPER_SPACE
 70
     0
 10
0.0
 20
0.0
 30
0.0
  3
$PAPER_SPACE
  1

  0
ENDBLK
  5
2A0
 67
     1
  8
0
  0
ENDSEC
  0
SECTION
  2
ENTITIES
  0
LINE
  5
1B9
  8
0
 10
90.719655113407825
 20
80.969655105680857
 30
0.0
 11
95.999999999999986
 21
80.969655105680914
 31
0.0
  0
LINE
  5
1BA
  8
0
 10
90.719655105673482
 20
75.484827552839334
 30
0.0
 11
95.999999999999986
 21
75.484827552839334
 31
0.0
  0
LINE
  5
1BB
  8
0
 10
90.719655113407825
 20
59.030344894319249
 30
0.0
 11
95.999999999999986
 21
59.030344894319249
 31
0.0
  0
LINE
  5
1BC
  8
0
 10
90.719655105673482
 20
64.515172447160779
 30
0.0
 11
95.999999999999986
 21
64.515172447160779
 31
0.0
  0
LINE
  5
1BD
  8
1
 10
107.4999999999999
 20
70.000000000000028
 30
0.0
 11
86.499999999999929
 21
70.000000000000028
 31
0.0
  0
LINE
  5
1BE
  8
0
 10
89.250000000000014
 20
124.10263417006691
 30
0.0
 11
96.000000000000028
 21
124.10263417006691
 31
0.0
  0
LINE
  5
1BF
  8
0
 10
90.719655105673866
 20
114.6026341778057
 30
0.0
 11
96.000000000000028
 21
114.6026341778057
 31
0.0
  0
LINE
  5
1C0
  8
0
 10
96.000000000000028
 20
105.10263418553281
 30
0.0
 11
89.249999999999972
 21
105.10263418553281
 31
0.0
  0
LINE
  5
1C1
  8
1
 10
107.5
 20
114.6026341778058
 30
0.0
 11
86.5
 21
114.6026341778058
 31
0.0
  0
LINE
  5
1C2
  8
0
 10
89.250000000000014
 20
37.987526256397821
 30
0.0
 11
96.000000000000028
 21
37.987526256397821
 31
0.0
  0
LINE
  5
1C3
  8
0
 10
90.719655105673866
 20
28.48752626413669
 30
0.0
 11
96.000000000000028
 21
28.48752626413669
 31
0.0
  0
LINE
  5
1C4
  8
0
 10
96.000000000000028
 20
18.98752627186375
 30
0.0
 11
89.249999999999972
 21
18.987526271863771
 31
0.0
  0
LINE
  5
1C5
  8
1
 10
107.5
 20
28.487526264136719
 30
0.0
 11
86.5
 21
28.487526264136761
 31
0.0
  0
ARC
  5
1C8
  8
0
 10
100.2196551556697
 20
70.000000000000142
 30
0.0
 40
10.969655155669949
 50
150.0000001507527
 51
209.9999998492481
  0
LINE
  5
1C9
  8
0
 10
88.999999999999986
 20
60.750000007727103
 30
0.0
 11
88.999999999999986
 21
79.249999992261124
 31
0.0
  0
LINE
  5
1CA
  8
0
 10
38.328929055578961
 20
75.250000000000043
 30
0.0
 11
43.528929055578949
 21
75.250000000000043
 31
0.0
  0
LINE
  5
1CB
  8
0
 10
41.028929055578949
 20
70.499999999295156
 30
0.0
 11
35.22700526009524
 21
70.499999999295156
 31
0.0
  0
LINE
  5
1CC
  8
0
 10
39.528929055578949
 20
72.450000000000045
 30
0.0
 11
37.328929053666293
 21
71.179829406678564
 31
0.0
  0
LINE
  5
1CD
  8
0
 10
38.328929055578961
 20
64.749999996240646
 30
0.0
 11
43.528929055578949
 21
64.749999996240646
 31
0.0
  0
LINE
  5
1CE
  8
0
 10
39.528929055578949
 20
67.549999996240643
 30
0.0
 11
37.328929053666293
 21
68.82017058956211
 31
0.0
  0
LINE
  5
1CF
  8
0
 10
41.028929055578949
 20
69.499999996945533
 30
0.0
 11
35.22700526009524
 21
69.499999996945533
 31
0.0
  0
LINE
  5
1D0
  8
0
 10
49.02892904784359
 20
75.484827552836904
 30
0.0
 11
49.02892904784359
 21
64.515172438234615
 31
0.0
  0
LINE
  5
1D1
  8
0
 10
30.028929063309612
 20
64.515172447163181
 30
0.0
 11
30.028929063309612
 21
75.484827561765471
 31
0.0
  0
CIRCLE
  5
1D2
  8
0
 10
39.528929055578949
 20
70.000000000000043
 30
0.0
 40
7.5
  0
CIRCLE
  5
1D3
  8
0
 10
39.528929055578949
 20
70.000000000000099
 30
0.0
 40
9.25
  0
LINE
  5
1D4
  8
1
 10
39.52892904907101
 20
56.143593544614717
 30
0.0
 11
39.528929062093951
 21
83.856406455385084
 31
0.0
  0
LINE
  5
1D6
  8
0
 10
38.328929055578961
 20
75.250000000000043
 30
0.0
 11
38.328929055578961
 21
72.911880215351744
 31
0.0
  0
LINE
  5
1D7
  8
0
 10
39.528929055576569
 20
59.030344894326319
 30
0.0
 11
30.028929055576629
 21
64.515172451625844
 31
0.0
  0
ARC
  5
1D8
  8
0
 10
97.660948254945282
 20
23.73752626800615
 30
0.0
 40
8.4109482549451222
 50
145.61575270219501
 51
214.3842472978051
  0
LINE
  5
1D9
  8
0
 10
88.999999999999957
 20
19.237526271863771
 30
0.0
 11
89.000000000000028
 21
37.737526256397821
 31
0.0
  0
LINE
  5
1DA
  8
0
 10
88.999999999999957
 20
19.237526271863771
 30
0.0
 11
89.249999999999972
 21
18.987526271863771
 31
0.0
  0
LINE
  5
1DB
  8
0
 10
38.328929055578961
 20
64.749999996240646
 30
0.0
 11
38.328929055578961
 21
67.088119780888945
 31
0.0
  0
LINE
  5
1DC
  8
0
 10
49.02892904783495
 20
64.515172447157781
 30
0.0
 11
39.52892904784359
 21
59.030344889855009
 31
0.0
  0
LINE
  5
1DD
  8
0
 10
32.628929055578958
 20
70.000000003242519
 30
0.0
 11
36.328929055578953
 21
72.136195999244137
 31
0.0
  0
LINE
  5
1DE
  8
0
 10
32.628929055578958
 20
69.999999992998156
 30
0.0
 11
36.328929055578953
 21
67.863803996996552
 31
0.0
  0
LINE
  5
1DF
  8
0
 10
36.328929055578953
 20
71.136195999244137
 30
0.0
 11
35.22700526009524
 21
70.499999999295156
 31
0.0
  0
LINE
  5
1E0
  8
0
 10
38.328929055578961
 20
72.911880215351744
 30
0.0
 11
37.32892905420892
 21
72.334529945371116
 31
0.0
  0
LINE
  5
1E1
  8
0
 10
36.328929055578953
 20
72.136195999244137
 30
0.0
 11
36.328929055578953
 21
71.136195999244137
 31
0.0
  0
LINE
  5
1E2
  8
0
 10
37.32892905420892
 20
72.334529945371116
 30
0.0
 11
37.328929053666293
 21
71.179829406678564
 31
0.0
  0
LINE
  5
1E3
  8
0
 10
36.328929055578953
 20
68.863803996996552
 30
0.0
 11
35.22700526009524
 21
69.499999996945533
 31
0.0
  0
LINE
  5
1E4
  8
0
 10
37.32892905420892
 20
67.665470050869573
 30
0.0
 11
37.328929053666293
 21
68.82017058956211
 31
0.0
  0
LINE
  5
1E5
  8
0
 10
36.328929055578953
 20
67.863803996996552
 30
0.0
 11
36.328929055578953
 21
68.863803996996552
 31
0.0
  0
LINE
  5
1E6
  8
0
 10
38.328929055578961
 20
67.088119780888945
 30
0.0
 11
37.32892905420892
 21
67.665470050869573
 31
0.0
  0
ARC
  5
1E7
  8
0
 10
97.660948254945282
 20
33.237526260267231
 30
0.0
 40
8.4109482549451222
 50
145.6157527021949
 51
214.38424729780499
  0
LINE
  5
1E8
  8
0
 10
89.000000000000028
 20
37.737526256397821
 30
0.0
 11
89.250000000000014
 21
37.987526256397821
 31
0.0
  0
ARC
  5
1E9
  8
0
 10
92.543534448749242
 20
61.772758673312097
 30
0.0
 40
3.2935344487488898
 50
123.626429342313
 51
236.37357081959971
  0
LINE
  5
1EA
  8
0
 10
88.999999999999986
 20
60.750000007727103
 30
0.0
 11
90.719655113407825
 21
59.030344894319249
 31
0.0
  0
LINE
  5
1EB
  8
0
 10
43.528929055578949
 20
75.250000000000043
 30
0.0
 11
43.528929053111852
 21
69.999999998120344
 31
0.0
  0
LINE
  5
1EC
  8
0
 10
30.028929063309612
 20
75.484827552835824
 30
0.0
 11
39.528929063309548
 21
80.969655110138589
 31
0.0
  0
LINE
  5
1ED
  8
1
 10
51.52892904784359
 20
70.000000000000099
 30
0.0
 11
27.528929063309601
 21
70.000000000000099
 31
0.0
  0
ARC
  5
1EE
  8
0
 10
97.660948254945282
 20
109.8526341816752
 30
0.0
 40
8.4109482549451222
 50
145.61575270219501
 51
214.3842472978051
  0
LINE
  5
1EF
  8
0
 10
88.999999999999957
 20
105.35263418553281
 30
0.0
 11
89.000000000000028
 21
123.85263417006691
 31
0.0
  0
LINE
  5
1F0
  8
0
 10
39.528929055576569
 20
80.969655105667286
 30
0.0
 11
49.028929055576562
 21
75.484827548367761
 31
0.0
  0
LINE
  5
1F1
  8
0
 10
42.528929055109032
 20
65.749999996240646
 30
0.0
 11
42.528929053111852
 21
69.99999999765042
 31
0.0
  0
LINE
  5
1F2
  8
0
 10
43.528929055578949
 20
64.749999996240646
 30
0.0
 11
43.528929053111852
 21
69.999999998120344
 31
0.0
  0
LINE
  5
1F3
  8
0
 10
39.528929055578949
 20
67.549999996240643
 30
0.0
 11
39.528929055578949
 21
65.749999996240646
 31
0.0
  0
TEXT
  5
1F4
  8
3
 10
44.999367192570283
 20
67.475076792933791
 30
0.0
 40
0.8
  1
A
 50
240.0
 41
1.8
  7
SIM180
 72
     1
 11
44.725081478284558
 21
67.000000000000611
 31
0.0
  0
LINE
  5
1F5
  8
0
 10
42.528929055109032
 20
74.250000000000043
 30
0.0
 11
42.528929053111852
 21
69.999999998590269
 31
0.0
  0
LINE
  5
1F6
  8
0
 10
39.528929055578949
 20
74.250000000000043
 30
0.0
 11
42.528929055109032
 21
74.250000000000043
 31
0.0
  0
LINE
  5
1F7
  8
0
 10
39.528929055578949
 20
72.450000000000045
 30
0.0
 11
39.528929055578949
 21
74.250000000000043
 31
0.0
  0
LINE
  5
1F8
  8
0
 10
41.028929055578949
 20
69.999999999295156
 30
0.0
 11
41.028929055578949
 21
70.499999999295156
 31
0.0
  0
LINE
  5
1F9
  8
0
 10
41.028929055578949
 20
69.999999996945533
 30
0.0
 11
41.028929055578949
 21
69.499999996945533
 31
0.0
  0
TEXT
  5
1FA
  8
3
 10
44.502224335427421
 20
73.385999894257623
 30
0.0
 40
0.8
  1
E
 50
300.0
 41
1.8
  7
SIM180
 72
     1
 11
44.725081478284558
 21
72.999999999999417
 31
0.0
  0
TEXT
  5
1FB
  8
3
 10
45.217998463327177
 20
71.950323753430908
 30
0.0
 40
0.8
  1
L
 50
285.0
 41
1.8
  7
SIM180
 72
     1
 11
45.324484013312222
 21
71.552914270614835
 31
0.0
  0
TEXT
  5
1FC
  8
3
 10
45.448717154961408
 20
68.910730126003997
 30
0.0
 40
0.8
  1
S
 50
255.00000000000011
 41
1.8
  7
SIM180
 72
     1
 11
45.324484013312222
 21
68.44708572938525
 31
0.0
  0
TEXT
  5
1FD
  8
3
 10
45.528929055577763
 20
70.445714285714274
 30
0.0
 40
0.8
  1
E
 50
270.0
 41
1.8
  7
SIM180
 72
     1
 11
45.528929055577763
 21
69.999999999999986
 31
0.0
  0
LINE
  5
1FE
  8
0
 10
39.528929055578949
 20
65.749999996240646
 30
0.0
 11
42.528929055109032
 21
65.749999996240646
 31
0.0
  0
LINE
  5
1FF
  8
0
 10
88.999999999999986
 20
79.249999992273018
 30
0.0
 11
90.719655113407825
 21
80.969655105680857
 31
0.0
  0
ARC
  5
200
  8
0
 10
92.543534448749242
 20
78.227241326688016
 30
0.0
 40
3.2935344487488898
 50
146.37357081940891
 51
236.373570657687
  0
LINE
  5
201
  8
0
 10
88.999999999999986
 20
79.249999992261124
 30
0.0
 11
89.249999999999986
 21
79.499999992261138
 31
0.0
  0
LINE
  5
202
  8
0
 10
88.999999999999957
 20
105.35263418553281
 30
0.0
 11
89.249999999999972
 21
105.10263418553281
 31
0.0
  0
ARC
  5
203
  8
0
 10
97.660948254945282
 20
119.35263417393629
 30
0.0
 40
8.4109482549451222
 50
145.6157527021949
 51
214.38424729780499
  0
LINE
  5
204
  8
0
 10
89.000000000000028
 20
123.85263417006691
 30
0.0
 11
89.250000000000014
 21
124.10263417006691
 31
0.0
  0
LINE
  5
205
  8
0
 10
97.5
 20
70.000000000000028
 30
0.0
 11
97.5
 21
60.899999999999999
 31
0.0
  0
LINE
  5
206
  8
0
 10
103.2999999999999
 20
70.000000000000028
 30
0.0
 11
103.2999999999999
 21
65.140000000000015
 31
0.0
  0
LINE
  5
207
  8
0
 10
105.0
 20
70.000000000000028
 30
0.0
 11
105.0
 21
65.713000000000022
 31
0.0
  0
LINE
  5
208
  8
0
 10
95.999999999999986
 20
59.030344894319249
 30
0.0
 11
95.999999999999986
 21
80.969655105680914
 31
0.0
  0
ARC
  5
209
  8
0
 10
153.6192717988375
 20
69.999999999996561
 30
0.0
 40
2.5
 50
330.0000000000768
 51
30.000000000105601
  0
ARC
  5
20A
  8
0
 10
153.6192717988375
 20
69.999999999996561
 30
0.0
 40
2.5
 50
149.99999999989441
 51
209.99999999992329
  0
LINE
  5
20B
  8
1
 10
153.6192717988375
 20
83.856406451619037
 30
0.0
 11
153.6192717988375
 21
56.143593548367441
 31
0.0
  0
CIRCLE
  5
20C
  8
0
 10
153.6192717988375
 20
69.999999999999986
 30
0.0
 40
9.1000000000000512
  0
CIRCLE
  5
20D
  8
0
 10
153.6192717988375
 20
69.999999999996561
 30
0.0
 40
4.863999999999999
  0
LINE
  5
20E
  8
0
 10
144.11927180657639
 20
64.515172447156203
 30
0.0
 11
144.11927180657639
 21
75.484827561758522
 31
0.0
  0
CIRCLE
  5
20F
  8
3
 10
153.6192717988375
 20
69.999999999996561
 30
0.0
 40
4.2830000000000004
  0
LINE
  5
210
  8
0
 10
163.11927179111041
 20
75.484827552829955
 30
0.0
 11
163.11927179111041
 21
64.515172438227637
 31
0.0
  0
LINE
  5
212
  8
0
 10
155.78433530829861
 20
68.749999999999943
 30
0.0
 11
151.45420828937469
 21
68.749999999999943
 31
0.0
  0
LINE
  5
213
  8
0
 10
153.6192717988433
 20
59.030344894325829
 30
0.0
 11
144.11927179884341
 21
64.515172451625347
 31
0.0
  0
LINE
  5
21A
  8
0
 10
103.2999999999999
 20
33.351526264136673
 30
0.0
 11
103.2999999999999
 21
23.623526264136721
 31
0.0
  0
LINE
  5
21B
  8
0
 10
105.0
 20
24.204526264136721
 30
0.0
 11
105.0
 21
32.77052626413672
 31
0.0
  0
LINE
  5
21C
  8
0
 10
96.000000000000028
 20
18.98752627186375
 30
0.0
 11
96.000000000000028
 21
37.987526256397821
 31
0.0
  0
LINE
  5
21D
  8
0
 10
97.500000000000071
 20
19.387526264136739
 30
0.0
 11
97.500000000000071
 21
37.587526264136713
 31
0.0
  0
LINE
  5
21E
  8
0
 10
97.500000000000085
 20
23.623526264136721
 30
0.0
 11
103.2999999999999
 21
23.623526264136721
 31
0.0
  0
LINE
  5
21F
  8
3
 10
97.500000000000085
 20
24.20452626413665
 30
0.0
 11
103.2999999999999
 21
24.204526264136671
 31
0.0
  0
LINE
  5
220
  8
0
 10
97.500000000000071
 20
19.387526264136721
 30
0.0
 11
96.000000000000043
 21
19.387526264136739
 31
0.0
  0
LINE
  5
221
  8
0
 10
103.2999999999999
 20
24.2045262641367
 30
0.0
 11
105.0000000000002
 21
24.2045262641367
 31
0.0
  0
LINE
  5
226
  8
3
 10
97.500000000000085
 20
32.770526264136763
 30
0.0
 11
103.2999999999999
 21
32.770526264136741
 31
0.0
  0
LINE
  5
227
  8
0
 10
97.500000000000085
 20
33.351526264136673
 30
0.0
 11
103.2999999999999
 21
33.351526264136673
 31
0.0
  0
LINE
  5
228
  8
0
 10
103.2999999999999
 20
32.770526264136713
 30
0.0
 11
105.0000000000002
 21
32.770526264136713
 31
0.0
  0
LINE
  5
229
  8
0
 10
97.500000000000071
 20
37.587526264136699
 30
0.0
 11
96.000000000000043
 21
37.587526264136699
 31
0.0
  0
LINE
  5
22A
  8
3
 10
97.499999999999915
 20
65.713000000000022
 30
0.0
 11
103.2999999999999
 21
65.713000000000022
 31
0.0
  0
LINE
  5
22B
  8
0
 10
97.499999999999915
 20
65.139999999999972
 30
0.0
 11
103.2999999999999
 21
65.140000000000015
 31
0.0
  0
LINE
  5
22C
  8
0
 10
97.499999999999872
 20
60.899999999999999
 30
0.0
 11
95.999999999999872
 21
60.899999999999949
 31
0.0
  0
LINE
  5
22D
  8
0
 10
97.499999999999872
 20
60.900000000000063
 30
0.0
 11
95.999999999999986
 21
60.900000000000119
 31
0.0
  0
LINE
  5
22E
  8
0
 10
103.2999999999999
 20
65.713000000000022
 30
0.0
 11
105.0
 21
65.713000000000022
 31
0.0
  0
LINE
  5
230
  8
0
 10
163.11927179111041
 20
64.515172447157283
 30
0.0
 11
153.61927179111041
 21
59.030344889854518
 31
0.0
  0
LINE
  5
231
  8
0
 10
144.119271806585
 20
75.484827552835355
 30
0.0
 11
153.61927180657631
 21
80.969655110138106
 31
0.0
  0
LINE
  5
232
  8
0
 10
155.78433530829611
 20
71.249999999999943
 30
0.0
 11
151.45420828937969
 21
71.249999999999943
 31
0.0
  0
LINE
  5
233
  8
1
 10
165.61927179111041
 20
69.999999994360877
 30
0.0
 11
141.61927180657631
 21
70.000000005639095
 31
0.0
  0
LINE
  5
234
  8
0
 10
103.2999999999999
 20
109.73863417780581
 30
0.0
 11
103.2999999999999
 21
119.4666341778057
 31
0.0
  0
LINE
  5
235
  8
0
 10
105.0
 20
110.3196341778058
 30
0.0
 11
105.0
 21
118.8856341778057
 31
0.0
  0
LINE
  5
236
  8
0
 10
97.500000000000071
 20
105.5026341778058
 30
0.0
 11
97.500000000000071
 21
123.70263417780581
 31
0.0
  0
LINE
  5
237
  8
0
 10
96.000000000000028
 20
105.10263418553281
 30
0.0
 11
96.000000000000028
 21
124.10263417006691
 31
0.0
  0
LINE
  5
238
  8
0
 10
97.499999999999915
 20
74.860000000000085
 30
0.0
 11
103.2999999999999
 21
74.860000000000028
 31
0.0
  0
LINE
  5
239
  8
3
 10
97.499999999999915
 20
74.287000000000035
 30
0.0
 11
103.2999999999999
 21
74.287000000000035
 31
0.0
  0
LINE
  5
23A
  8
0
 10
97.5
 20
70.000000000000028
 30
0.0
 11
97.5
 21
79.100000000000051
 31
0.0
  0
LINE
  5
23B
  8
0
 10
97.499999999999872
 20
79.100000000000051
 30
0.0
 11
95.999999999999872
 21
79.100000000000094
 31
0.0
  0
LINE
  5
23C
  8
0
 10
103.2999999999999
 20
74.287000000000035
 30
0.0
 11
105.0
 21
74.287000000000035
 31
0.0
  0
LINE
  5
23D
  8
0
 10
103.2999999999999
 20
70.000000000000028
 30
0.0
 11
103.2999999999999
 21
74.860000000000028
 31
0.0
  0
LINE
  5
23E
  8
0
 10
105.0
 20
70.000000000000028
 30
0.0
 11
105.0
 21
74.287000000000035
 31
0.0
  0
LINE
  5
23F
  8
3
 10
97.500000000000085
 20
110.3196341778057
 30
0.0
 11
103.2999999999999
 21
110.3196341778057
 31
0.0
  0
LINE
  5
240
  8
0
 10
97.500000000000085
 20
109.73863417780581
 30
0.0
 11
103.2999999999999
 21
109.73863417780581
 31
0.0
  0
LINE
  5
241
  8
0
 10
97.500000000000071
 20
105.5026341778058
 30
0.0
 11
96.000000000000043
 21
105.5026341778058
 31
0.0
  0
LINE
  5
242
  8
0
 10
103.2999999999999
 20
110.3196341778057
 30
0.0
 11
105.0000000000002
 21
110.3196341778057
 31
0.0
  0
LINE
  5
243
  8
0
 10
97.500000000000085
 20
119.4666341778057
 30
0.0
 11
103.2999999999999
 21
119.4666341778057
 31
0.0
  0
LINE
  5
244
  8
3
 10
97.500000000000085
 20
118.8856341778058
 30
0.0
 11
103.2999999999999
 21
118.8856341778058
 31
0.0
  0
LINE
  5
245
  8
0
 10
97.500000000000071
 20
123.70263417780571
 30
0.0
 11
96.000000000000043
 21
123.70263417780571
 31
0.0
  0
LINE
  5
246
  8
0
 10
103.2999999999999
 20
118.8856341778057
 30
0.0
 11
105.0000000000002
 21
118.8856341778057
 31
0.0
  0
LINE
  5
247
  8
0
 10
153.6192717988433
 20
80.969655105666817
 30
0.0
 11
163.11927179884341
 21
75.484827548367292
 31
0.0
  0
TEXT
  5
38E
  8
0
 62
     3
 10
0.0
 20
0.0
 30
0.0
 40
10.0
  1
PN-1/8D
  7
STANDARD1
  0
ENDSEC
  0
EOF
