  0
SECTION
  2
HEADER
  9
$ACADVER
  1
AC1009
  9
$INSBASE
 10
0.0
 20
0.0
 30
0.0
  9
$EXTMIN
 10
0.0
 20
-2.960436562073669
 30
0.0
  9
$EXTMAX
 10
169.5812938172715
 20
122.2665999671118
 30
0.0
  9
$LIMMIN
 10
0.0
 20
0.0
  9
$LIMMAX
 10
187.5
 20
135.0
  9
$ORTHOMODE
 70
     1
  9
$REGENMODE
 70
     1
  9
$FILLMODE
 70
     1
  9
$QTEXTMODE
 70
     0
  9
$MIRRTEXT
 70
     0
  9
$DRAGMODE
 70
     2
  9
$LTSCALE
 40
5.0
  9
$OSMODE
 70
  3071
  9
$ATTMODE
 70
     1
  9
$TEXTSIZE
 40
2.0000000000000502
  9
$TRACEWID
 40
0.05
  9
$TEXTSTYLE
  7
STANDARD
  9
$CLAYER
  8
0
  9
$CELTYPE
  6
BYLAYER
  9
$CECOLOR
 62
   256
  9
$DIMSCALE
 40
0.5
  9
$DIMASZ
 40
3.0
  9
$DIMEXO
 40
2.0
  9
$DIMDLI
 40
0.38
  9
$DIMRND
 40
0.0
  9
$DIMDLE
 40
0.0
  9
$DIMEXE
 40
2.0
  9
$DIMTP
 40
0.0
  9
$DIMTM
 40
0.0
  9
$DIMTXT
 40
3.2000000000000002
  9
$DIMCEN
 40
0.0
  9
$DIMTSZ
 40
0.0
  9
$DIMTOL
 70
     0
  9
$DIMLIM
 70
     0
  9
$DIMTIH
 70
     0
  9
$DIMTOH
 70
     0
  9
$DIMSE1
 70
     0
  9
$DIMSE2
 70
     0
  9
$DIMTAD
 70
     1
  9
$DIMZIN
 70
     0
  9
$DIMBLK
  1

  9
$DIMASO
 70
     1
  9
$DIMSHO
 70
     0
  9
$DIMPOST
  1

  9
$DIMAPOST
  1

  9
$DIMALT
 70
     0
  9
$DIMALTD
 70
     2
  9
$DIMALTF
 40
25.399999999999999
  9
$DIMLFAC
 40
1.0
  9
$DIMTOFL
 70
     1
  9
$DIMTVP
 40
1.6000000000000001
  9
$DIMTIX
 70
     1
  9
$DIMSOXD
 70
     0
  9
$DIMSAH
 70
     0
  9
$DIMBLK1
  1

  9
$DIMBLK2
  1

  9
$DIMSTYLE
  2
STANDARD
  9
$DIMCLRD
 70
     0
  9
$DIMCLRE
 70
     0
  9
$DIMCLRT
 70
     0
  9
$DIMTFAC
 40
1.0
  9
$DIMGAP
 40
0.09
  9
$LUNITS
 70
     2
  9
$LUPREC
 70
     4
  9
$SKETCHINC
 40
0.1
  9
$FILLETRAD
 40
0.0
  9
$AUNITS
 70
     0
  9
$AUPREC
 70
     4
  9
$MENU
  1
E:\r13\win\SUPPORT\ACAD
  9
$ELEVATION
 40
0.0
  9
$PELEVATION
 40
0.0
  9
$THICKNESS
 40
0.0
  9
$LIMCHECK
 70
     0
  9
$BLIPMODE
 70
     0
  9
$CHAMFERA
 40
0.0
  9
$CHAMFERB
 40
0.0
  9
$SKPOLY
 70
     0
  9
$TDCREATE
 40
2449839.795069444
  9
$TDUPDATE
 40
2456597.7234505792
  9
$TDINDWG
 40
0.0001985417
  9
$TDUSRTIMER
 40
0.0001985417
  9
$USRTIMER
 70
     1
  9
$ANGBASE
 50
0.0
  9
$ANGDIR
 70
     0
  9
$PDMODE
 70
     0
  9
$PDSIZE
 40
0.0
  9
$PLINEWID
 40
0.0
  9
$COORDS
 70
     1
  9
$SPLFRAME
 70
     0
  9
$SPLINETYPE
 70
     6
  9
$SPLINESEGS
 70
     8
  9
$ATTDIA
 70
     0
  9
$ATTREQ
 70
     1
  9
$HANDLING
 70
     1
  9
$HANDSEED
  5
2A9
  9
$SURFTAB1
 70
     6
  9
$SURFTAB2
 70
     6
  9
$SURFTYPE
 70
     6
  9
$SURFU
 70
     6
  9
$SURFV
 70
     6
  9
$UCSNAME
  2

  9
$UCSORG
 10
0.0
 20
0.0
 30
0.0
  9
$UCSXDIR
 10
1.0
 20
0.0
 30
0.0
  9
$UCSYDIR
 10
0.0
 20
1.0
 30
0.0
  9
$PUCSNAME
  2

  9
$PUCSORG
 10
0.0
 20
0.0
 30
0.0
  9
$PUCSXDIR
 10
1.0
 20
0.0
 30
0.0
  9
$PUCSYDIR
 10
0.0
 20
1.0
 30
0.0
  9
$USERI1
 70
     0
  9
$USERI2
 70
     1
  9
$USERI3
 70
     1
  9
$USERI4
 70
     0
  9
$USERI5
 70
     0
  9
$USERR1
 40
0.0
  9
$USERR2
 40
0.0
  9
$USERR3
 40
0.0
  9
$USERR4
 40
0.0
  9
$USERR5
 40
0.0
  9
$WORLDVIEW
 70
     1
  9
$SHADEDGE
 70
     3
  9
$SHADEDIF
 70
    70
  9
$TILEMODE
 70
     1
  9
$MAXACTVP
 70
    16
  9
$PLIMCHECK
 70
     0
  9
$PEXTMIN
 10
1.0000000000000000E+020
 20
1.0000000000000000E+020
 30
1.0000000000000000E+020
  9
$PEXTMAX
 10
-1.0000000000000000E+020
 20
-1.0000000000000000E+020
 30
-1.0000000000000000E+020
  9
$PLIMMIN
 10
0.0
 20
0.0
  9
$PLIMMAX
 10
12.0
 20
9.0
  9
$UNITMODE
 70
     0
  9
$VISRETAIN
 70
     0
  9
$PLINEGEN
 70
     0
  9
$PSLTSCALE
 70
     0
  0
ENDSEC
  0
SECTION
  2
TABLES
  0
TABLE
  2
VPORT
 70
     1
  0
VPORT
  2
*ACTIVE
 70
     0
 10
0.0
 20
0.0
 11
1.0
 21
1.0
 12
93.74713919532617
 22
66.313465060797697
 13
0.0
 23
0.0
 14
5.0
 24
5.0
 15
5.0
 25
5.0
 16
0.0
 26
0.0
 36
1.0
 17
0.0
 27
0.0
 37
0.0
 40
140.15365342376049
 41
2.304913294797688
 42
50.0
 43
0.0
 44
0.0
 50
0.0
 51
0.0
 71
     0
 72
   500
 73
     1
 74
     0
 75
     0
 76
     0
 77
     0
 78
     2
  0
ENDTAB
  0
TABLE
  2
LTYPE
 70
     3
  0
LTYPE
  2
CONTINUOUS
 70
     0
  3
Solid Line
 72
    65
 73
     0
 40
0.0
  0
LTYPE
  2
CENTER
 70
     0
  3
____ _ ____ _ ____ _ ____ _ ____ _ ____ _ ____
 72
    65
 73
     4
 40
2.0
 49
1.25
 49
-0.25
 49
0.25
 49
-0.25
  0
LTYPE
  2
PHANTOM2
 70
     0
  3
___ _ _ ___ _ _ ___ _ _ ___ _ _
 72
    65
 73
     6
 40
1.25
 49
0.625
 49
-0.125
 49
0.125
 49
-0.125
 49
0.125
 49
-0.125
  0
ENDTAB
  0
TABLE
  2
LAYER
 70
     3
  0
LAYER
  2
0
 70
     0
 62
     7
  6
CONTINUOUS
  0
LAYER
  2
1
 70
     0
 62
     1
  6
CENTER
  0
LAYER
  2
3
 70
     0
 62
     3
  6
CONTINUOUS
  0
ENDTAB
  0
TABLE
  2
STYLE
 70
     3
  0
STYLE
  2
STANDARD
 70
     0
 40
0.0
 41
1.0
 50
0.0
 71
     0
 42
2.0000000000000502
  3
TXT
  4
BIGFONT
  0
STYLE
  2
SIM180
 70
     0
 40
0.0
 41
1.8
 50
0.0
 71
     0
 42
0.8
  3
SIMPLEX
  4

  0
STYLE
  2
STANDARD1
 70
     0
 40
0.0
 41
1.0
 50
0.0
 71
     0
 42
3.0
  3
txt
  4

  0
ENDTAB
  0
TABLE
  2
VIEW
 70
     1
  0
VIEW
  2
ALL
 70
     0
 40
175.0
 10
143.23529411764699
 20
87.5
 41
0.0
 11
0.0
 21
0.0
 31
1.0
 12
0.0
 22
0.0
 32
0.0
 42
0.0
 43
0.0
 44
0.0
 50
0.0
 71
     0
  0
ENDTAB
  0
TABLE
  2
UCS
 70
     0
  0
ENDTAB
  0
TABLE
  2
APPID
 70
     3
  0
APPID
  2
ACAD
 70
     0
  0
APPID
  2
ACAD_MLEADERVER
 70
     0
  0
APPID
  2
ACAD_NAV_VCDISPLAY
 70
     0
  0
ENDTAB
  0
TABLE
  2
DIMSTYLE
 70
     1
  0
DIMSTYLE
  2
STANDARD
 70
     0
  3

  4

  5

  6

  7

 40
1.0
 41
0.18
 42
0.0625
 43
0.38
 44
0.18
 45
0.0
 46
0.0
 47
0.0
 48
0.0
140
0.18
141
0.09
142
0.0
143
25.399999999999999
144
1.0
145
0.0
146
1.0
147
0.09
 71
     0
 72
     0
 73
     1
 74
     1
 75
     0
 76
     0
 77
     0
 78
     0
170
     0
171
     2
172
     0
173
     0
174
     0
175
     0
176
     0
177
     0
178
     0
  0
ENDTAB
  0
ENDSEC
  0
SECTION
  2
BLOCKS
  0
BLOCK
  8
0
  2
$MODEL_SPACE
 70
     0
 10
0.0
 20
0.0
 30
0.0
  3
$MODEL_SPACE
  1

  0
ENDBLK
  5
128
  8
0
  0
BLOCK
 67
     1
  8
0
  2
$PAPER_SPACE
 70
     0
 10
0.0
 20
0.0
 30
0.0
  3
$PAPER_SPACE
  1

  0
ENDBLK
  5
126
 67
     1
  8
0
  0
ENDSEC
  0
SECTION
  2
ENTITIES
  0
TEXT
  5
35
  8
3
 10
35.688841927349152
 20
77.718639575843767
 30
0.0
 40
0.8
  1
A
 50
330.00000000000011
 41
1.8
  7
SIM180
 72
     1
 11
36.163918720282332
 21
77.444353861558056
 31
0.0
  0
TEXT
  5
36
  8
3
 10
34.253188594278932
 20
78.16798953823492
 30
0.0
 40
0.8
  1
S
 50
345.0
 41
1.8
  7
SIM180
 72
     1
 11
34.716832990897693
 21
78.043756396585707
 31
0.0
  0
TEXT
  5
37
  8
3
 10
32.718204434568648
 20
78.248201438851254
 30
0.0
 40
0.8
  1
E
 50
360.0
 41
1.8
  7
SIM180
 72
     1
 11
33.163918720282943
 21
78.248201438851254
 31
0.0
  0
TEXT
  5
38
  8
3
 10
31.213594966852039
 20
77.937270846600669
 30
0.0
 40
0.8
  1
L
 50
14.99999999999997
 41
1.8
  7
SIM180
 72
     1
 11
31.611004449668119
 21
78.043756396585707
 31
0.0
  0
TEXT
  5
39
  8
3
 10
29.777918826025289
 20
77.221496718700905
 30
0.0
 40
0.8
  1
E
 50
29.999999999999961
 41
1.8
  7
SIM180
 72
     1
 11
30.163918720283501
 21
77.444353861558056
 31
0.0
  0
LINE
  5
3A
  8
0
 10
36.974430495900563
 20
72.648201437058162
 30
0.0
 11
38.413918720282886
 21
72.648201436381783
 31
0.0
  0
LINE
  5
3B
  8
0
 10
35.24237968880162
 20
71.648201437872217
 30
0.0
 11
37.413918720282901
 21
71.648201436851764
 31
0.0
  0
LINE
  5
3C
  8
0
 10
31.08545775063638
 20
71.648201439825584
 30
0.0
 11
29.584347051593049
 21
74.248201438353874
 31
0.0
  0
LINE
  5
3D
  8
0
 10
29.353406942597559
 20
72.648201440639582
 30
0.0
 11
28.429646513527128
 21
74.248201437811176
 31
0.0
  0
LINE
  5
3E
  8
0
 10
29.584347051593049
 20
74.248201438353874
 30
0.0
 11
28.429646513527128
 21
74.248201437811176
 31
0.0
  0
LINE
  5
3F
  8
0
 10
36.743490388972752
 20
74.248201438353874
 30
0.0
 11
37.898190927038669
 21
74.248201437811176
 31
0.0
  0
LINE
  5
40
  8
0
 10
36.974430495900563
 20
72.648201437058162
 30
0.0
 11
37.898190927038669
 21
74.248201437811176
 31
0.0
  0
LINE
  5
41
  8
0
 10
35.242379688801591
 20
71.64820143787216
 30
0.0
 11
36.743490388972752
 21
74.248201438353874
 31
0.0
  0
LINE
  5
42
  8
0
 10
34.434089312155422
 20
74.248201438252067
 30
0.0
 11
35.588789850221403
 21
74.24820143770944
 31
0.0
  0
LINE
  5
43
  8
0
 10
33.663918720282901
 20
72.914226842633468
 30
0.0
 11
33.663918720282922
 21
77.048201438614058
 31
0.0
  0
LINE
  5
44
  8
0
 10
32.663918720282908
 20
72.914226842633241
 30
0.0
 11
32.663918720282908
 21
77.048201439083982
 31
0.0
  0
LINE
  5
45
  8
0
 10
32.663918720282908
 20
72.914226842633241
 30
0.0
 11
31.893748127721071
 21
74.248201439445836
 31
0.0
  0
LINE
  5
46
  8
0
 10
33.663918720282901
 20
72.914226842633468
 30
0.0
 11
34.43408931215545
 21
74.248201438252124
 31
0.0
  0
LINE
  5
47
  8
0
 10
33.163918720282851
 20
70.048201438848992
 30
0.0
 11
30.73904758902853
 21
74.248201439988463
 31
0.0
  0
LINE
  5
48
  8
0
 10
33.163918720282908
 20
70.048201438848992
 30
0.0
 11
35.588789850221403
 21
74.24820143770944
 31
0.0
  0
LINE
  5
49
  8
0
 10
32.663918720282908
 20
77.048201439083982
 30
0.0
 11
33.663918720282901
 21
77.048201438614001
 31
0.0
  0
LINE
  5
4A
  8
0
 10
30.73904758902853
 20
74.248201439988463
 30
0.0
 11
31.893748127721011
 21
74.248201439445836
 31
0.0
  0
LINE
  5
4B
  8
0
 10
37.413918720282872
 20
68.248201436851716
 30
0.0
 11
37.413918720282901
 21
71.648201436851764
 31
0.0
  0
LINE
  5
4C
  8
0
 10
28.913918720282911
 20
68.248201440846117
 30
0.0
 11
28.913918720282911
 21
71.648201440846037
 31
0.0
  0
LINE
  5
4D
  8
0
 10
38.413918720282872
 20
67.248201436381862
 30
0.0
 11
38.413918720282886
 21
72.648201436381839
 31
0.0
  0
LINE
  5
4E
  8
0
 10
27.913918720282911
 20
67.248201441316098
 30
0.0
 11
27.913918720282911
 21
72.648201441316019
 31
0.0
  0
LINE
  5
4F
  8
0
 10
28.913918720282911
 20
71.648201440846094
 30
0.0
 11
31.085457750636412
 21
71.648201439825584
 31
0.0
  0
LINE
  5
50
  8
0
 10
27.913918720282911
 20
72.648201441316019
 30
0.0
 11
29.353406942597559
 21
72.648201440639582
 31
0.0
  0
LINE
  5
51
  8
0
 10
28.913918720282911
 20
68.248201440846117
 30
0.0
 11
37.413918720282872
 21
68.248201436851716
 31
0.0
  0
LINE
  5
52
  8
0
 10
27.913918720282911
 20
67.248201441316098
 30
0.0
 11
38.413918720282872
 21
67.248201436381862
 31
0.0
  0
LINE
  5
53
  8
0
 10
94.784246274961149
 20
121.8665999748504
 30
0.0
 11
93.284246274961177
 21
121.8665999748504
 31
0.0
  0
LINE
  5
54
  8
0
 10
94.784246274961149
 20
103.6665999748504
 30
0.0
 11
93.284246274961191
 21
103.6665999748505
 31
0.0
  0
LINE
  5
55
  8
0
 10
94.784246274961191
 20
103.6665999748504
 30
0.0
 11
94.784246274961191
 21
121.8665999748504
 31
0.0
  0
CIRCLE
  5
56
  8
0
 10
157.5812938249986
 20
72.248201438845413
 30
0.0
 40
3.1211066486044672
  0
CIRCLE
  5
57
  8
0
 10
157.5812938249986
 20
72.248201438845413
 30
0.0
 40
3.75
  0
LINE
  5
58
  8
1
 10
169.5812938172715
 20
72.248201433209786
 30
0.0
 11
145.5812938327374
 21
72.248201444487975
 31
0.0
  0
LINE
  5
59
  8
1
 10
157.58129382499851
 20
86.104607890467875
 30
0.0
 11
157.5812938249986
 21
58.391794987216343
 31
0.0
  0
LINE
  5
5A
  8
1
 10
33.163918720282908
 20
58.391794987229972
 30
0.0
 11
33.163918720282908
 21
86.104607890481518
 31
0.0
  0
LINE
  5
5B
  8
1
 10
21.163918728009971
 20
72.248201444488046
 30
0.0
 11
45.16391871254401
 21
72.248201433209857
 31
0.0
  0
LINE
  5
5C
  8
1
 10
104.78424627496121
 20
72.248201438848923
 30
0.0
 11
83.784246274961191
 21
72.248201438848938
 31
0.0
  0
LINE
  5
5D
  8
0
 10
100.28424627496121
 20
66.525701438848856
 30
0.0
 11
102.28424627496121
 21
66.525701438848841
 31
0.0
  0
LINE
  5
5E
  8
3
 10
94.784246274961191
 20
77.970701438848991
 30
0.0
 11
100.28424627496121
 21
77.970701438849005
 31
0.0
  0
LINE
  5
5F
  8
0
 10
100.28424627496121
 20
65.669701438848847
 30
0.0
 11
100.28424627496121
 21
78.826701438849014
 31
0.0
  0
LINE
  5
60
  8
0
 10
86.284246274961205
 20
81.498201431110019
 30
0.0
 11
86.534246274961205
 21
81.748201431110019
 31
0.0
  0
LINE
  5
61
  8
0
 10
86.284246274961205
 20
62.99820144657599
 30
0.0
 11
88.003901388369044
 21
61.278546333168151
 31
0.0
  0
LINE
  5
62
  8
0
 10
93.284246274961205
 20
61.278546333168151
 30
0.0
 11
93.284246274961205
 21
83.217856544529795
 31
0.0
  0
LINE
  5
63
  8
0
 10
86.284246274961205
 20
62.99820144657599
 30
0.0
 11
86.284246274961205
 21
81.498201431110019
 31
0.0
  0
LINE
  5
64
  8
0
 10
102.28424627496121
 20
66.525701438848841
 30
0.0
 11
102.28424627496121
 21
77.970701438849005
 31
0.0
  0
LINE
  5
65
  8
0
 10
94.784246274961191
 20
65.669701438848847
 30
0.0
 11
100.28424627496121
 21
65.669701438848847
 31
0.0
  0
LINE
  5
66
  8
3
 10
94.784246274961191
 20
66.525701438848856
 30
0.0
 11
100.28424627496121
 21
66.525701438848841
 31
0.0
  0
LINE
  5
67
  8
0
 10
100.28424627496121
 20
77.970701438848991
 30
0.0
 11
102.28424627496121
 21
77.970701438849005
 31
0.0
  0
LINE
  5
68
  8
0
 10
94.784246274961191
 20
78.826701438849042
 30
0.0
 11
100.28424627496121
 21
78.826701438849014
 31
0.0
  0
LINE
  5
69
  8
0
 10
88.003901380634701
 20
66.763373886009674
 30
0.0
 11
93.284246274961205
 21
66.763373886009674
 31
0.0
  0
LINE
  5
6A
  8
0
 10
88.003901388369044
 20
61.278546333168151
 30
0.0
 11
93.284246274961205
 21
61.278546333168151
 31
0.0
  0
LINE
  5
6B
  8
0
 10
88.003901380634701
 20
77.733028991688244
 30
0.0
 11
93.284246274961205
 21
77.733028991688244
 31
0.0
  0
LINE
  5
6C
  8
0
 10
86.284246274961205
 20
81.498201431121913
 30
0.0
 11
88.003901388369044
 21
83.217856544529766
 31
0.0
  0
LINE
  5
6D
  8
0
 10
88.003901388369044
 20
83.217856544529766
 30
0.0
 11
93.284246274961205
 21
83.217856544529795
 31
0.0
  0
ARC
  5
6E
  8
0
 10
97.503901430631004
 20
72.248201438849037
 30
0.0
 40
10.969655155669949
 50
150.0000001507527
 51
209.9999998492481
  0
ARC
  5
6F
  8
0
 10
89.827780723710518
 20
64.020960112161021
 30
0.0
 40
3.2935344487488898
 50
123.626429342313
 51
236.37357081959971
  0
ARC
  5
70
  8
0
 10
89.827780723710518
 20
80.475442765536897
 30
0.0
 40
3.2935344487488898
 50
146.37357081940891
 51
236.373570657687
  0
LINE
  5
71
  8
1
 10
104.78424627496111
 20
112.76659997485039
 30
0.0
 11
83.784246274961191
 21
112.76659997485039
 31
0.0
  0
LINE
  5
72
  8
0
 10
100.28424627496121
 20
107.0440999748503
 30
0.0
 11
102.28424627496121
 21
107.0440999748503
 31
0.0
  0
LINE
  5
73
  8
3
 10
94.784246274961191
 20
118.4890999748504
 30
0.0
 11
100.28424627496121
 21
118.4890999748505
 31
0.0
  0
LINE
  5
74
  8
0
 10
100.28424627496121
 20
106.1880999748503
 30
0.0
 11
100.28424627496121
 21
119.3450999748504
 31
0.0
  0
ARC
  5
75
  8
0
 10
94.945194529905592
 20
108.0165999787193
 30
0.0
 40
8.4109482549447545
 50
145.61575270218941
 51
214.3842472978053
  0
ARC
  5
76
  8
0
 10
94.945194529905592
 20
117.5165999709814
 30
0.0
 40
8.4109482549447545
 50
145.6157527021947
 51
214.38424729781059
  0
LINE
  5
77
  8
0
 10
86.284246274961191
 20
122.0165999671115
 30
0.0
 11
86.534246274961205
 21
122.2665999671115
 31
0.0
  0
LINE
  5
78
  8
0
 10
86.284246274961191
 20
103.5165999825774
 30
0.0
 11
86.534246274961205
 21
103.2665999825775
 31
0.0
  0
LINE
  5
79
  8
0
 10
86.534246274961205
 20
122.2665999671115
 30
0.0
 11
93.284246274961191
 21
122.2665999671115
 31
0.0
  0
LINE
  5
7A
  8
0
 10
93.284246274961191
 20
103.2665999825775
 30
0.0
 11
86.534246274961205
 21
103.2665999825775
 31
0.0
  0
LINE
  5
7B
  8
0
 10
93.284246274961191
 20
103.2665999825775
 30
0.0
 11
93.284246274961191
 21
122.2665999671115
 31
0.0
  0
CIRCLE
  5
7C
  8
0
 10
33.163918720282908
 20
72.248201438852448
 30
0.0
 40
9.25
  0
CIRCLE
  5
7D
  8
0
 10
33.163918720282908
 20
72.248201438852448
 30
0.0
 40
7.5
  0
LINE
  5
7E
  8
0
 10
86.284246274961191
 20
103.5165999825774
 30
0.0
 11
86.284246274961191
 21
122.0165999671115
 31
0.0
  0
LINE
  5
7F
  8
0
 10
148.08129383273749
 20
66.76337388600507
 30
0.0
 11
148.08129383273749
 21
77.733029000607374
 31
0.0
  0
LINE
  5
80
  8
0
 10
148.0812938327461
 20
77.733028991684222
 30
0.0
 11
157.58129383273749
 21
83.217856548986987
 31
0.0
  0
LINE
  5
81
  8
0
 10
157.58129382500451
 20
83.217856544515683
 30
0.0
 11
167.08129382500451
 21
77.733028987216159
 31
0.0
  0
LINE
  5
82
  8
0
 10
167.0812938172715
 20
77.733028991678822
 30
0.0
 11
167.0812938172715
 21
66.763373877076504
 31
0.0
  0
LINE
  5
83
  8
0
 10
167.0812938172715
 20
66.763373886006136
 30
0.0
 11
157.5812938172715
 21
61.278546328703392
 31
0.0
  0
LINE
  5
84
  8
0
 10
157.58129382500451
 20
61.278546333174688
 30
0.0
 11
148.08129382500451
 21
66.763373890474213
 31
0.0
  0
LINE
  5
85
  8
0
 10
33.163918720288819
 20
61.278546333181737
 30
0.0
 11
23.663918720288819
 21
66.763373890481262
 31
0.0
  0
LINE
  5
86
  8
0
 10
42.663918712555819
 20
66.763373886013198
 30
0.0
 11
33.163918712555841
 21
61.278546328710433
 31
0.0
  0
LINE
  5
87
  8
0
 10
42.663918712555819
 20
77.733028991685842
 30
0.0
 11
42.663918712555819
 21
66.763373877083552
 31
0.0
  0
LINE
  5
88
  8
0
 10
33.163918720288819
 20
83.217856544522704
 30
0.0
 11
42.663918720288798
 21
77.733028987223179
 31
0.0
  0
LINE
  5
89
  8
0
 10
23.663918728030438
 20
77.733028991691242
 30
0.0
 11
33.163918728021798
 21
83.217856548994007
 31
0.0
  0
LINE
  5
8A
  8
0
 10
23.663918728021802
 20
66.763373886012104
 30
0.0
 11
23.663918728021802
 21
77.733029000614408
 31
0.0
  0
LINE
  5
8B
  8
0
 10
102.28424627496121
 20
107.0440999748503
 30
0.0
 11
102.28424627496121
 21
118.4890999748505
 31
0.0
  0
LINE
  5
8C
  8
0
 10
94.784246274961191
 20
106.1880999748503
 30
0.0
 11
100.28424627496121
 21
106.1880999748503
 31
0.0
  0
LINE
  5
8D
  8
3
 10
94.784246274961191
 20
107.0440999748503
 30
0.0
 11
100.28424627496121
 21
107.0440999748503
 31
0.0
  0
LINE
  5
8E
  8
0
 10
100.28424627496121
 20
118.4890999748504
 30
0.0
 11
102.28424627496121
 21
118.4890999748505
 31
0.0
  0
LINE
  5
8F
  8
0
 10
94.784246274961191
 20
119.3450999748505
 30
0.0
 11
100.28424627496121
 21
119.3450999748504
 31
0.0
  0
CIRCLE
  5
90
  8
0
 10
157.5812938249986
 20
72.248201438845413
 30
0.0
 40
6.5785
  0
CIRCLE
  5
91
  8
3
 10
157.5812938249986
 20
72.248201438845413
 30
0.0
 40
5.7225000000000001
  0
LINE
  5
92
  8
0
 10
88.003901380634673
 20
112.76659997485039
 30
0.0
 11
93.284246274961191
 21
112.76659997485039
 31
0.0
  0
LINE
  5
93
  8
0
 10
94.784246274961205
 20
63.148201438848972
 30
0.0
 11
94.784246274961205
 21
81.34820143884896
 31
0.0
  0
LINE
  5
94
  8
0
 10
94.784246274961177
 20
63.148201438848972
 30
0.0
 11
93.284246274961205
 21
63.148201438849007
 31
0.0
  0
LINE
  5
95
  8
0
 10
94.784246274961177
 20
81.34820143884896
 30
0.0
 11
93.284246274961177
 21
81.348201438848989
 31
0.0
  0
CIRCLE
  5
9F
  8
0
 10
157.5812938249986
 20
72.248201438848895
 30
0.0
 40
9.1000000000000654
  0
LINE
  5
A0
  8
1
 10
90.284246279425474
 20
75.748201428742092
 30
0.0
 11
90.284246279425474
 21
68.748201448955783
 31
0.0
  0
POLYLINE
  5
A1
  8
0
 66
     1
 10
0.0
 20
0.0
 30
0.0
 70
     1
  0
VERTEX
  5
A2
  8
0
 10
89.2744187069719
 20
72.248201438848938
 30
0.0
 42
0.0993672836227712
  0
VERTEX
  5
A3
  8
0
 10
89.351135798720847
 20
71.865985102736914
 30
0.0
 42
0.0988498989471437
  0
VERTEX
  5
A4
  8
0
 10
89.570190355114391
 20
71.54109465766237
 30
0.0
 42
0.0981268978428882
 70
     2
 50
315.28016032048828
  0
VERTEX
  5
A5
  8
0
 10
89.925948474554048
 20
71.305523392276712
 30
0.0
 42
0.1158205914715136
 50
315.28016032048828
  0
VERTEX
  5
A6
  8
0
 10
90.284246279425474
 20
71.248201438848909
 30
0.0
 42
0.0976217071299276
  0
VERTEX
  5
A7
  8
0
 10
90.671157278482156
 20
71.324470103518536
 30
0.0
 42
0.098126897842924
  0
VERTEX
  5
A8
  8
0
 10
90.998302203736557
 20
71.541094657662356
 30
0.0
 42
0.0988498989471126
 70
     2
 50
44.719839679510102
  0
VERTEX
  5
A9
  8
0
 10
91.21735676013013
 20
71.8659851027369
 30
0.0
 42
0.0993672836227302
 50
44.719839679510102
  0
VERTEX
  5
AA
  8
0
 10
91.294073851879077
 20
72.248201438848895
 30
0.0
 42
0.099367283622699
  0
VERTEX
  5
AB
  8
0
 10
91.217356760130173
 20
72.630417774960932
 30
0.0
 42
0.0988498989470832
  0
VERTEX
  5
AC
  8
0
 10
90.998302203736586
 20
72.955308220035477
 30
0.0
 42
0.0981268978429431
 70
     2
 50
135.28016032048831
  0
VERTEX
  5
AD
  8
0
 10
90.671157278482156
 20
73.171932774179311
 30
0.0
 42
0.0976217071299325
 50
135.28016032048831
  0
VERTEX
  5
AE
  8
0
 10
90.284246279425503
 20
73.248201438848938
 30
0.0
 42
0.0976217071299168
  0
VERTEX
  5
AF
  8
0
 10
89.897335280368836
 20
73.171932774179325
 30
0.0
 42
0.0981268978429288
  0
VERTEX
  5
B0
  8
0
 10
89.570190355114406
 20
72.955308220035491
 30
0.0
 42
0.0988498989471332
 70
     2
 50
224.7198396795101
  0
VERTEX
  5
B1
  8
0
 10
89.351135798720847
 20
72.630417774960904
 30
0.0
 42
0.0993672836227375
 50
224.7198396795101
  0
SEQEND
  5
B2
  8
0
  0
LINE
  5
B3
  8
0
 10
88.003901380634673
 20
26.550322996433142
 30
0.0
 11
93.284246274961191
 21
26.550322996433142
 31
0.0
  0
LINE
  5
B4
  8
0
 10
94.784246274961191
 20
33.128822996433229
 30
0.0
 11
100.28424627496121
 21
33.128822996433222
 31
0.0
  0
LINE
  5
B5
  8
0
 10
100.28424627496121
 20
32.272822996433192
 30
0.0
 11
102.28424627496121
 21
32.27282299643322
 31
0.0
  0
LINE
  5
B6
  8
3
 10
94.784246274961191
 20
20.827822996433071
 30
0.0
 11
100.28424627496121
 21
20.82782299643306
 31
0.0
  0
LINE
  5
B7
  8
0
 10
94.784246274961191
 20
19.971822996433058
 30
0.0
 11
100.28424627496121
 21
19.971822996433058
 31
0.0
  0
LINE
  5
B8
  8
0
 10
102.28424627496121
 20
20.82782299643306
 30
0.0
 11
102.28424627496121
 21
32.27282299643322
 31
0.0
  0
LINE
  5
B9
  8
0
 10
86.284246274961191
 20
17.300323004160202
 30
0.0
 11
86.284246274961191
 21
35.800322988694219
 31
0.0
  0
LINE
  5
BA
  8
0
 10
93.284246274961191
 20
17.05032300416023
 30
0.0
 11
93.284246274961191
 21
36.050322988694219
 31
0.0
  0
LINE
  5
BB
  8
0
 10
93.284246274961191
 20
17.05032300416023
 30
0.0
 11
86.534246274961205
 21
17.050323004160202
 31
0.0
  0
LINE
  5
BC
  8
0
 10
86.534246274961205
 20
36.050322988694219
 30
0.0
 11
93.284246274961191
 21
36.050322988694219
 31
0.0
  0
LINE
  5
BD
  8
0
 10
86.284246274961191
 20
17.300323004160202
 30
0.0
 11
86.534246274961205
 21
17.050323004160202
 31
0.0
  0
LINE
  5
BE
  8
0
 10
86.284246274961191
 20
35.800322988694219
 30
0.0
 11
86.534246274961205
 21
36.050322988694219
 31
0.0
  0
ARC
  5
BF
  8
0
 10
94.945194529905592
 20
31.30032299256418
 30
0.0
 40
8.4109482549447545
 50
145.6157527021947
 51
214.38424729781059
  0
ARC
  5
C0
  8
0
 10
94.945194529905592
 20
21.8003230003021
 30
0.0
 40
8.4109482549447545
 50
145.61575270218941
 51
214.3842472978053
  0
LINE
  5
C1
  8
0
 10
100.28424627496121
 20
19.971822996433058
 30
0.0
 11
100.28424627496121
 21
33.128822996433222
 31
0.0
  0
LINE
  5
C2
  8
3
 10
94.784246274961191
 20
32.272822996433192
 30
0.0
 11
100.28424627496121
 21
32.27282299643322
 31
0.0
  0
LINE
  5
C3
  8
0
 10
100.28424627496121
 20
20.827822996433088
 30
0.0
 11
102.28424627496121
 21
20.82782299643306
 31
0.0
  0
LINE
  5
C4
  8
1
 10
104.78424627496111
 20
26.550322996433131
 30
0.0
 11
83.784246274961191
 21
26.550322996433149
 31
0.0
  0
LINE
  5
C5
  8
0
 10
94.784246274961191
 20
17.45032299643319
 30
0.0
 11
94.784246274961191
 21
35.650322996433182
 31
0.0
  0
LINE
  5
C6
  8
0
 10
94.784246274961149
 20
17.45032299643319
 30
0.0
 11
93.284246274961191
 21
17.450322996433211
 31
0.0
  0
LINE
  5
C7
  8
0
 10
94.784246274961149
 20
35.650322996433182
 30
0.0
 11
93.284246274961177
 21
35.650322996433196
 31
0.0
  0
TEXT
  5
214
  8
0
 62
     3
 10
0.0
 20
0.0
 30
0.0
 40
10.0
  1
PN-1/4H
  7
STANDARD1
  0
ENDSEC
  0
EOF
