  0
SECTION
  2
HEADER
  9
$ACADVER
  1
AC1009
  9
$INSBASE
 10
0.0
 20
0.0
 30
0.0
  9
$EXTMIN
 10
0.0
 20
-2.960436562073669
 30
0.0
  9
$EXTMAX
 10
169.5812938172715
 20
122.2665999671118
 30
0.0
  9
$LIMMIN
 10
0.0
 20
0.0
  9
$LIMMAX
 10
187.5
 20
135.0
  9
$ORTHOMODE
 70
     1
  9
$REGENMODE
 70
     1
  9
$FILLMODE
 70
     1
  9
$QTEXTMODE
 70
     0
  9
$MIRRTEXT
 70
     0
  9
$DRAGMODE
 70
     2
  9
$LTSCALE
 40
5.0
  9
$OSMODE
 70
  3071
  9
$ATTMODE
 70
     1
  9
$TEXTSIZE
 40
2.0000000000000502
  9
$TRACEWID
 40
0.05
  9
$TEXTSTYLE
  7
STANDARD
  9
$CLAYER
  8
0
  9
$CELTYPE
  6
BYLAYER
  9
$CECOLOR
 62
   256
  9
$DIMSCALE
 40
0.5
  9
$DIMASZ
 40
3.0
  9
$DIMEXO
 40
2.0
  9
$DIMDLI
 40
0.38
  9
$DIMRND
 40
0.0
  9
$DIMDLE
 40
0.0
  9
$DIMEXE
 40
2.0
  9
$DIMTP
 40
0.0
  9
$DIMTM
 40
0.0
  9
$DIMTXT
 40
3.2000000000000002
  9
$DIMCEN
 40
0.0
  9
$DIMTSZ
 40
0.0
  9
$DIMTOL
 70
     0
  9
$DIMLIM
 70
     0
  9
$DIMTIH
 70
     0
  9
$DIMTOH
 70
     0
  9
$DIMSE1
 70
     0
  9
$DIMSE2
 70
     0
  9
$DIMTAD
 70
     1
  9
$DIMZIN
 70
     0
  9
$DIMBLK
  1

  9
$DIMASO
 70
     1
  9
$DIMSHO
 70
     0
  9
$DIMPOST
  1

  9
$DIMAPOST
  1

  9
$DIMALT
 70
     0
  9
$DIMALTD
 70
     2
  9
$DIMALTF
 40
25.399999999999999
  9
$DIMLFAC
 40
1.0
  9
$DIMTOFL
 70
     1
  9
$DIMTVP
 40
1.6000000000000001
  9
$DIMTIX
 70
     1
  9
$DIMSOXD
 70
     0
  9
$DIMSAH
 70
     0
  9
$DIMBLK1
  1

  9
$DIMBLK2
  1

  9
$DIMSTYLE
  2
STANDARD
  9
$DIMCLRD
 70
     0
  9
$DIMCLRE
 70
     0
  9
$DIMCLRT
 70
     0
  9
$DIMTFAC
 40
1.0
  9
$DIMGAP
 40
0.09
  9
$LUNITS
 70
     2
  9
$LUPREC
 70
     4
  9
$SKETCHINC
 40
0.1
  9
$FILLETRAD
 40
0.0
  9
$AUNITS
 70
     0
  9
$AUPREC
 70
     4
  9
$MENU
  1
E:\r13\win\SUPPORT\ACAD
  9
$ELEVATION
 40
0.0
  9
$PELEVATION
 40
0.0
  9
$THICKNESS
 40
0.0
  9
$LIMCHECK
 70
     0
  9
$BLIPMODE
 70
     0
  9
$CHAMFERA
 40
0.0
  9
$CHAMFERB
 40
0.0
  9
$SKPOLY
 70
     0
  9
$TDCREATE
 40
2451607.4709027782
  9
$TDUPDATE
 40
2456597.7234431482
  9
$TDINDWG
 40
0.0001850463
  9
$TDUSRTIMER
 40
0.0001850463
  9
$USRTIMER
 70
     1
  9
$ANGBASE
 50
0.0
  9
$ANGDIR
 70
     0
  9
$PDMODE
 70
     0
  9
$PDSIZE
 40
0.0
  9
$PLINEWID
 40
0.0
  9
$COORDS
 70
     1
  9
$SPLFRAME
 70
     0
  9
$SPLINETYPE
 70
     6
  9
$SPLINESEGS
 70
     8
  9
$ATTDIA
 70
     0
  9
$ATTREQ
 70
     1
  9
$HANDLING
 70
     1
  9
$HANDSEED
  5
417
  9
$SURFTAB1
 70
     6
  9
$SURFTAB2
 70
     6
  9
$SURFTYPE
 70
     6
  9
$SURFU
 70
     6
  9
$SURFV
 70
     6
  9
$UCSNAME
  2

  9
$UCSORG
 10
0.0
 20
0.0
 30
0.0
  9
$UCSXDIR
 10
1.0
 20
0.0
 30
0.0
  9
$UCSYDIR
 10
0.0
 20
1.0
 30
0.0
  9
$PUCSNAME
  2

  9
$PUCSORG
 10
0.0
 20
0.0
 30
0.0
  9
$PUCSXDIR
 10
1.0
 20
0.0
 30
0.0
  9
$PUCSYDIR
 10
0.0
 20
1.0
 30
0.0
  9
$USERI1
 70
     0
  9
$USERI2
 70
     1
  9
$USERI3
 70
     1
  9
$USERI4
 70
     0
  9
$USERI5
 70
     0
  9
$USERR1
 40
0.0
  9
$USERR2
 40
0.0
  9
$USERR3
 40
0.0
  9
$USERR4
 40
0.0
  9
$USERR5
 40
0.0
  9
$WORLDVIEW
 70
     1
  9
$SHADEDGE
 70
     3
  9
$SHADEDIF
 70
    70
  9
$TILEMODE
 70
     1
  9
$MAXACTVP
 70
    16
  9
$PLIMCHECK
 70
     0
  9
$PEXTMIN
 10
1.0000000000000000E+020
 20
1.0000000000000000E+020
 30
1.0000000000000000E+020
  9
$PEXTMAX
 10
-1.0000000000000000E+020
 20
-1.0000000000000000E+020
 30
-1.0000000000000000E+020
  9
$PLIMMIN
 10
0.0
 20
0.0
  9
$PLIMMAX
 10
12.0
 20
9.0
  9
$UNITMODE
 70
     0
  9
$VISRETAIN
 70
     0
  9
$PLINEGEN
 70
     0
  9
$PSLTSCALE
 70
     0
  0
ENDSEC
  0
SECTION
  2
TABLES
  0
TABLE
  2
VPORT
 70
     1
  0
VPORT
  2
*ACTIVE
 70
     0
 10
0.0
 20
0.0
 11
1.0
 21
1.0
 12
93.74713919532617
 22
66.313465060797697
 13
0.0
 23
0.0
 14
5.0
 24
5.0
 15
5.0
 25
5.0
 16
0.0
 26
0.0
 36
1.0
 17
0.0
 27
0.0
 37
0.0
 40
140.15365342376049
 41
2.304913294797688
 42
50.0
 43
0.0
 44
0.0
 50
0.0
 51
0.0
 71
     0
 72
   500
 73
     1
 74
     0
 75
     0
 76
     0
 77
     0
 78
     2
  0
ENDTAB
  0
TABLE
  2
LTYPE
 70
     3
  0
LTYPE
  2
CONTINUOUS
 70
     0
  3
Solid Line
 72
    65
 73
     0
 40
0.0
  0
LTYPE
  2
CENTER
 70
     0
  3
____ _ ____ _ ____ _ ____ _ ____ _ ____ _ ____
 72
    65
 73
     4
 40
2.0
 49
1.25
 49
-0.25
 49
0.25
 49
-0.25
  0
LTYPE
  2
PHANTOM2
 70
     0
  3
___ _ _ ___ _ _ ___ _ _ ___ _ _
 72
    65
 73
     6
 40
1.25
 49
0.625
 49
-0.125
 49
0.125
 49
-0.125
 49
0.125
 49
-0.125
  0
ENDTAB
  0
TABLE
  2
LAYER
 70
     3
  0
LAYER
  2
0
 70
     0
 62
     7
  6
CONTINUOUS
  0
LAYER
  2
1
 70
     0
 62
     1
  6
CENTER
  0
LAYER
  2
3
 70
     0
 62
     3
  6
CONTINUOUS
  0
ENDTAB
  0
TABLE
  2
STYLE
 70
     3
  0
STYLE
  2
STANDARD
 70
     0
 40
0.0
 41
1.0
 50
0.0
 71
     0
 42
2.0000000000000502
  3
TXT
  4
BIGFONT
  0
STYLE
  2
SIM180
 70
     0
 40
0.0
 41
1.8
 50
0.0
 71
     0
 42
0.8
  3
SIMPLEX
  4

  0
STYLE
  2
STANDARD1
 70
     0
 40
0.0
 41
1.0
 50
0.0
 71
     0
 42
3.0
  3
txt
  4

  0
ENDTAB
  0
TABLE
  2
VIEW
 70
     1
  0
VIEW
  2
ALL
 70
     0
 40
175.0
 10
143.23529411764699
 20
87.5
 41
0.0
 11
0.0
 21
0.0
 31
1.0
 12
0.0
 22
0.0
 32
0.0
 42
0.0
 43
0.0
 44
0.0
 50
0.0
 71
     0
  0
ENDTAB
  0
TABLE
  2
UCS
 70
     0
  0
ENDTAB
  0
TABLE
  2
APPID
 70
     3
  0
APPID
  2
ACAD
 70
     0
  0
APPID
  2
ACAD_MLEADERVER
 70
     0
  0
APPID
  2
ACAD_NAV_VCDISPLAY
 70
     0
  0
ENDTAB
  0
TABLE
  2
DIMSTYLE
 70
     1
  0
DIMSTYLE
  2
STANDARD
 70
     0
  3

  4

  5

  6

  7

 40
1.0
 41
0.18
 42
0.0625
 43
0.38
 44
0.18
 45
0.0
 46
0.0
 47
0.0
 48
0.0
140
0.18
141
0.09
142
0.0
143
25.399999999999999
144
1.0
145
0.0
146
1.0
147
0.09
 71
     0
 72
     0
 73
     1
 74
     1
 75
     0
 76
     0
 77
     0
 78
     0
170
     0
171
     2
172
     0
173
     0
174
     0
175
     0
176
     0
177
     0
178
     0
  0
ENDTAB
  0
ENDSEC
  0
SECTION
  2
BLOCKS
  0
BLOCK
  8
0
  2
$MODEL_SPACE
 70
     0
 10
0.0
 20
0.0
 30
0.0
  3
$MODEL_SPACE
  1

  0
ENDBLK
  5
296
  8
0
  0
BLOCK
 67
     1
  8
0
  2
$PAPER_SPACE
 70
     0
 10
0.0
 20
0.0
 30
0.0
  3
$PAPER_SPACE
  1

  0
ENDBLK
  5
294
 67
     1
  8
0
  0
ENDSEC
  0
SECTION
  2
ENTITIES
  0
LINE
  5
1B5
  8
0
 10
94.784246274961077
 20
81.348201438848946
 30
0.0
 11
93.284246274961106
 21
81.348201438848989
 31
0.0
  0
LINE
  5
1B6
  8
0
 10
94.784246274961077
 20
63.148201438848957
 30
0.0
 11
93.284246274961205
 21
63.148201438849007
 31
0.0
  0
LINE
  5
1B7
  8
1
 10
104.78424627496111
 20
72.248201438848923
 30
0.0
 11
83.784246274961134
 21
72.248201438848923
 31
0.0
  0
LINE
  5
1B8
  8
0
 10
94.784246274961149
 20
22.629802902847398
 30
0.0
 11
93.284246274961177
 21
22.62980290284737
 31
0.0
  0
LINE
  5
1B9
  8
0
 10
94.784246274961149
 20
40.829802902847391
 30
0.0
 11
93.284246274961191
 21
40.829802902847362
 31
0.0
  0
LINE
  5
1BA
  8
1
 10
104.78424627496111
 20
31.72980290284745
 30
0.0
 11
83.784246274961191
 21
31.729802902847432
 31
0.0
  0
LINE
  5
1BB
  8
1
 10
104.78424627496111
 20
112.76659997485039
 30
0.0
 11
83.784246274961191
 21
112.76659997485039
 31
0.0
  0
LINE
  5
1BC
  8
0
 10
94.784246274961149
 20
103.6665999748504
 30
0.0
 11
93.284246274961191
 21
103.6665999748505
 31
0.0
  0
LINE
  5
1BD
  8
0
 10
94.784246274961149
 20
121.8665999748504
 30
0.0
 11
93.284246274961177
 21
121.8665999748504
 31
0.0
  0
ARC
  5
1BF
  8
0
 10
97.503901430631004
 20
72.248201438849037
 30
0.0
 40
10.969655155669949
 50
150.0000001507527
 51
209.9999998492481
  0
LINE
  5
1C0
  8
0
 10
86.284246274961205
 20
62.99820144657599
 30
0.0
 11
86.284246274961205
 21
81.498201431110033
 31
0.0
  0
LINE
  5
1C1
  8
0
 10
93.284246274961205
 20
61.278546333168151
 30
0.0
 11
93.284246274961205
 21
83.217856544529795
 31
0.0
  0
LINE
  5
1C2
  8
0
 10
34.663918715013722
 20
72.748201438144022
 30
0.0
 11
28.861994919530002
 21
72.748201438144022
 31
0.0
  0
LINE
  5
1C3
  8
0
 10
34.663918715013722
 20
71.7482014357944
 30
0.0
 11
28.861994919530002
 21
71.7482014357944
 31
0.0
  0
LINE
  5
1C4
  8
0
 10
42.663918707274831
 20
77.733028991689295
 30
0.0
 11
42.663918707274831
 21
66.763373877087005
 31
0.0
  0
LINE
  5
1C5
  8
0
 10
23.663918722740849
 20
66.763373886015572
 30
0.0
 11
23.663918722740849
 21
77.733029000617861
 31
0.0
  0
CIRCLE
  5
1C6
  8
0
 10
33.163918715013722
 20
72.248201438848895
 30
0.0
 40
7.5
  0
CIRCLE
  5
1C7
  8
0
 10
33.163918715013722
 20
72.248201438848966
 30
0.0
 40
9.25
  0
LINE
  5
1C8
  8
1
 10
33.16391870850579
 20
58.391794983469147
 30
0.0
 11
33.163918721528709
 21
86.104607894239479
 31
0.0
  0
LINE
  5
1C9
  8
0
 10
29.963918715013719
 20
70.112005435845418
 30
0.0
 11
29.963918715013719
 21
71.112005435845418
 31
0.0
  0
LINE
  5
1CA
  8
0
 10
26.26391871501373
 20
72.248201431847036
 30
0.0
 11
29.963918715013719
 21
70.112005435845418
 31
0.0
  0
LINE
  5
1CB
  8
0
 10
42.663918707266191
 20
66.763373886010172
 30
0.0
 11
33.163918707274831
 21
61.278546328707399
 31
0.0
  0
LINE
  5
1CC
  8
0
 10
33.16391871500781
 20
61.27854633317871
 30
0.0
 11
23.66391871500787
 21
66.763373890478235
 31
0.0
  0
LINE
  5
1CD
  8
0
 10
26.26391871501373
 20
72.248201442091386
 30
0.0
 11
29.963918715013719
 21
74.384397438093004
 31
0.0
  0
LINE
  5
1CE
  8
0
 10
29.963918715013719
 20
74.384397438093004
 30
0.0
 11
29.963918715013719
 21
73.384397438093004
 31
0.0
  0
LINE
  5
1CF
  8
0
 10
29.963918715013719
 20
73.384397438093004
 30
0.0
 11
28.861994919530002
 21
72.748201438144022
 31
0.0
  0
LINE
  5
1D0
  8
0
 10
29.963918715013719
 20
71.112005435845418
 30
0.0
 11
28.861994919530002
 21
71.7482014357944
 31
0.0
  0
ARC
  5
1D1
  8
0
 10
94.945194529905592
 20
26.979802906716401
 30
0.0
 40
8.4109482549447545
 50
145.61575270218941
 51
214.38424729780519
  0
LINE
  5
1D2
  8
0
 10
93.284246274961191
 20
41.229802895120343
 30
0.0
 11
93.284246274961191
 21
22.229802910586361
 31
0.0
  0
LINE
  5
1D3
  8
0
 10
86.284246274961191
 20
40.979802895120372
 30
0.0
 11
86.284246274961191
 21
22.479802910586361
 31
0.0
  0
LINE
  5
1D4
  8
0
 10
86.284246274961191
 20
22.479802910586361
 30
0.0
 11
86.534246274961205
 21
22.229802910586361
 31
0.0
  0
LINE
  5
1D5
  8
0
 10
86.534246274961205
 20
22.229802910586361
 30
0.0
 11
93.284246274961191
 21
22.229802910586361
 31
0.0
  0
ARC
  5
1D6
  8
0
 10
94.945194529905592
 20
36.479802898978477
 30
0.0
 40
8.4109482549447545
 50
145.6157527021947
 51
214.3842472978105
  0
LINE
  5
1D7
  8
0
 10
88.003901380634673
 20
31.729802902847439
 30
0.0
 11
93.284246274961191
 21
31.729802902847439
 31
0.0
  0
LINE
  5
1D8
  8
0
 10
86.284246274961191
 20
40.979802895120372
 30
0.0
 11
86.534246274961205
 21
41.229802895120372
 31
0.0
  0
LINE
  5
1D9
  8
0
 10
93.284246274961191
 20
41.229802895120343
 30
0.0
 11
86.534246274961205
 21
41.229802895120372
 31
0.0
  0
LINE
  5
1DA
  8
0
 10
86.284246274961205
 20
62.99820144657599
 30
0.0
 11
88.003901388369044
 21
61.278546333168151
 31
0.0
  0
ARC
  5
1DB
  8
0
 10
89.827780723710447
 20
64.020960112160992
 30
0.0
 40
3.2935344487488898
 50
123.626429342313
 51
236.37357081959971
  0
LINE
  5
1DC
  8
0
 10
88.003901388369044
 20
61.278546333168151
 30
0.0
 11
93.284246274961205
 21
61.278546333168151
 31
0.0
  0
LINE
  5
1DD
  8
0
 10
88.003901380634701
 20
66.763373886009674
 30
0.0
 11
93.284246274961205
 21
66.763373886009674
 31
0.0
  0
LINE
  5
1DE
  8
0
 10
30.963918713643679
 20
69.913671489718439
 30
0.0
 11
30.963918713101052
 21
71.068372028410977
 31
0.0
  0
LINE
  5
1DF
  8
0
 10
36.163918714543797
 20
67.998201435089513
 30
0.0
 11
36.163918712546618
 21
72.248201436499286
 31
0.0
  0
LINE
  5
1E0
  8
0
 10
37.163918715013722
 20
66.998201435089513
 30
0.0
 11
37.163918712546618
 21
72.248201436969211
 31
0.0
  0
LINE
  5
1E1
  8
0
 10
33.163918715013722
 20
69.79820143508951
 30
0.0
 11
30.963918713101052
 21
71.068372028410977
 31
0.0
  0
LINE
  5
1E2
  8
0
 10
33.16391871500781
 20
83.217856544519677
 30
0.0
 11
42.66391871500781
 21
77.733028987220152
 31
0.0
  0
LINE
  5
1E3
  8
1
 10
45.163918707274817
 20
72.248201438848966
 30
0.0
 11
21.163918722740849
 21
72.248201438848952
 31
0.0
  0
TEXT
  5
1E4
  8
3
 10
39.083706814396187
 20
71.158931564852864
 30
0.0
 40
0.8
  1
S
 50
255.00000000000011
 41
1.8
  7
SIM180
 72
     1
 11
38.959473672746981
 21
70.695287168234117
 31
0.0
  0
LINE
  5
1E5
  8
0
 10
23.663918722740849
 20
77.733028991688215
 30
0.0
 11
33.163918722740789
 21
83.21785654899098
 31
0.0
  0
LINE
  5
1E6
  8
0
 10
31.963918715013719
 20
77.498201438848909
 30
0.0
 11
37.163918715013722
 21
77.498201438848909
 31
0.0
  0
LINE
  5
1E7
  8
0
 10
33.163918715013722
 20
76.498201438848909
 30
0.0
 11
36.163918714543797
 21
76.498201438848909
 31
0.0
  0
LINE
  5
1E8
  8
0
 10
30.963918713643679
 20
74.582731384219983
 30
0.0
 11
30.963918713101052
 21
73.428030845527445
 31
0.0
  0
LINE
  5
1E9
  8
0
 10
33.163918715013722
 20
74.698201438848912
 30
0.0
 11
30.963918713101052
 21
73.428030845527445
 31
0.0
  0
LINE
  5
1EA
  8
0
 10
31.963918715013719
 20
77.498201438848909
 30
0.0
 11
31.963918715013719
 21
75.16008165420061
 31
0.0
  0
LINE
  5
1EB
  8
0
 10
31.963918715013719
 20
75.16008165420061
 30
0.0
 11
30.963918713643679
 21
74.582731384219983
 31
0.0
  0
LINE
  5
1EC
  8
0
 10
33.163918715013722
 20
74.698201438848912
 30
0.0
 11
33.163918715013722
 21
76.498201438848909
 31
0.0
  0
LINE
  5
1ED
  8
0
 10
34.663918715013722
 20
72.2482014357944
 30
0.0
 11
34.663918715013722
 21
71.7482014357944
 31
0.0
  0
LINE
  5
1EE
  8
0
 10
34.663918715013722
 20
72.248201438144022
 30
0.0
 11
34.663918715013722
 21
72.748201438144022
 31
0.0
  0
LINE
  5
1EF
  8
0
 10
37.163918715013722
 20
77.498201438848909
 30
0.0
 11
37.163918712546618
 21
72.248201436969211
 31
0.0
  0
LINE
  5
1F0
  8
0
 10
36.163918714543797
 20
76.498201438848909
 30
0.0
 11
36.163918712546618
 21
72.248201437439135
 31
0.0
  0
TEXT
  5
1F1
  8
3
 10
38.852988122761943
 20
74.198525192279774
 30
0.0
 40
0.8
  1
L
 50
285.0
 41
1.8
  7
SIM180
 72
     1
 11
38.959473672746981
 21
73.801115709463701
 31
0.0
  0
TEXT
  5
1F2
  8
3
 10
38.137213994862194
 20
75.634201333106489
 30
0.0
 40
0.8
  1
E
 50
300.0
 41
1.8
  7
SIM180
 72
     1
 11
38.360071137719331
 21
75.248201438848284
 31
0.0
  0
TEXT
  5
1F3
  8
3
 10
39.163918715012528
 20
72.693915724563141
 30
0.0
 40
0.8
  1
E
 50
270.0
 41
1.8
  7
SIM180
 72
     1
 11
39.163918715012528
 21
72.248201438848852
 31
0.0
  0
LINE
  5
1F4
  8
0
 10
86.284246274961191
 20
103.5165999825774
 30
0.0
 11
86.284246274961191
 21
122.0165999671115
 31
0.0
  0
LINE
  5
1F5
  8
0
 10
93.284246274961191
 20
103.2665999825775
 30
0.0
 11
93.284246274961191
 21
122.2665999671115
 31
0.0
  0
ARC
  5
1F6
  8
0
 10
94.945194529905592
 20
117.5165999709814
 30
0.0
 40
8.4109482549447545
 50
145.6157527021947
 51
214.38424729781059
  0
LINE
  5
1F7
  8
0
 10
33.163918715013722
 20
67.998201435089513
 30
0.0
 11
36.163918714543797
 21
67.998201435089513
 31
0.0
  0
LINE
  5
1F8
  8
0
 10
31.963918715013719
 20
66.998201435089513
 30
0.0
 11
37.163918715013722
 21
66.998201435089513
 31
0.0
  0
LINE
  5
1F9
  8
0
 10
31.963918715013719
 20
66.998201435089513
 30
0.0
 11
31.963918715013719
 21
69.336321219737812
 31
0.0
  0
LINE
  5
1FA
  8
0
 10
31.963918715013719
 20
69.336321219737812
 30
0.0
 11
30.963918713643679
 21
69.913671489718439
 31
0.0
  0
LINE
  5
1FB
  8
0
 10
33.163918715013722
 20
69.79820143508951
 30
0.0
 11
33.163918715013722
 21
67.998201435089513
 31
0.0
  0
TEXT
  5
1FC
  8
3
 10
38.634356852005048
 20
69.723278231782643
 30
0.0
 40
0.8
  1
A
 50
240.0
 41
1.8
  7
SIM180
 72
     1
 11
38.360071137719331
 21
69.248201438849463
 31
0.0
  0
ARC
  5
1FD
  8
0
 10
89.827780723710447
 20
80.475442765536926
 30
0.0
 40
3.2935344487488898
 50
146.37357081940891
 51
236.373570657687
  0
LINE
  5
1FE
  8
0
 10
88.003901380634701
 20
77.733028991688229
 30
0.0
 11
93.284246274961205
 21
77.733028991688229
 31
0.0
  0
LINE
  5
1FF
  8
0
 10
86.284246274961205
 20
81.498201431121913
 30
0.0
 11
88.003901388369044
 21
83.217856544529752
 31
0.0
  0
LINE
  5
200
  8
0
 10
86.284246274961205
 20
81.498201431110033
 30
0.0
 11
86.534246274961205
 21
81.748201431110033
 31
0.0
  0
LINE
  5
201
  8
0
 10
88.003901388369044
 20
83.217856544529752
 30
0.0
 11
93.284246274961205
 21
83.217856544529795
 31
0.0
  0
LINE
  5
202
  8
0
 10
86.284246274961191
 20
103.5165999825774
 30
0.0
 11
86.534246274961205
 21
103.2665999825775
 31
0.0
  0
ARC
  5
203
  8
0
 10
94.945194529905592
 20
108.0165999787193
 30
0.0
 40
8.4109482549447545
 50
145.61575270218941
 51
214.3842472978053
  0
LINE
  5
204
  8
0
 10
93.284246274961191
 20
103.2665999825775
 30
0.0
 11
86.534246274961205
 21
103.2665999825775
 31
0.0
  0
LINE
  5
205
  8
0
 10
88.003901380634673
 20
112.76659997485039
 30
0.0
 11
93.284246274961191
 21
112.76659997485039
 31
0.0
  0
LINE
  5
206
  8
0
 10
86.284246274961191
 20
122.0165999671115
 30
0.0
 11
86.534246274961205
 21
122.2665999671115
 31
0.0
  0
LINE
  5
207
  8
0
 10
86.534246274961205
 20
122.2665999671115
 30
0.0
 11
93.284246274961191
 21
122.2665999671115
 31
0.0
  0
LINE
  5
209
  8
0
 10
94.784246274961205
 20
63.148201438848957
 30
0.0
 11
94.784246274961205
 21
81.348201438848946
 31
0.0
  0
LINE
  5
20A
  8
0
 10
102.28424627496121
 20
66.525701438848841
 30
0.0
 11
102.28424627496121
 21
77.970701438849005
 31
0.0
  0
LINE
  5
20B
  8
0
 10
100.5842462749611
 20
65.669701438848847
 30
0.0
 11
100.5842462749611
 21
78.826701438849
 31
0.0
  0
CIRCLE
  5
20C
  8
0
 10
157.5812938249986
 20
72.248201438848895
 30
0.0
 40
9.1000000000000654
  0
CIRCLE
  5
20D
  8
3
 10
157.5812938249986
 20
72.248201438845413
 30
0.0
 40
5.7225000000000001
  0
CIRCLE
  5
20E
  8
0
 10
157.5812938249986
 20
72.248201438845413
 30
0.0
 40
6.5785
  0
LINE
  5
20F
  8
0
 10
167.0812938172715
 20
77.733028991678822
 30
0.0
 11
167.0812938172715
 21
66.763373877076504
 31
0.0
  0
LINE
  5
210
  8
0
 10
148.08129383273749
 20
66.76337388600507
 30
0.0
 11
148.08129383273749
 21
77.733029000607374
 31
0.0
  0
LINE
  5
211
  8
1
 10
157.58129382499851
 20
86.104607890467875
 30
0.0
 11
157.5812938249986
 21
58.391794987216343
 31
0.0
  0
CIRCLE
  5
212
  8
0
 10
157.5812938249986
 20
72.248201438845413
 30
0.0
 40
3.75
  0
CIRCLE
  5
213
  8
0
 10
157.5812938249986
 20
72.248201438845413
 30
0.0
 40
3.1211066486044672
  0
LINE
  5
21A
  8
0
 10
157.58129382500451
 20
61.278546333174688
 30
0.0
 11
148.08129382500451
 21
66.763373890474213
 31
0.0
  0
LINE
  5
21B
  8
0
 10
100.5842462749611
 20
38.308302902847508
 30
0.0
 11
100.5842462749611
 21
25.151302902847359
 31
0.0
  0
LINE
  5
21C
  8
0
 10
94.784246274961191
 20
40.829802902847391
 30
0.0
 11
94.784246274961191
 21
22.629802902847398
 31
0.0
  0
LINE
  5
21D
  8
0
 10
102.28424627496121
 20
37.452302902847521
 30
0.0
 11
102.28424627496121
 21
26.007302902847361
 31
0.0
  0
LINE
  5
21E
  8
0
 10
100.5842462749611
 20
26.007302902847378
 30
0.0
 11
102.28424627496121
 21
26.007302902847361
 31
0.0
  0
LINE
  5
21F
  8
3
 10
94.784246274961191
 20
26.007302902847389
 30
0.0
 11
100.5842462749611
 21
26.00730290284735
 31
0.0
  0
LINE
  5
220
  8
0
 10
94.784246274961191
 20
25.151302902847348
 30
0.0
 11
100.5842462749611
 21
25.15130290284737
 31
0.0
  0
LINE
  5
225
  8
0
 10
100.5842462749611
 20
37.452302902847492
 30
0.0
 11
102.28424627496121
 21
37.452302902847521
 31
0.0
  0
LINE
  5
226
  8
0
 10
94.784246274961191
 20
38.308302902847508
 30
0.0
 11
100.5842462749611
 21
38.308302902847508
 31
0.0
  0
LINE
  5
227
  8
3
 10
94.784246274961191
 20
37.452302902847507
 30
0.0
 11
100.5842462749611
 21
37.452302902847528
 31
0.0
  0
LINE
  5
228
  8
0
 10
100.5842462749611
 20
66.525701438848841
 30
0.0
 11
102.28424627496121
 21
66.525701438848841
 31
0.0
  0
LINE
  5
229
  8
3
 10
94.784246274961149
 20
66.525701438848841
 30
0.0
 11
100.5842462749611
 21
66.525701438848841
 31
0.0
  0
LINE
  5
22A
  8
0
 10
94.784246274961149
 20
65.669701438848847
 30
0.0
 11
100.5842462749611
 21
65.669701438848847
 31
0.0
  0
LINE
  5
22C
  8
0
 10
167.0812938172715
 20
66.763373886006136
 30
0.0
 11
157.5812938172715
 21
61.278546328703392
 31
0.0
  0
LINE
  5
22D
  8
0
 10
148.0812938327461
 20
77.733028991684222
 30
0.0
 11
157.58129383273749
 21
83.217856548986987
 31
0.0
  0
LINE
  5
22E
  8
1
 10
169.5812938172715
 20
72.248201433209786
 30
0.0
 11
145.5812938327374
 21
72.248201444487975
 31
0.0
  0
LINE
  5
22F
  8
0
 10
100.5842462749611
 20
106.1880999748503
 30
0.0
 11
100.5842462749611
 21
119.3450999748505
 31
0.0
  0
LINE
  5
230
  8
0
 10
102.28424627496121
 20
107.0440999748503
 30
0.0
 11
102.28424627496121
 21
118.4890999748505
 31
0.0
  0
LINE
  5
231
  8
0
 10
94.784246274961191
 20
103.6665999748504
 30
0.0
 11
94.784246274961191
 21
121.8665999748504
 31
0.0
  0
LINE
  5
232
  8
0
 10
100.5842462749611
 20
77.970701438849005
 30
0.0
 11
102.28424627496121
 21
77.970701438849005
 31
0.0
  0
LINE
  5
233
  8
0
 10
94.784246274961149
 20
78.826701438849057
 30
0.0
 11
100.5842462749611
 21
78.826701438849
 31
0.0
  0
LINE
  5
234
  8
3
 10
94.784246274961149
 20
77.970701438849005
 30
0.0
 11
100.5842462749611
 21
77.970701438849005
 31
0.0
  0
LINE
  5
235
  8
0
 10
100.5842462749611
 20
107.0440999748503
 30
0.0
 11
102.28424627496121
 21
107.0440999748503
 31
0.0
  0
LINE
  5
236
  8
3
 10
94.784246274961191
 20
107.0440999748503
 30
0.0
 11
100.5842462749611
 21
107.0440999748503
 31
0.0
  0
LINE
  5
237
  8
0
 10
94.784246274961191
 20
106.1880999748503
 30
0.0
 11
100.5842462749611
 21
106.1880999748503
 31
0.0
  0
LINE
  5
238
  8
0
 10
100.5842462749611
 20
118.4890999748504
 30
0.0
 11
102.28424627496121
 21
118.4890999748505
 31
0.0
  0
LINE
  5
239
  8
0
 10
94.784246274961191
 20
119.3450999748505
 30
0.0
 11
100.5842462749611
 21
119.3450999748504
 31
0.0
  0
LINE
  5
23A
  8
3
 10
94.784246274961191
 20
118.4890999748504
 30
0.0
 11
100.5842462749611
 21
118.4890999748505
 31
0.0
  0
LINE
  5
23B
  8
0
 10
157.58129382500451
 20
83.217856544515683
 30
0.0
 11
167.08129382500451
 21
77.733028987216159
 31
0.0
  0
TEXT
  5
382
  8
0
 62
     3
 10
0.0
 20
0.0
 30
0.0
 40
10.0
  1
PN-1/4D
  7
STANDARD1
  0
ENDSEC
  0
EOF
