  0
SECTION
  2
HEADER
  9
$ACADVER
  1
AC1009
  9
$INSBASE
 10
0.0
 20
0.0
 30
0.0
  9
$EXTMIN
 10
0.0
 20
-2.960436562073669
 30
0.0
  9
$EXTMAX
 10
261.07161864990587
 20
202.64524413791611
 30
0.0
  9
$LIMMIN
 10
0.0
 20
0.0
  9
$LIMMAX
 10
375.0
 20
270.0
  9
$ORTHOMODE
 70
     1
  9
$REGENMODE
 70
     1
  9
$FILLMODE
 70
     1
  9
$QTEXTMODE
 70
     0
  9
$MIRRTEXT
 70
     0
  9
$DRAGMODE
 70
     2
  9
$LTSCALE
 40
10.0
  9
$OSMODE
 70
  3071
  9
$ATTMODE
 70
     1
  9
$TEXTSIZE
 40
0.2
  9
$TRACEWID
 40
0.05
  9
$TEXTSTYLE
  7
STANDARD
  9
$CLAYER
  8
0
  9
$CELTYPE
  6
BYLAYER
  9
$CECOLOR
 62
   256
  9
$DIMSCALE
 40
1.0
  9
$DIMASZ
 40
3.0
  9
$DIMEXO
 40
2.0
  9
$DIMDLI
 40
0.38
  9
$DIMRND
 40
0.0
  9
$DIMDLE
 40
0.0
  9
$DIMEXE
 40
2.0
  9
$DIMTP
 40
0.0
  9
$DIMTM
 40
0.0
  9
$DIMTXT
 40
3.2000000000000002
  9
$DIMCEN
 40
0.0
  9
$DIMTSZ
 40
0.0
  9
$DIMTOL
 70
     0
  9
$DIMLIM
 70
     0
  9
$DIMTIH
 70
     0
  9
$DIMTOH
 70
     0
  9
$DIMSE1
 70
     0
  9
$DIMSE2
 70
     0
  9
$DIMTAD
 70
     1
  9
$DIMZIN
 70
     0
  9
$DIMBLK
  1

  9
$DIMASO
 70
     1
  9
$DIMSHO
 70
     0
  9
$DIMPOST
  1

  9
$DIMAPOST
  1

  9
$DIMALT
 70
     0
  9
$DIMALTD
 70
     2
  9
$DIMALTF
 40
25.399999999999999
  9
$DIMLFAC
 40
1.0
  9
$DIMTOFL
 70
     1
  9
$DIMTVP
 40
1.6000000000000001
  9
$DIMTIX
 70
     1
  9
$DIMSOXD
 70
     0
  9
$DIMSAH
 70
     0
  9
$DIMBLK1
  1

  9
$DIMBLK2
  1

  9
$DIMSTYLE
  2
STANDARD
  9
$DIMCLRD
 70
     0
  9
$DIMCLRE
 70
     0
  9
$DIMCLRT
 70
     0
  9
$DIMTFAC
 40
1.0
  9
$DIMGAP
 40
0.09
  9
$LUNITS
 70
     2
  9
$LUPREC
 70
     4
  9
$SKETCHINC
 40
0.1
  9
$FILLETRAD
 40
0.0
  9
$AUNITS
 70
     0
  9
$AUPREC
 70
     4
  9
$MENU
  1
E:\r13\win\SUPPORT\ACAD
  9
$ELEVATION
 40
0.0
  9
$PELEVATION
 40
0.0
  9
$THICKNESS
 40
0.0
  9
$LIMCHECK
 70
     0
  9
$BLIPMODE
 70
     0
  9
$CHAMFERA
 40
0.0
  9
$CHAMFERB
 40
0.0
  9
$SKPOLY
 70
     0
  9
$TDCREATE
 40
2449839.7972337962
  9
$TDUPDATE
 40
2456597.7232158449
  9
$TDINDWG
 40
0.1985946644
  9
$TDUSRTIMER
 40
0.1985946644
  9
$USRTIMER
 70
     1
  9
$ANGBASE
 50
0.0
  9
$ANGDIR
 70
     0
  9
$PDMODE
 70
     0
  9
$PDSIZE
 40
0.0
  9
$PLINEWID
 40
0.0
  9
$COORDS
 70
     1
  9
$SPLFRAME
 70
     0
  9
$SPLINETYPE
 70
     6
  9
$SPLINESEGS
 70
     8
  9
$ATTDIA
 70
     0
  9
$ATTREQ
 70
     1
  9
$HANDLING
 70
     1
  9
$HANDSEED
  5
348
  9
$SURFTAB1
 70
     6
  9
$SURFTAB2
 70
     6
  9
$SURFTYPE
 70
     6
  9
$SURFU
 70
     6
  9
$SURFV
 70
     6
  9
$UCSNAME
  2

  9
$UCSORG
 10
0.0
 20
0.0
 30
0.0
  9
$UCSXDIR
 10
1.0
 20
0.0
 30
0.0
  9
$UCSYDIR
 10
0.0
 20
1.0
 30
0.0
  9
$PUCSNAME
  2

  9
$PUCSORG
 10
0.0
 20
0.0
 30
0.0
  9
$PUCSXDIR
 10
1.0
 20
0.0
 30
0.0
  9
$PUCSYDIR
 10
0.0
 20
1.0
 30
0.0
  9
$USERI1
 70
     0
  9
$USERI2
 70
     1
  9
$USERI3
 70
     1
  9
$USERI4
 70
     0
  9
$USERI5
 70
     0
  9
$USERR1
 40
0.0
  9
$USERR2
 40
0.0
  9
$USERR3
 40
0.0
  9
$USERR4
 40
0.0
  9
$USERR5
 40
0.0
  9
$WORLDVIEW
 70
     1
  9
$SHADEDGE
 70
     3
  9
$SHADEDIF
 70
    70
  9
$TILEMODE
 70
     1
  9
$MAXACTVP
 70
    16
  9
$PLIMCHECK
 70
     0
  9
$PEXTMIN
 10
1.0000000000000000E+020
 20
1.0000000000000000E+020
 30
1.0000000000000000E+020
  9
$PEXTMAX
 10
-1.0000000000000000E+020
 20
-1.0000000000000000E+020
 30
-1.0000000000000000E+020
  9
$PLIMMIN
 10
0.0
 20
0.0
  9
$PLIMMAX
 10
12.0
 20
9.0
  9
$UNITMODE
 70
     0
  9
$VISRETAIN
 70
     0
  9
$PLINEGEN
 70
     0
  9
$PSLTSCALE
 70
     0
  0
ENDSEC
  0
SECTION
  2
TABLES
  0
TABLE
  2
VPORT
 70
     1
  0
VPORT
  2
*ACTIVE
 70
     0
 10
0.0
 20
0.0
 11
1.0
 21
1.0
 12
187.49427839065231
 22
134.10366293909439
 13
0.0
 23
0.0
 14
10.0
 24
10.0
 15
10.0
 25
10.0
 16
0.0
 26
0.0
 36
1.0
 17
0.0
 27
0.0
 37
0.0
 40
277.29405978699532
 41
2.304913294797688
 42
50.0
 43
0.0
 44
0.0
 50
0.0
 51
0.0
 71
     0
 72
   500
 73
     1
 74
     0
 75
     0
 76
     0
 77
     0
 78
     2
  0
ENDTAB
  0
TABLE
  2
LTYPE
 70
     4
  0
LTYPE
  2
CONTINUOUS
 70
     0
  3
Solid Line
 72
    65
 73
     0
 40
0.0
  0
LTYPE
  2
CENTER
 70
     0
  3
____ _ ____ _ ____ _ ____ _ ____ _ ____ _ ____
 72
    65
 73
     4
 40
2.0
 49
1.25
 49
-0.25
 49
0.25
 49
-0.25
  0
LTYPE
  2
HIDDEN
 70
     0
  3
_ _ _ _ _ _ _ _ _ _ _ _ _ _ _ _ _ _ _ _ _ _ _
 72
    65
 73
     2
 40
0.375
 49
0.25
 49
-0.125
  0
LTYPE
  2
PHANTOM2
 70
     0
  3
___ _ _ ___ _ _ ___ _ _ ___ _ _
 72
    65
 73
     6
 40
1.25
 49
0.625
 49
-0.125
 49
0.125
 49
-0.125
 49
0.125
 49
-0.125
  0
ENDTAB
  0
TABLE
  2
LAYER
 70
     5
  0
LAYER
  2
0
 70
     0
 62
     7
  6
CONTINUOUS
  0
LAYER
  2
1
 70
     0
 62
     1
  6
CENTER
  0
LAYER
  2
2
 70
     0
 62
     2
  6
HIDDEN
  0
LAYER
  2
3
 70
     0
 62
     3
  6
CONTINUOUS
  0
LAYER
  2
DEFPOINTS
 70
     0
 62
     7
  6
CONTINUOUS
  0
ENDTAB
  0
TABLE
  2
STYLE
 70
     2
  0
STYLE
  2
STANDARD
 70
     0
 40
0.0
 41
1.0
 50
0.0
 71
     0
 42
0.2
  3
TXT
  4
BIGFONT
  0
STYLE
  2
STANDARD1
 70
     0
 40
0.0
 41
1.0
 50
0.0
 71
     0
 42
3.0
  3
txt
  4

  0
ENDTAB
  0
TABLE
  2
VIEW
 70
     1
  0
VIEW
  2
ALL
 70
     0
 40
270.0
 10
220.99159663865549
 20
135.0
 41
0.0
 11
0.0
 21
0.0
 31
1.0
 12
0.0
 22
0.0
 32
0.0
 42
0.0
 43
0.0
 44
0.0
 50
0.0
 71
     0
  0
ENDTAB
  0
TABLE
  2
UCS
 70
     0
  0
ENDTAB
  0
TABLE
  2
APPID
 70
     3
  0
APPID
  2
ACAD
 70
     0
  0
APPID
  2
ACAD_MLEADERVER
 70
     0
  0
APPID
  2
ACAD_NAV_VCDISPLAY
 70
     0
  0
ENDTAB
  0
TABLE
  2
DIMSTYLE
 70
     1
  0
DIMSTYLE
  2
STANDARD
 70
     0
  3

  4

  5

  6

  7

 40
1.0
 41
0.18
 42
0.0625
 43
0.38
 44
0.18
 45
0.0
 46
0.0
 47
0.0
 48
0.0
140
0.18
141
0.09
142
0.0
143
25.399999999999999
144
1.0
145
0.0
146
1.0
147
0.09
 71
     0
 72
     0
 73
     1
 74
     1
 75
     0
 76
     0
 77
     0
 78
     0
170
     0
171
     2
172
     0
173
     0
174
     0
175
     0
176
     0
177
     0
178
     0
  0
ENDTAB
  0
ENDSEC
  0
SECTION
  2
BLOCKS
  0
BLOCK
  8
0
  2
$MODEL_SPACE
 70
     0
 10
0.0
 20
0.0
 30
0.0
  3
$MODEL_SPACE
  1

  0
ENDBLK
  5
16C
  8
0
  0
BLOCK
 67
     1
  8
0
  2
$PAPER_SPACE
 70
     0
 10
0.0
 20
0.0
 30
0.0
  3
$PAPER_SPACE
  1

  0
ENDBLK
  5
16A
 67
     1
  8
0
  0
ENDSEC
  0
SECTION
  2
ENTITIES
  0
LINE
  5
36
  8
2
 10
128.0716186499057
 20
119.64524413791609
 30
0.0
 11
135.0716186499061
 21
119.64524413791609
 31
0.0
  0
LINE
  5
37
  8
2
 10
128.0716186499036
 20
139.64524413791599
 30
0.0
 11
135.0716186499061
 21
139.64524413791599
 31
0.0
  0
LINE
  5
38
  8
2
 10
128.0716186499061
 20
103.64524413791599
 30
0.0
 11
135.07161864990599
 21
103.64524413791599
 31
0.0
  0
LINE
  5
39
  8
2
 10
128.0716186499061
 20
83.645244137916009
 30
0.0
 11
135.07161864990599
 21
83.645244137916009
 31
0.0
  0
LINE
  5
3A
  8
1
 10
132.07161864990599
 20
149.64524413791599
 30
0.0
 11
132.07161864990579
 21
83.645244137916009
 31
0.0
  0
LINE
  5
3B
  8
0
 10
125.0716186499059
 20
104.64524413791599
 30
0.0
 11
125.0716186499059
 21
118.64524413791599
 31
0.0
  0
LINE
  5
3C
  8
0
 10
125.0716186499059
 20
118.64524413791599
 30
0.0
 11
139.07161864990579
 21
118.64524413791599
 31
0.0
  0
LINE
  5
3D
  8
0
 10
139.07161864990579
 20
118.64524413791599
 30
0.0
 11
139.07161864990579
 21
104.64524413791599
 31
0.0
  0
LINE
  5
3E
  8
0
 10
139.07161864990579
 20
104.64524413791599
 30
0.0
 11
125.0716186499059
 21
104.64524413791599
 31
0.0
  0
CIRCLE
  5
3F
  8
2
 10
132.0716186499061
 20
111.64524413791599
 30
0.0
 40
3.0
  0
CIRCLE
  5
40
  8
2
 10
132.0716186499061
 20
111.64524413791599
 30
0.0
 40
2.458499999999999
  0
LINE
  5
41
  8
0
 10
108.071618649906
 20
139.64524413791599
 30
0.0
 11
128.0716186499036
 21
139.64524413791599
 31
0.0
  0
LINE
  5
42
  8
0
 10
108.071618649906
 20
83.645244137916009
 30
0.0
 11
128.0716186499061
 21
83.645244137916009
 31
0.0
  0
LINE
  5
43
  8
0
 10
108.0716186499058
 20
83.645244137916066
 30
0.0
 11
108.071618649906
 21
139.64524413791599
 31
0.0
  0
LINE
  5
44
  8
2
 10
135.07161864990599
 20
83.645244137916009
 30
0.0
 11
135.07161864990599
 21
103.64524413791599
 31
0.0
  0
LINE
  5
45
  8
0
 10
128.0716186499061
 20
103.64524413791599
 30
0.0
 11
124.0716186499059
 21
103.64524413791599
 31
0.0
  0
LINE
  5
46
  8
0
 10
124.0716186499059
 20
119.64524413791599
 30
0.0
 11
128.0716186499059
 21
119.64524413791609
 31
0.0
  0
LINE
  5
47
  8
2
 10
135.07161864990599
 20
119.64524413791599
 30
0.0
 11
135.07161864990599
 21
139.64524413791599
 31
0.0
  0
LINE
  5
48
  8
0
 10
124.0716186499059
 20
103.64524413791599
 30
0.0
 11
124.0716186499059
 21
119.64524413791599
 31
0.0
  0
LINE
  5
49
  8
2
 10
136.07161864990599
 20
104.64524413791599
 30
0.0
 11
136.07161864990599
 21
118.64524413791599
 31
0.0
  0
LINE
  5
4A
  8
2
 10
128.0716186499059
 20
104.64524413791599
 30
0.0
 11
128.0716186499059
 21
118.64524413791599
 31
0.0
  0
LINE
  5
4B
  8
0
 10
136.07161864990599
 20
104.64524413791599
 30
0.0
 11
136.07161864990599
 21
83.645244137916009
 31
0.0
  0
LINE
  5
4C
  8
0
 10
128.0716186499036
 20
83.645244137916009
 30
0.0
 11
128.07161864990599
 21
104.64524413791599
 31
0.0
  0
LINE
  5
4D
  8
0
 10
128.07161864990599
 20
118.64524413791599
 30
0.0
 11
128.0716186499032
 21
142.64524413791599
 31
0.0
  0
LINE
  5
4E
  8
0
 10
136.07161864990599
 20
118.64524413791599
 30
0.0
 11
136.07161864990599
 21
142.64524413791599
 31
0.0
  0
LINE
  5
4F
  8
1
 10
103.0716186499059
 20
111.64524413791599
 30
0.0
 11
144.07161864990599
 21
111.64524413791599
 31
0.0
  0
LINE
  5
50
  8
0
 10
136.07161864990599
 20
142.64524413791599
 30
0.0
 11
128.0716186499059
 21
142.64524413791599
 31
0.0
  0
LINE
  5
51
  8
0
 10
134.07161864990599
 20
144.64524413791599
 30
0.0
 11
130.0716186499059
 21
144.64524413791599
 31
0.0
  0
LINE
  5
52
  8
0
 10
128.0716186499059
 20
142.64524413791599
 30
0.0
 11
130.0716186499059
 21
144.64524413791599
 31
0.0
  0
LINE
  5
53
  8
0
 10
134.07161864990599
 20
144.64524413791599
 30
0.0
 11
136.07161864990599
 21
142.64524413791599
 31
0.0
  0
ARC
  5
54
  8
0
 10
123.071618649906
 20
83.645244137916009
 30
0.0
 40
5.0
 50
289.99999999999699
 51
0.0
  0
ARC
  5
55
  8
1
 10
123.071618649906
 20
83.645244137916009
 30
0.0
 40
9.0
 50
289.99999999999869
 51
0.0
  0
ARC
  5
56
  8
0
 10
123.071618649906
 20
83.645244137916009
 30
0.0
 40
13.0
 50
289.99999999999949
 51
0.0
  0
LINE
  5
57
  8
1
 10
126.1497999398369
 20
75.188010550842833
 30
0.0
 11
108.0571958326276
 21
68.602841195456236
 31
0.0
  0
LINE
  5
58
  8
0
 10
124.7817193665343
 20
78.946781033986454
 30
0.0
 11
113.2669636048265
 21
74.755752681879542
 31
0.0
  0
LINE
  5
59
  8
0
 10
127.5178805131396
 20
71.429240067699212
 30
0.0
 11
116.0031247514317
 21
67.238211715592357
 31
0.0
  0
LINE
  5
5A
  8
0
 10
113.2669636048265
 20
74.755752681879585
 30
0.0
 11
116.0031247514317
 21
67.238211715592286
 31
0.0
  0
LINE
  5
5B
  8
0
 10
112.071618649906
 20
72.192327153656393
 30
0.0
 11
113.43969922320851
 21
68.433556670512829
 31
0.0
  0
LINE
  5
5C
  8
0
 10
112.071618649906
 20
72.192327153656393
 30
0.0
 11
113.2669636048265
 21
74.755752681879542
 31
0.0
  0
LINE
  5
5D
  8
0
 10
113.43969922320851
 20
68.433556670512829
 30
0.0
 11
116.0031247514317
 21
67.238211715592357
 31
0.0
  0
POLYLINE
  5
5E
  8
0
 66
     1
 10
0.0
 20
0.0
 30
0.0
  0
VERTEX
  5
5F
  8
0
 10
186.0716186499057
 20
70.996982198735907
 30
0.0
 42
-0.1041679131297669
 50
270.0
  0
VERTEX
  5
60
  8
0
 10
185.771075420356
 20
69.570045439511489
 30
0.0
 42
-0.1006642326453978
 50
270.0
  0
VERTEX
  5
61
  8
0
 10
184.90004577465189
 20
68.339130101181183
 30
0.0
 42
-0.0960755927009799
 70
     2
 50
223.21917889371571
  0
VERTEX
  5
62
  8
0
 10
183.49753931446031
 20
67.454439774250716
 30
0.0
 42
-0.1107981165819755
 50
270.0
  0
VERTEX
  5
63
  8
0
 10
182.0716186499059
 20
67.238211715592172
 30
0.0
 42
-0.0930649262563743
 50
270.0
  0
VERTEX
  5
64
  8
0
 10
180.52946116197
 20
67.527761071654425
 30
0.0
 42
-0.0960755927009122
 50
270.0
  0
VERTEX
  5
65
  8
0
 10
179.24319152515969
 20
68.339130101181183
 30
0.0
 42
-0.10066423264539
 70
     2
 50
136.78082110628421
  0
VERTEX
  5
66
  8
0
 10
178.37216187945569
 20
69.570045439511489
 30
0.0
 42
-0.1041679131294113
 50
270.0
  0
VERTEX
  5
67
  8
0
 10
178.07161864992889
 20
70.996982198735907
 30
0.0
 42
-0.1041679131297573
 50
270.0
  0
SEQEND
  5
68
  8
0
  0
LINE
  5
69
  8
2
 10
186.0716186499057
 20
83.645244137915881
 30
0.0
 11
178.07161864990579
 21
83.645244137915881
 31
0.0
  0
LINE
  5
6A
  8
2
 10
186.07161864990579
 20
139.64524413791639
 30
0.0
 11
178.07161864990579
 21
139.64524413791639
 31
0.0
  0
LINE
  5
6B
  8
0
 10
188.0716186499057
 20
119.64524413791639
 30
0.0
 11
186.0716186499057
 21
119.64524413791639
 31
0.0
  0
LINE
  5
6C
  8
0
 10
188.0716186499057
 20
139.64524413791651
 30
0.0
 11
188.0716186499057
 21
119.64524413791639
 31
0.0
  0
LINE
  5
6D
  8
0
 10
186.0716186499057
 20
139.64524413791651
 30
0.0
 11
188.0716186499057
 21
139.64524413791651
 31
0.0
  0
LINE
  5
6E
  8
2
 10
178.0716186499057
 20
104.64524413791609
 30
0.0
 11
178.0716186499057
 21
118.64524413791609
 31
0.0
  0
LINE
  5
6F
  8
0
 10
178.07161864990579
 20
118.64524413791609
 30
0.0
 11
178.07161864990579
 21
142.64524413791591
 31
0.0
  0
LINE
  5
70
  8
0
 10
186.0716186499057
 20
83.645244137915881
 30
0.0
 11
188.0716186499057
 21
83.645244137915881
 31
0.0
  0
LINE
  5
71
  8
0
 10
178.07161864990579
 20
70.996982198735907
 30
0.0
 11
178.07161864990579
 21
104.6452441379159
 31
0.0
  0
LINE
  5
72
  8
0
 10
188.0716186499057
 20
83.645244137915881
 30
0.0
 11
188.0716186499057
 21
103.64524413791599
 31
0.0
  0
LINE
  5
73
  8
0
 10
196.0716186499057
 20
104.64524413791599
 30
0.0
 11
175.0716186498943
 21
104.64524413791599
 31
0.0
  0
LINE
  5
74
  8
0
 10
175.0716186498943
 20
118.64524413791609
 30
0.0
 11
196.0716186499057
 21
118.64524413791599
 31
0.0
  0
LINE
  5
75
  8
0
 10
196.0716186499057
 20
118.64524413791599
 30
0.0
 11
196.0716186499057
 21
104.64524413791599
 31
0.0
  0
LINE
  5
76
  8
0
 10
188.0716186499057
 20
103.64524413791599
 30
0.0
 11
186.0716186499057
 21
103.64524413791599
 31
0.0
  0
LINE
  5
77
  8
2
 10
186.0716186499057
 20
104.64524413791609
 30
0.0
 11
186.0716186499057
 21
118.64524413791609
 31
0.0
  0
LINE
  5
78
  8
2
 10
196.0716186499057
 20
108.64524413791599
 30
0.0
 11
188.0716186499057
 21
108.64524413791599
 31
0.0
  0
LINE
  5
79
  8
2
 10
196.0716186499057
 20
109.18674413791589
 30
0.0
 11
188.0716186499057
 21
109.18674413791589
 31
0.0
  0
LINE
  5
7A
  8
2
 10
196.0716186499057
 20
114.103744137916
 30
0.0
 11
188.0716186499057
 21
114.103744137916
 31
0.0
  0
LINE
  5
7B
  8
2
 10
196.0716186499057
 20
114.64524413791599
 30
0.0
 11
188.0716186499057
 21
114.64524413791599
 31
0.0
  0
LINE
  5
7C
  8
0
 10
186.07161864990579
 20
118.64524413791599
 30
0.0
 11
186.07161864990579
 21
142.64524413791599
 31
0.0
  0
LINE
  5
7D
  8
0
 10
186.07161864990579
 20
142.64524413791599
 30
0.0
 11
178.07161864990579
 21
142.64524413791591
 31
0.0
  0
LINE
  5
7E
  8
0
 10
184.07161864990579
 20
144.64524413791599
 30
0.0
 11
180.0716186499057
 21
144.64524413791599
 31
0.0
  0
LINE
  5
7F
  8
0
 10
178.0716186499057
 20
142.64524413791599
 30
0.0
 11
180.0716186499057
 21
144.64524413791599
 31
0.0
  0
LINE
  5
80
  8
0
 10
184.07161864990579
 20
144.64524413791599
 30
0.0
 11
186.07161864990579
 21
142.64524413791599
 31
0.0
  0
LINE
  5
81
  8
1
 10
182.0716186499059
 20
149.64524413791599
 30
0.0
 11
182.0716186499059
 21
62.23821171558933
 31
0.0
  0
LINE
  5
82
  8
0
 10
175.0716186498943
 20
118.64524413791609
 30
0.0
 11
175.0716186498943
 21
104.64524413791599
 31
0.0
  0
LINE
  5
83
  8
1
 10
170.0716186498943
 20
111.64524413791609
 30
0.0
 11
201.0716186499057
 21
111.64524413791599
 31
0.0
  0
LINE
  5
84
  8
0
 10
186.0716186499057
 20
104.64524413791609
 30
0.0
 11
186.0716186499057
 21
70.996982198735907
 31
0.0
  0
POLYLINE
  5
85
  8
0
 66
     1
 10
0.0
 20
0.0
 30
0.0
 70
     1
  0
VERTEX
  5
86
  8
0
 10
64.071618649905943
 20
70.312941912084682
 30
0.0
 42
0.1041679131297826
 50
90.0
  0
VERTEX
  5
87
  8
0
 10
63.921347035130971
 20
71.026410291697118
 30
0.0
 42
0.100664232645368
 50
90.0
  0
VERTEX
  5
88
  8
0
 10
63.485832212278993
 20
71.641867960862157
 30
0.0
 42
0.0960755927010104
 70
     2
 50
136.78082110628489
  0
VERTEX
  5
89
  8
0
 10
62.784578982183049
 20
72.084213124327391
 30
0.0
 42
0.1107981165820525
 50
136.78082110628489
  0
VERTEX
  5
8A
  8
0
 10
62.07161864990583
 20
72.192327153656663
 30
0.0
 42
0.0930649262564012
 50
90.0
  0
VERTEX
  5
8B
  8
0
 10
61.300539905938123
 20
72.047552475625537
 30
0.0
 42
0.0960755927010265
 50
90.0
  0
VERTEX
  5
8C
  8
0
 10
60.657405087532659
 20
71.641867960862157
 30
0.0
 42
0.1006642326453653
 70
     2
 50
223.219178893715
  0
VERTEX
  5
8D
  8
0
 10
60.221890264680589
 20
71.026410291697005
 30
0.0
 42
0.104167913129741
 50
223.219178893715
  0
VERTEX
  5
8E
  8
0
 10
60.071618649905709
 20
70.312941912084682
 30
0.0
 42
0.104167913129741
 50
90.0
  0
VERTEX
  5
8F
  8
0
 10
60.221890264680589
 20
69.599473532472359
 30
0.0
 42
0.1006642326453655
 50
90.0
  0
VERTEX
  5
90
  8
0
 10
60.657405087532659
 20
68.984015863307206
 30
0.0
 42
0.0960755927009459
 70
     2
 50
316.78082110628498
  0
VERTEX
  5
91
  8
0
 10
61.300539905937903
 20
68.578331348543827
 30
0.0
 42
0.0930649262563742
 50
316.78082110628498
  0
VERTEX
  5
92
  8
0
 10
62.07161864990583
 20
68.433556670512701
 30
0.0
 42
0.093064926256354
 50
90.0
  0
VERTEX
  5
93
  8
0
 10
62.842697393873941
 20
68.578331348543827
 30
0.0
 42
0.0960755927008853
 50
90.0
  0
VERTEX
  5
94
  8
0
 10
63.485832212278993
 20
68.984015863307206
 30
0.0
 42
0.1006642326453785
 70
     2
 50
43.219178893714997
  0
VERTEX
  5
95
  8
0
 10
63.92134703513112
 20
69.599473532472473
 30
0.0
 42
0.1041679131297187
 50
43.219178893714997
  0
SEQEND
  5
96
  8
0
  0
POLYLINE
  5
97
  8
0
 66
     1
 10
0.0
 20
0.0
 30
0.0
 70
     1
  0
VERTEX
  5
98
  8
0
 10
58.071618649905972
 20
70.996982198735907
 30
0.0
 42
0.1041679131297669
 50
90.0
  0
VERTEX
  5
99
  8
0
 10
58.37216187945576
 20
69.570045439511489
 30
0.0
 42
0.1006642326453978
 50
90.0
  0
VERTEX
  5
9A
  8
0
 10
59.243191525159759
 20
68.339130101181183
 30
0.0
 42
0.0960755927009799
 70
     2
 50
316.78082110628429
  0
VERTEX
  5
9B
  8
0
 10
60.645697985351418
 20
67.454439774250716
 30
0.0
 42
0.1107981165819755
 50
316.78082110628429
  0
VERTEX
  5
9C
  8
0
 10
62.071618649905851
 20
67.238211715592172
 30
0.0
 42
0.0930649262563743
 50
90.0
  0
VERTEX
  5
9D
  8
0
 10
63.613776137841718
 20
67.527761071654425
 30
0.0
 42
0.0960755927009122
 50
90.0
  0
VERTEX
  5
9E
  8
0
 10
64.900045774651957
 20
68.339130101181183
 30
0.0
 42
0.10066423264539
 70
     2
 50
43.219178893715757
  0
VERTEX
  5
9F
  8
0
 10
65.771075420355984
 20
69.570045439511489
 30
0.0
 42
0.1041679131297573
 50
43.219178893715757
  0
VERTEX
  5
A0
  8
0
 10
66.071618649905744
 20
70.996982198735907
 30
0.0
 42
0.1041679131297573
 50
90.0
  0
VERTEX
  5
A1
  8
0
 10
65.771075420355984
 20
72.423918957960325
 30
0.0
 42
0.1006642326453902
 50
90.0
  0
VERTEX
  5
A2
  8
0
 10
64.900045774651957
 20
73.65483429629063
 30
0.0
 42
0.0960755927010244
 70
     2
 50
136.78082110628421
  0
VERTEX
  5
A3
  8
0
 10
63.61377613784127
 20
74.466203325817276
 30
0.0
 42
0.0930649262564371
 50
136.78082110628421
  0
VERTEX
  5
A4
  8
0
 10
62.071618649905851
 20
74.755752681879642
 30
0.0
 42
0.0930649262564798
 50
90.0
  0
VERTEX
  5
A5
  8
0
 10
60.529461161970552
 20
74.466203325817162
 30
0.0
 42
0.0960755927010769
 50
90.0
  0
VERTEX
  5
A6
  8
0
 10
59.243191525159759
 20
73.65483429629063
 30
0.0
 42
0.1006642326454428
 70
     2
 50
223.21917889371579
  0
VERTEX
  5
A7
  8
0
 10
58.372161879455852
 20
72.423918957960211
 30
0.0
 42
0.1041679131298039
 50
223.21917889371579
  0
SEQEND
  5
A8
  8
0
  0
LINE
  5
A9
  8
0
 10
58.071618649905972
 20
83.645244137915753
 30
0.0
 11
58.071618649905972
 21
70.996982198735907
 31
0.0
  0
LINE
  5
AA
  8
1
 10
74.071618649917411
 20
111.64524413791609
 30
0.0
 11
43.071618649905972
 21
111.64524413791599
 31
0.0
  0
LINE
  5
AB
  8
0
 10
69.071618649917411
 20
118.64524413791619
 30
0.0
 11
66.071618649906
 21
118.64524413791619
 31
0.0
  0
LINE
  5
AC
  8
0
 10
69.071618649917411
 20
104.64524413791599
 30
0.0
 11
66.071618649906
 21
104.64524413791599
 31
0.0
  0
LINE
  5
AD
  8
0
 10
69.071618649917468
 20
118.64524413791609
 30
0.0
 11
69.071618649917411
 21
104.64524413791599
 31
0.0
  0
LINE
  5
AE
  8
1
 10
62.071618649905872
 20
149.64524413791599
 30
0.0
 11
62.071618649905851
 21
62.23821171558933
 31
0.0
  0
LINE
  5
AF
  8
0
 10
60.071618649905872
 20
144.64524413791599
 30
0.0
 11
58.071618649905872
 21
142.64524413791599
 31
0.0
  0
LINE
  5
B0
  8
0
 10
66.071618649905986
 20
142.64524413791599
 30
0.0
 11
64.071618649905986
 21
144.64524413791599
 31
0.0
  0
LINE
  5
B1
  8
0
 10
60.071618649905872
 20
144.64524413791599
 30
0.0
 11
64.071618649905986
 21
144.64524413791599
 31
0.0
  0
LINE
  5
B2
  8
0
 10
58.071618649905872
 20
142.64524413791599
 30
0.0
 11
66.071618649905957
 21
142.64524413791591
 31
0.0
  0
LINE
  5
B3
  8
0
 10
58.071618649905872
 20
139.64524413791599
 30
0.0
 11
58.071618649905872
 21
142.64524413791599
 31
0.0
  0
LINE
  5
B4
  8
2
 10
48.071618649905972
 20
114.64524413791599
 30
0.0
 11
56.071618649905972
 21
114.64524413791599
 31
0.0
  0
LINE
  5
B5
  8
2
 10
48.071618649905972
 20
114.103744137916
 30
0.0
 11
56.071618649905972
 21
114.103744137916
 31
0.0
  0
LINE
  5
B6
  8
2
 10
48.071618649905972
 20
109.18674413791589
 30
0.0
 11
56.071618649905972
 21
109.18674413791589
 31
0.0
  0
LINE
  5
B7
  8
2
 10
48.071618649905972
 20
108.64524413791599
 30
0.0
 11
56.071618649905972
 21
108.64524413791599
 31
0.0
  0
LINE
  5
B8
  8
0
 10
58.071618649905972
 20
119.64524413791599
 30
0.0
 11
58.071618649905972
 21
118.64524413791599
 31
0.0
  0
LINE
  5
B9
  8
0
 10
58.071618649905972
 20
103.64524413791599
 30
0.0
 11
58.071618649905972
 21
104.64524413791599
 31
0.0
  0
LINE
  5
BA
  8
2
 10
58.071618649905972
 20
104.64524413791609
 30
0.0
 11
58.071618649905972
 21
118.64524413791609
 31
0.0
  0
LINE
  5
BB
  8
2
 10
58.071618649906
 20
119.64524413791599
 30
0.0
 11
58.071618649905979
 21
139.64524413791599
 31
0.0
  0
LINE
  5
BC
  8
0
 10
56.071618649905972
 20
119.64524413791599
 30
0.0
 11
56.071618649905979
 21
139.64524413791599
 31
0.0
  0
LINE
  5
BD
  8
0
 10
64.071618649906
 20
119.64524413791599
 30
0.0
 11
56.071618649905943
 21
119.6452441379159
 31
0.0
  0
LINE
  5
BE
  8
0
 10
56.071618649905972
 20
103.64524413791599
 30
0.0
 11
64.071618649906029
 21
103.64524413791599
 31
0.0
  0
LINE
  5
BF
  8
2
 10
58.071618649905972
 20
83.645244137915881
 30
0.0
 11
58.071618649905972
 21
103.64524413791599
 31
0.0
  0
LINE
  5
C0
  8
0
 10
48.071618649905972
 20
118.64524413791599
 30
0.0
 11
48.071618649905972
 21
104.64524413791599
 31
0.0
  0
LINE
  5
C1
  8
0
 10
64.071618649905972
 20
118.64524413791599
 30
0.0
 11
48.071618649905972
 21
118.64524413791599
 31
0.0
  0
LINE
  5
C2
  8
0
 10
48.071618649905972
 20
104.64524413791599
 30
0.0
 11
64.071618649906
 21
104.64524413791599
 31
0.0
  0
LINE
  5
C3
  8
0
 10
56.071618649905972
 20
83.645244137915881
 30
0.0
 11
56.071618649905972
 21
103.64524413791599
 31
0.0
  0
LINE
  5
C4
  8
0
 10
64.071618649906057
 20
83.645244137915995
 30
0.0
 11
64.071618649905986
 21
139.64524413791599
 31
0.0
  0
LINE
  5
C5
  8
0
 10
66.071618649905943
 20
70.996982198735907
 30
0.0
 11
66.071618649905957
 21
142.64524413791591
 31
0.0
  0
LINE
  5
C6
  8
0
 10
66.071618649905943
 20
83.645244137915995
 30
0.0
 11
56.071618649905972
 21
83.645244137915881
 31
0.0
  0
LINE
  5
C7
  8
0
 10
66.071618649905986
 20
139.64524413791599
 30
0.0
 11
56.071618649905979
 21
139.64524413791591
 31
0.0
  0
LINE
  5
C8
  8
0
 10
250.70353807660319
 20
68.433556670512814
 30
0.0
 11
248.14011254837999
 21
67.238211715592342
 31
0.0
  0
LINE
  5
C9
  8
0
 10
252.07161864990579
 20
72.192327153656379
 30
0.0
 11
250.8762736949852
 21
74.755752681879514
 31
0.0
  0
LINE
  5
CA
  8
0
 10
252.07161864990579
 20
72.192327153656379
 30
0.0
 11
250.70353807660319
 21
68.433556670512814
 31
0.0
  0
LINE
  5
CB
  8
0
 10
250.8762736949852
 20
74.755752681879585
 30
0.0
 11
248.14011254837999
 21
67.238211715592286
 31
0.0
  0
LINE
  5
CC
  8
0
 10
236.62535678667211
 20
71.429240067699212
 30
0.0
 11
248.14011254837999
 21
67.238211715592342
 31
0.0
  0
LINE
  5
CD
  8
0
 10
239.3615179332775
 20
78.946781033986454
 30
0.0
 11
250.8762736949852
 21
74.755752681879514
 31
0.0
  0
LINE
  5
CE
  8
1
 10
237.99343735997479
 20
75.188010550842833
 30
0.0
 11
256.0860414671842
 21
68.602841195456222
 31
0.0
  0
ARC
  5
CF
  8
0
 10
241.07161864990579
 20
83.645244137916009
 30
0.0
 40
13.0
 50
180.0
 51
250.0000000000008
  0
ARC
  5
D0
  8
1
 10
241.07161864990579
 20
83.645244137916009
 30
0.0
 40
9.0
 50
180.0
 51
250.00000000000159
  0
ARC
  5
D1
  8
0
 10
241.07161864990579
 20
83.645244137916009
 30
0.0
 40
5.0
 50
180.0
 51
250.00000000000301
  0
LINE
  5
D2
  8
1
 10
232.07161864990579
 20
149.64524413791599
 30
0.0
 11
232.0716186499059
 21
83.645244137916009
 31
0.0
  0
LINE
  5
D3
  8
0
 10
230.07161864990579
 20
144.64524413791599
 30
0.0
 11
228.07161864990579
 21
142.64524413791599
 31
0.0
  0
LINE
  5
D4
  8
0
 10
236.0716186499059
 20
142.64524413791599
 30
0.0
 11
234.0716186499059
 21
144.64524413791599
 31
0.0
  0
LINE
  5
D5
  8
0
 10
230.07161864990579
 20
144.64524413791599
 30
0.0
 11
234.0716186499059
 21
144.64524413791599
 31
0.0
  0
LINE
  5
D6
  8
0
 10
228.07161864990579
 20
142.64524413791599
 30
0.0
 11
236.0716186499059
 21
142.64524413791599
 31
0.0
  0
LINE
  5
D7
  8
1
 10
141.07161864990579
 20
181.64524413791599
 30
0.0
 11
123.0716186499059
 21
181.64524413791599
 31
0.0
  0
LINE
  5
D8
  8
1
 10
132.07161864990579
 20
202.64524413791611
 30
0.0
 11
132.07161864990579
 21
169.6452441379171
 31
0.0
  0
LINE
  5
D9
  8
1
 10
261.07161864990587
 20
111.64524413791599
 30
0.0
 11
220.07161864990579
 21
111.64524413791599
 31
0.0
  0
LINE
  5
DA
  8
0
 10
236.0716186499059
 20
139.64524413791599
 30
0.0
 11
236.0716186499059
 21
142.64524413791599
 31
0.0
  0
LINE
  5
DB
  8
0
 10
228.07161864990579
 20
118.64524413791599
 30
0.0
 11
228.07161864990579
 21
142.64524413791599
 31
0.0
  0
LINE
  5
DC
  8
0
 10
236.07161864990579
 20
118.64524413791599
 30
0.0
 11
236.0716186499059
 21
119.64524413791599
 31
0.0
  0
LINE
  5
DD
  8
0
 10
236.0716186499059
 20
103.64524413791599
 30
0.0
 11
236.07161864990579
 21
104.64524413791599
 31
0.0
  0
LINE
  5
DE
  8
0
 10
228.07161864990579
 20
104.64524413791599
 30
0.0
 11
228.0716186499057
 21
83.645244137916009
 31
0.0
  0
LINE
  5
DF
  8
2
 10
236.0716186499059
 20
119.64524413791599
 30
0.0
 11
236.0716186499059
 21
139.64524413791599
 31
0.0
  0
LINE
  5
E0
  8
2
 10
236.0716186499059
 20
104.64524413791599
 30
0.0
 11
236.0716186499059
 21
118.64524413791599
 31
0.0
  0
LINE
  5
E1
  8
2
 10
228.07161864990579
 20
104.64524413791599
 30
0.0
 11
228.07161864990579
 21
118.64524413791599
 31
0.0
  0
LINE
  5
E2
  8
2
 10
236.07161864990579
 20
83.645244137916009
 30
0.0
 11
236.07161864990579
 21
103.64524413791599
 31
0.0
  0
LINE
  5
E3
  8
0
 10
240.0716186499059
 20
103.64524413791599
 30
0.0
 11
240.0716186499059
 21
119.64524413791599
 31
0.0
  0
LINE
  5
E4
  8
0
 10
229.07161864990579
 20
119.64524413791599
 30
0.0
 11
229.07161864990579
 21
139.64524413791599
 31
0.0
  0
LINE
  5
E5
  8
0
 10
240.0716186499059
 20
119.64524413791599
 30
0.0
 11
229.07161864990579
 21
119.64524413791599
 31
0.0
  0
LINE
  5
E6
  8
0
 10
229.07161864990579
 20
103.64524413791599
 30
0.0
 11
240.0716186499059
 21
103.64524413791599
 31
0.0
  0
LINE
  5
E7
  8
0
 10
229.07161864990579
 20
83.645244137916009
 30
0.0
 11
229.07161864990579
 21
103.64524413791599
 31
0.0
  0
LINE
  5
E8
  8
0
 10
135.07161864990579
 20
185.64524413791599
 30
0.0
 11
132.07161864990579
 21
185.64524413791599
 31
0.0
  0
LINE
  5
E9
  8
0
 10
135.07161864990579
 20
187.64524413791611
 30
0.0
 11
135.07161864990579
 21
185.64524413791599
 31
0.0
  0
LINE
  5
EA
  8
0
 10
132.07161864990579
 20
187.64524413791611
 30
0.0
 11
135.07161864990579
 21
187.64524413791611
 31
0.0
  0
ARC
  5
EB
  8
0
 10
124.0716186499059
 20
181.64524413791599
 30
0.0
 40
2.0
 50
270.0
 51
0.0
  0
ARC
  5
EC
  8
0
 10
124.0716186499059
 20
181.64524413791599
 30
0.0
 40
4.0
 50
270.0
 51
0.0
  0
ARC
  5
ED
  8
0
 10
132.07161864990579
 20
181.64524413791599
 30
0.0
 40
6.0
 50
90.0
 51
180.0
  0
LINE
  5
EE
  8
0
 10
108.0716186499057
 20
179.64524413791611
 30
0.0
 11
124.0716186499059
 21
179.64524413791611
 31
0.0
  0
LINE
  5
EF
  8
0
 10
108.0716186499057
 20
177.64524413791611
 30
0.0
 11
124.0716186499059
 21
177.64524413791611
 31
0.0
  0
LINE
  5
F0
  8
0
 10
108.0716186499057
 20
179.64524413791611
 30
0.0
 11
108.0716186499058
 21
177.64524413791611
 31
0.0
  0
LINE
  5
F1
  8
2
 10
135.07161864990579
 20
195.64524413791611
 30
0.0
 11
135.0716186499059
 21
187.64524413791611
 31
0.0
  0
LINE
  5
F2
  8
2
 10
134.53011864990589
 20
195.64524413791611
 30
0.0
 11
134.53011864990589
 21
187.64524413791611
 31
0.0
  0
LINE
  5
F3
  8
2
 10
129.6131186499058
 20
195.64524413791611
 30
0.0
 11
129.6131186499058
 21
187.64524413791611
 31
0.0
  0
LINE
  5
F4
  8
2
 10
129.0716186499059
 20
195.64524413791611
 30
0.0
 11
129.0716186499059
 21
187.64524413791611
 31
0.0
  0
CIRCLE
  5
F5
  8
0
 10
132.07161864990579
 20
181.64524413791599
 30
0.0
 40
4.0
  0
ARC
  5
F6
  8
0
 10
132.07161864990579
 20
181.64524413791599
 30
0.0
 40
7.0
 50
180.0
 51
0.0
  0
LINE
  5
F7
  8
0
 10
139.0716186499057
 20
181.64524413791599
 30
0.0
 11
139.0716186499057
 21
195.64524413791611
 31
0.0
  0
LINE
  5
F8
  8
0
 10
139.0716186499057
 20
195.64524413791611
 30
0.0
 11
125.0716186499057
 21
195.64524413791611
 31
0.0
  0
LINE
  5
F9
  8
0
 10
125.0716186499057
 20
195.64524413791611
 30
0.0
 11
125.0716186499057
 21
181.64524413791599
 31
0.0
  0
LINE
  5
FA
  8
0
 10
256.07161864990587
 20
83.645244137916038
 30
0.0
 11
256.07161864990582
 21
139.64524413791599
 31
0.0
  0
LINE
  5
FB
  8
0
 10
256.07161864990582
 20
83.645244137915995
 30
0.0
 11
229.07161864990579
 21
83.645244137916009
 31
0.0
  0
LINE
  5
FC
  8
0
 10
256.07161864990582
 20
139.64524413791599
 30
0.0
 11
229.07161864990579
 21
139.64524413791599
 31
0.0
  0
CIRCLE
  5
FD
  8
0
 10
232.0716186499057
 20
111.64524413791599
 30
0.0
 40
2.458499999999999
  0
CIRCLE
  5
FE
  8
3
 10
232.0716186499057
 20
111.64524413791599
 30
0.0
 40
3.0
  0
LINE
  5
FF
  8
0
 10
225.0716186499059
 20
104.64524413791599
 30
0.0
 11
239.0716186499059
 21
104.64524413791599
 31
0.0
  0
LINE
  5
100
  8
0
 10
225.0716186499059
 20
118.64524413791599
 30
0.0
 11
225.0716186499059
 21
104.64524413791599
 31
0.0
  0
LINE
  5
101
  8
0
 10
239.0716186499059
 20
118.64524413791599
 30
0.0
 11
225.0716186499059
 21
118.64524413791599
 31
0.0
  0
LINE
  5
102
  8
0
 10
239.0716186499059
 20
104.64524413791599
 30
0.0
 11
239.0716186499059
 21
118.64524413791599
 31
0.0
  0
LINE
  5
21F
  8
2
 10
135.0716186499059
 20
187.64524413791611
 30
0.0
 11
129.0716186499059
 21
187.64524413791611
 31
0.0
  0
LINE
  5
221
  8
2
 10
56.071618649905972
 20
114.64524413791599
 30
0.0
 11
56.071618649905972
 21
108.64524413791599
 31
0.0
  0
LINE
  5
222
  8
2
 10
188.0716186499057
 20
114.64524413791599
 30
0.0
 11
188.0716186499057
 21
108.64524413791599
 31
0.0
  0
TEXT
  5
2E2
  8
0
 62
     3
 10
0.0
 20
0.0
 30
0.0
 40
10.0
  1
PLH568
  7
STANDARD1
  0
ENDSEC
  0
EOF
