  0
SECTION
  2
HEADER
  9
$ACADVER
  1
AC1009
  9
$INSBASE
 10
0.0
 20
0.0
 30
0.0
  9
$EXTMIN
 10
0.0
 20
-1.4802182810368341
 30
0.0
  9
$EXTMAX
 10
134.97944172046189
 20
112.1730860750382
 30
0.0
  9
$LIMMIN
 10
0.0
 20
0.0
  9
$LIMMAX
 10
187.5
 20
135.0
  9
$ORTHOMODE
 70
     0
  9
$REGENMODE
 70
     1
  9
$FILLMODE
 70
     1
  9
$QTEXTMODE
 70
     0
  9
$MIRRTEXT
 70
     0
  9
$DRAGMODE
 70
     2
  9
$LTSCALE
 40
5.0
  9
$OSMODE
 70
  3071
  9
$ATTMODE
 70
     1
  9
$TEXTSIZE
 40
0.2
  9
$TRACEWID
 40
0.05
  9
$TEXTSTYLE
  7
STANDARD
  9
$CLAYER
  8
0
  9
$CELTYPE
  6
BYLAYER
  9
$CECOLOR
 62
   256
  9
$DIMSCALE
 40
0.5
  9
$DIMASZ
 40
3.0
  9
$DIMEXO
 40
2.0
  9
$DIMDLI
 40
0.38
  9
$DIMRND
 40
0.0
  9
$DIMDLE
 40
0.0
  9
$DIMEXE
 40
2.0
  9
$DIMTP
 40
0.0
  9
$DIMTM
 40
0.0
  9
$DIMTXT
 40
3.0
  9
$DIMCEN
 40
0.0
  9
$DIMTSZ
 40
0.0
  9
$DIMTOL
 70
     0
  9
$DIMLIM
 70
     0
  9
$DIMTIH
 70
     0
  9
$DIMTOH
 70
     0
  9
$DIMSE1
 70
     0
  9
$DIMSE2
 70
     0
  9
$DIMTAD
 70
     1
  9
$DIMZIN
 70
     0
  9
$DIMBLK
  1

  9
$DIMASO
 70
     1
  9
$DIMSHO
 70
     0
  9
$DIMPOST
  1

  9
$DIMAPOST
  1

  9
$DIMALT
 70
     0
  9
$DIMALTD
 70
     2
  9
$DIMALTF
 40
25.399999999999999
  9
$DIMLFAC
 40
1.0
  9
$DIMTOFL
 70
     1
  9
$DIMTVP
 40
1.6000000000000001
  9
$DIMTIX
 70
     1
  9
$DIMSOXD
 70
     0
  9
$DIMSAH
 70
     0
  9
$DIMBLK1
  1

  9
$DIMBLK2
  1

  9
$DIMSTYLE
  2
STANDARD
  9
$DIMCLRD
 70
     0
  9
$DIMCLRE
 70
     0
  9
$DIMCLRT
 70
     0
  9
$DIMTFAC
 40
1.0
  9
$DIMGAP
 40
0.09
  9
$LUNITS
 70
     2
  9
$LUPREC
 70
     4
  9
$SKETCHINC
 40
0.1
  9
$FILLETRAD
 40
0.0
  9
$AUNITS
 70
     0
  9
$AUPREC
 70
     4
  9
$MENU
  1
E:\r13\win\SUPPORT\ACAD
  9
$ELEVATION
 40
0.0
  9
$PELEVATION
 40
0.0
  9
$THICKNESS
 40
0.0
  9
$LIMCHECK
 70
     0
  9
$BLIPMODE
 70
     0
  9
$CHAMFERA
 40
0.0
  9
$CHAMFERB
 40
0.0
  9
$SKPOLY
 70
     0
  9
$TDCREATE
 40
2449840.6182407411
  9
$TDUPDATE
 40
2456597.7231142358
  9
$TDINDWG
 40
0.0065628588
  9
$TDUSRTIMER
 40
0.0065628588
  9
$USRTIMER
 70
     1
  9
$ANGBASE
 50
0.0
  9
$ANGDIR
 70
     0
  9
$PDMODE
 70
     0
  9
$PDSIZE
 40
0.0
  9
$PLINEWID
 40
0.0
  9
$COORDS
 70
     1
  9
$SPLFRAME
 70
     0
  9
$SPLINETYPE
 70
     6
  9
$SPLINESEGS
 70
     8
  9
$ATTDIA
 70
     0
  9
$ATTREQ
 70
     1
  9
$HANDLING
 70
     1
  9
$HANDSEED
  5
36F
  9
$SURFTAB1
 70
     6
  9
$SURFTAB2
 70
     6
  9
$SURFTYPE
 70
     6
  9
$SURFU
 70
     6
  9
$SURFV
 70
     6
  9
$UCSNAME
  2

  9
$UCSORG
 10
0.0
 20
0.0
 30
0.0
  9
$UCSXDIR
 10
1.0
 20
0.0
 30
0.0
  9
$UCSYDIR
 10
0.0
 20
1.0
 30
0.0
  9
$PUCSNAME
  2

  9
$PUCSORG
 10
0.0
 20
0.0
 30
0.0
  9
$PUCSXDIR
 10
1.0
 20
0.0
 30
0.0
  9
$PUCSYDIR
 10
0.0
 20
1.0
 30
0.0
  9
$USERI1
 70
     0
  9
$USERI2
 70
     1
  9
$USERI3
 70
     1
  9
$USERI4
 70
     0
  9
$USERI5
 70
     0
  9
$USERR1
 40
0.0
  9
$USERR2
 40
0.0
  9
$USERR3
 40
0.0
  9
$USERR4
 40
0.0
  9
$USERR5
 40
0.0
  9
$WORLDVIEW
 70
     1
  9
$SHADEDGE
 70
     3
  9
$SHADEDIF
 70
    70
  9
$TILEMODE
 70
     1
  9
$MAXACTVP
 70
    16
  9
$PLIMCHECK
 70
     0
  9
$PEXTMIN
 10
1.0000000000000000E+020
 20
1.0000000000000000E+020
 30
1.0000000000000000E+020
  9
$PEXTMAX
 10
-1.0000000000000000E+020
 20
-1.0000000000000000E+020
 30
-1.0000000000000000E+020
  9
$PLIMMIN
 10
0.0
 20
0.0
  9
$PLIMMAX
 10
12.0
 20
9.0
  9
$UNITMODE
 70
     0
  9
$VISRETAIN
 70
     0
  9
$PLINEGEN
 70
     0
  9
$PSLTSCALE
 70
     0
  0
ENDSEC
  0
SECTION
  2
TABLES
  0
TABLE
  2
VPORT
 70
     1
  0
VPORT
  2
*ACTIVE
 70
     0
 10
0.0
 20
0.0
 11
1.0
 21
1.0
 12
93.747139195326156
 22
67.05183146954721
 13
0.0
 23
0.0
 14
5.0
 24
5.0
 15
5.0
 25
5.0
 16
0.0
 26
0.0
 36
1.0
 17
0.0
 27
0.0
 37
0.0
 40
138.6470298934976
 41
2.304913294797688
 42
50.0
 43
0.0
 44
0.0
 50
0.0
 51
0.0
 71
     0
 72
   100
 73
     1
 74
     0
 75
     0
 76
     0
 77
     0
 78
     2
  0
ENDTAB
  0
TABLE
  2
LTYPE
 70
     4
  0
LTYPE
  2
CONTINUOUS
 70
     0
  3
Solid Line
 72
    65
 73
     0
 40
0.0
  0
LTYPE
  2
CENTER
 70
     0
  3
____ _ ____ _ ____ _ ____ _ ____ _ ____ _ ____
 72
    65
 73
     4
 40
2.0
 49
1.25
 49
-0.25
 49
0.25
 49
-0.25
  0
LTYPE
  2
HIDDEN
 70
     0
  3
_ _ _ _ _ _ _ _ _ _ _ _ _ _ _ _ _ _ _ _ _ _ _
 72
    65
 73
     2
 40
0.375
 49
0.25
 49
-0.125
  0
LTYPE
  2
PHANTOM2
 70
     0
  3
___ _ _ ___ _ _ ___ _ _ ___ _ _
 72
    65
 73
     6
 40
1.25
 49
0.625
 49
-0.125
 49
0.125
 49
-0.125
 49
0.125
 49
-0.125
  0
ENDTAB
  0
TABLE
  2
LAYER
 70
     4
  0
LAYER
  2
0
 70
     0
 62
     7
  6
CONTINUOUS
  0
LAYER
  2
1
 70
     0
 62
     1
  6
CENTER
  0
LAYER
  2
2
 70
     0
 62
     2
  6
HIDDEN
  0
LAYER
  2
3
 70
     0
 62
     3
  6
CONTINUOUS
  0
ENDTAB
  0
TABLE
  2
STYLE
 70
     2
  0
STYLE
  2
STANDARD
 70
     0
 40
0.0
 41
1.0
 50
0.0
 71
     0
 42
0.2
  3
TXT
  4
BIGFONT
  0
STYLE
  2
STANDARD1
 70
     0
 40
0.0
 41
1.0
 50
0.0
 71
     0
 42
3.0
  3
txt
  4

  0
ENDTAB
  0
TABLE
  2
VIEW
 70
     1
  0
VIEW
  2
ALL
 70
     0
 40
135.0
 10
110.49579799999999
 20
67.5
 41
0.0
 11
0.0
 21
0.0
 31
1.0
 12
0.0
 22
0.0
 32
0.0
 42
0.0
 43
0.0
 44
0.0
 50
0.0
 71
     0
  0
ENDTAB
  0
TABLE
  2
UCS
 70
     0
  0
ENDTAB
  0
TABLE
  2
APPID
 70
     3
  0
APPID
  2
ACAD
 70
     0
  0
APPID
  2
ACAD_MLEADERVER
 70
     0
  0
APPID
  2
ACAD_NAV_VCDISPLAY
 70
     0
  0
ENDTAB
  0
TABLE
  2
DIMSTYLE
 70
     1
  0
DIMSTYLE
  2
STANDARD
 70
     0
  3

  4

  5

  6

  7

 40
1.0
 41
0.18
 42
0.0625
 43
0.38
 44
0.18
 45
0.0
 46
0.0
 47
0.0
 48
0.0
140
0.18
141
0.09
142
0.0
143
25.399999999999999
144
1.0
145
0.0
146
1.0
147
0.09
 71
     0
 72
     0
 73
     1
 74
     1
 75
     0
 76
     0
 77
     0
 78
     0
170
     0
171
     2
172
     0
173
     0
174
     0
175
     0
176
     0
177
     0
178
     0
  0
ENDTAB
  0
ENDSEC
  0
SECTION
  2
BLOCKS
  0
BLOCK
  8
0
  2
$MODEL_SPACE
 70
     0
 10
0.0
 20
0.0
 30
0.0
  3
$MODEL_SPACE
  1

  0
ENDBLK
  5
C5
  8
0
  0
BLOCK
 67
     1
  8
0
  2
$PAPER_SPACE
 70
     0
 10
0.0
 20
0.0
 30
0.0
  3
$PAPER_SPACE
  1

  0
ENDBLK
  5
C3
 67
     1
  8
0
  0
ENDSEC
  0
SECTION
  2
ENTITIES
  0
LINE
  5
37
  8
1
 10
18.64861472046195
 20
69.270907075038252
 30
0.0
 11
33.64861472046195
 21
69.270907075038252
 31
0.0
  0
LINE
  5
38
  8
1
 10
26.14861472046195
 20
76.770907075038252
 30
0.0
 11
26.14861472046195
 21
61.770907075038252
 31
0.0
  0
LINE
  5
39
  8
1
 10
59.837308720461962
 20
69.270907075038252
 30
0.0
 11
89.837308720461962
 21
69.270907075038252
 31
0.0
  0
LINE
  5
3A
  8
1
 10
119.97944172046191
 20
69.270907075038252
 30
0.0
 11
134.97944172046189
 21
69.270907075038252
 31
0.0
  0
LINE
  5
3B
  8
1
 10
127.47944172046191
 20
76.770907075038252
 30
0.0
 11
127.47944172046191
 21
61.770907075038252
 31
0.0
  0
LINE
  5
3C
  8
0
 10
82.937308720461957
 20
74.270907075038252
 30
0.0
 11
63.737308720461947
 21
74.270907075038252
 31
0.0
  0
LINE
  5
3D
  8
3
 10
83.749308720461954
 20
73.458907075038255
 30
0.0
 11
62.925308720461963
 21
73.458907075038255
 31
0.0
  0
LINE
  5
3E
  8
3
 10
83.749308720461954
 20
65.082907075038236
 30
0.0
 11
62.925308720461963
 21
65.082907075038236
 31
0.0
  0
LINE
  5
3F
  8
0
 10
82.937308720461957
 20
64.270907075038252
 30
0.0
 11
63.737308720461947
 21
64.270907075038252
 31
0.0
  0
CIRCLE
  5
40
  8
0
 10
127.47944172046191
 20
69.270907075038252
 30
0.0
 40
5.0
  0
CIRCLE
  5
41
  8
3
 10
127.47944172046191
 20
69.270907075038252
 30
0.0
 40
4.1879999999999988
  0
CIRCLE
  5
42
  8
0
 10
26.14861472046195
 20
69.270907075038252
 30
0.0
 40
5.0
  0
CIRCLE
  5
43
  8
3
 10
26.14861472046195
 20
69.270907075038252
 30
0.0
 40
4.1879999999999988
  0
LINE
  5
44
  8
0
 10
62.337308720461962
 20
72.870907075038247
 30
0.0
 11
62.337308720461962
 21
65.670907075038258
 31
0.0
  0
LINE
  5
45
  8
0
 10
84.337308720461948
 20
72.870907075038247
 30
0.0
 11
84.337308720461948
 21
65.670907075038258
 31
0.0
  0
LINE
  5
46
  8
0
 10
84.337308720461948
 20
71.270907075038252
 30
0.0
 11
85.337308720461976
 21
71.270907075038252
 31
0.0
  0
LINE
  5
47
  8
0
 10
84.337308720461948
 20
67.270907075038252
 30
0.0
 11
85.337308720461976
 21
67.270907075038252
 31
0.0
  0
ARC
  5
48
  8
0
 10
85.337308720461976
 20
69.270907075038252
 30
0.0
 40
2.0
 50
270.0
 51
90.0
  0
LINE
  5
49
  8
0
 10
24.64861472046195
 20
70.136933075038243
 30
0.0
 11
24.64861472046195
 21
68.404882075038245
 31
0.0
  0
LINE
  5
4A
  8
0
 10
26.14861472046195
 20
71.002958075038251
 30
0.0
 11
24.64861472046195
 21
70.136933075038243
 31
0.0
  0
LINE
  5
4B
  8
0
 10
27.64861472046195
 20
70.136933075038243
 30
0.0
 11
26.14861472046195
 21
71.002958075038251
 31
0.0
  0
LINE
  5
4C
  8
0
 10
27.64861472046195
 20
68.404882075038245
 30
0.0
 11
27.64861472046195
 21
70.136933075038243
 31
0.0
  0
LINE
  5
4D
  8
0
 10
26.14861472046195
 20
67.53885607503824
 30
0.0
 11
27.64861472046195
 21
68.404882075038245
 31
0.0
  0
LINE
  5
4E
  8
0
 10
24.64861472046195
 20
68.404882075038245
 30
0.0
 11
26.14861472046195
 21
67.53885607503824
 31
0.0
  0
CIRCLE
  5
4F
  8
0
 10
127.47944172046191
 20
69.270907075038252
 30
0.0
 40
2.0
  0
CIRCLE
  5
50
  8
3
 10
26.14861472046195
 20
69.270907075038252
 30
0.0
 40
3.0
  0
CIRCLE
  5
51
  8
0
 10
26.14861472046195
 20
69.270907075038252
 30
0.0
 40
2.458499999999999
  0
LINE
  5
52
  8
0
 10
84.337308720461948
 20
72.870907075038247
 30
0.0
 11
83.001723720461953
 21
74.206492075038241
 31
0.0
  0
LINE
  5
53
  8
0
 10
83.001723720461953
 20
64.335322075038249
 30
0.0
 11
84.337308720461948
 21
65.670907075038258
 31
0.0
  0
LINE
  5
54
  8
0
 10
63.737308720461947
 20
64.270907075038252
 30
0.0
 11
62.337308720461962
 21
65.670907075038258
 31
0.0
  0
LINE
  5
55
  8
0
 10
62.337308720461962
 20
72.870907075038247
 30
0.0
 11
63.737308720461947
 21
74.270907075038252
 31
0.0
  0
LINE
  5
56
  8
0
 10
128.2794417204619
 20
74.206492075038241
 30
0.0
 11
128.2794417204619
 21
71.103938075038243
 31
0.0
  0
LINE
  5
57
  8
0
 10
126.6794417204619
 20
74.206492075038241
 30
0.0
 11
126.6794417204619
 21
71.103938075038243
 31
0.0
  0
LINE
  5
58
  8
0
 10
128.2794417204619
 20
67.437877075038244
 30
0.0
 11
128.2794417204619
 21
64.335322075038249
 31
0.0
  0
LINE
  5
59
  8
0
 10
126.6794417204619
 20
67.437877075038244
 30
0.0
 11
126.6794417204619
 21
64.335322075038249
 31
0.0
  0
LINE
  5
5A
  8
0
 10
63.737308720461947
 20
74.270907075038252
 30
0.0
 11
63.737308720461947
 21
64.270907075038252
 31
0.0
  0
LINE
  5
5B
  8
0
 10
82.937308720461957
 20
74.270907075038252
 30
0.0
 11
82.937308720461957
 21
64.270907075038252
 31
0.0
  0
ARC
  5
5C
  8
2
 10
82.337308720461962
 20
69.270907075038252
 30
0.0
 40
2.0
 50
270.0
 51
90.0
  0
ARC
  5
62
  8
2
 10
82.337308720461962
 20
107.1730860750382
 30
0.0
 40
2.0
 50
270.0
 51
90.0
  0
LINE
  5
63
  8
0
 10
82.937308720461957
 20
112.1730860750382
 30
0.0
 11
82.937308720461957
 21
102.1730860750382
 31
0.0
  0
LINE
  5
64
  8
0
 10
63.737308720461947
 20
112.1730860750382
 30
0.0
 11
63.737308720461947
 21
102.1730860750382
 31
0.0
  0
LINE
  5
65
  8
0
 10
62.337308720461962
 20
110.77308607503819
 30
0.0
 11
63.737308720461947
 21
112.1730860750382
 31
0.0
  0
LINE
  5
66
  8
0
 10
63.737308720461947
 20
102.1730860750382
 30
0.0
 11
62.337308720461962
 21
103.5730860750382
 31
0.0
  0
LINE
  5
67
  8
0
 10
82.937308720461957
 20
102.1730860750382
 30
0.0
 11
84.337308720461948
 21
103.5730860750382
 31
0.0
  0
LINE
  5
68
  8
0
 10
84.337308720461948
 20
110.77308607503819
 30
0.0
 11
82.937308720461957
 21
112.1730860750382
 31
0.0
  0
ARC
  5
69
  8
0
 10
85.337308720461976
 20
107.1730860750382
 30
0.0
 40
2.0
 50
270.0
 51
90.0
  0
LINE
  5
6A
  8
0
 10
84.337308720461948
 20
105.1730860750382
 30
0.0
 11
85.337308720461976
 21
105.1730860750382
 31
0.0
  0
LINE
  5
6B
  8
0
 10
84.337308720461948
 20
109.1730860750382
 30
0.0
 11
85.337308720461976
 21
109.1730860750382
 31
0.0
  0
LINE
  5
6C
  8
0
 10
84.337308720461948
 20
110.77308607503819
 30
0.0
 11
84.337308720461948
 21
107.9730860750382
 31
0.0
  0
LINE
  5
6D
  8
0
 10
62.337308720461962
 20
110.77308607503819
 30
0.0
 11
62.337308720461962
 21
103.5730860750382
 31
0.0
  0
LINE
  5
6E
  8
0
 10
82.937308720461957
 20
102.1730860750382
 30
0.0
 11
63.737308720461947
 21
102.1730860750382
 31
0.0
  0
LINE
  5
6F
  8
3
 10
83.749308720461954
 20
102.9850860750382
 30
0.0
 11
62.925308720461963
 21
102.9850860750382
 31
0.0
  0
LINE
  5
70
  8
3
 10
83.749308720461954
 20
111.3610860750382
 30
0.0
 11
62.925308720461963
 21
111.3610860750382
 31
0.0
  0
LINE
  5
71
  8
0
 10
82.937308720461957
 20
112.1730860750382
 30
0.0
 11
63.737308720461947
 21
112.1730860750382
 31
0.0
  0
LINE
  5
72
  8
1
 10
59.837308720461962
 20
107.1730860750382
 30
0.0
 11
89.837308720461962
 21
107.1730860750382
 31
0.0
  0
LINE
  5
78
  8
0
 10
83.001723720461953
 20
74.206492075038241
 30
0.0
 11
82.937308720461957
 21
74.206492075038241
 31
0.0
  0
LINE
  5
79
  8
0
 10
83.001723720461953
 20
64.335322075038249
 30
0.0
 11
82.937308720461957
 21
64.335322075038249
 31
0.0
  0
LINE
  5
7A
  8
0
 10
82.937308720461957
 20
107.9730860750382
 30
0.0
 11
84.337308720461948
 21
107.9730860750382
 31
0.0
  0
LINE
  5
7B
  8
0
 10
82.937308720461957
 20
106.3730860750382
 30
0.0
 11
84.337308720461948
 21
106.3730860750382
 31
0.0
  0
LINE
  5
7C
  8
0
 10
84.337308720461948
 20
106.3730860750382
 30
0.0
 11
84.337308720461948
 21
103.5730860750382
 31
0.0
  0
LINE
  5
7D
  8
0
 10
84.337308720461948
 20
32.168729075038243
 30
0.0
 11
84.337308720461948
 21
34.968729075038262
 31
0.0
  0
LINE
  5
7E
  8
0
 10
82.937308720461957
 20
32.168729075038243
 30
0.0
 11
84.337308720461948
 21
32.168729075038243
 31
0.0
  0
LINE
  5
7F
  8
0
 10
82.937308720461957
 20
30.568729075038249
 30
0.0
 11
84.337308720461948
 21
30.568729075038249
 31
0.0
  0
LINE
  5
80
  8
1
 10
59.837308720461962
 20
31.368729075038249
 30
0.0
 11
89.837308720461962
 21
31.368729075038249
 31
0.0
  0
LINE
  5
81
  8
0
 10
82.937308720461957
 20
26.368729075038249
 30
0.0
 11
63.737308720461947
 21
26.368729075038249
 31
0.0
  0
LINE
  5
82
  8
3
 10
83.749308720461954
 20
27.18072907503824
 30
0.0
 11
62.925308720461963
 21
27.18072907503824
 31
0.0
  0
LINE
  5
83
  8
3
 10
83.749308720461954
 20
35.556729075038248
 30
0.0
 11
62.925308720461963
 21
35.556729075038248
 31
0.0
  0
LINE
  5
84
  8
0
 10
82.937308720461957
 20
36.368729075038253
 30
0.0
 11
63.737308720461947
 21
36.368729075038253
 31
0.0
  0
LINE
  5
85
  8
0
 10
62.337308720461962
 20
27.768729075038252
 30
0.0
 11
62.337308720461962
 21
34.968729075038262
 31
0.0
  0
LINE
  5
86
  8
0
 10
84.337308720461948
 20
27.768729075038252
 30
0.0
 11
84.337308720461948
 21
30.568729075038249
 31
0.0
  0
LINE
  5
87
  8
0
 10
84.337308720461948
 20
29.368729075038249
 30
0.0
 11
85.337308720461976
 21
29.368729075038249
 31
0.0
  0
LINE
  5
88
  8
0
 10
84.337308720461948
 20
33.368729075038253
 30
0.0
 11
85.337308720461976
 21
33.368729075038253
 31
0.0
  0
ARC
  5
89
  8
0
 10
85.337308720461976
 20
31.368729075038249
 30
0.0
 40
2.0
 50
270.0
 51
90.0
  0
LINE
  5
8A
  8
0
 10
84.337308720461948
 20
27.768729075038252
 30
0.0
 11
82.937308720461957
 21
26.368729075038249
 31
0.0
  0
LINE
  5
8B
  8
0
 10
82.937308720461957
 20
36.368729075038253
 30
0.0
 11
84.337308720461948
 21
34.968729075038262
 31
0.0
  0
LINE
  5
8C
  8
0
 10
63.737308720461947
 20
36.368729075038253
 30
0.0
 11
62.337308720461962
 21
34.968729075038262
 31
0.0
  0
LINE
  5
8D
  8
0
 10
62.337308720461962
 20
27.768729075038252
 30
0.0
 11
63.737308720461947
 21
26.368729075038249
 31
0.0
  0
LINE
  5
8E
  8
0
 10
63.737308720461947
 20
26.368729075038249
 30
0.0
 11
63.737308720461947
 21
36.368729075038253
 31
0.0
  0
LINE
  5
8F
  8
0
 10
82.937308720461957
 20
26.368729075038249
 30
0.0
 11
82.937308720461957
 21
36.368729075038253
 31
0.0
  0
ARC
  5
90
  8
2
 10
82.337308720461962
 20
31.368729075038249
 30
0.0
 40
2.0
 50
270.0
 51
90.0
  0
LINE
  5
1B1
  8
2
 10
65.837308720461962
 20
67.53885607503824
 30
0.0
 11
65.837308720461962
 21
71.002957687356599
 31
0.0
  0
LINE
  5
1B2
  8
2
 10
62.337308720461962
 20
67.53885607503824
 30
0.0
 11
65.837308720461962
 21
67.53885607503824
 31
0.0
  0
LINE
  5
1B3
  8
2
 10
62.337308720461969
 20
68.404881478118369
 30
0.0
 11
65.837308720461962
 21
68.404881478118369
 31
0.0
  0
LINE
  5
1B4
  8
2
 10
62.337308720461969
 20
70.136932284276426
 30
0.0
 11
65.837308720461962
 21
70.136932284276384
 31
0.0
  0
LINE
  5
1B5
  8
2
 10
62.337308720461962
 20
71.002957687356599
 30
0.0
 11
65.837308720461962
 21
71.002957687356599
 31
0.0
  0
LINE
  5
1BB
  8
2
 10
65.837308720461962
 20
105.6730860750382
 30
0.0
 11
65.837308720461962
 21
108.6730860750382
 31
0.0
  0
LINE
  5
1BC
  8
2
 10
62.337308720461962
 20
105.6730860750382
 30
0.0
 11
65.837308720461962
 21
105.6730860750382
 31
0.0
  0
LINE
  5
1BE
  8
2
 10
62.337308720461962
 20
107.1730860750382
 30
0.0
 11
65.837308720461948
 21
107.1730860750382
 31
0.0
  0
LINE
  5
1BF
  8
2
 10
62.337308720461962
 20
108.6730860750382
 30
0.0
 11
65.837308720461962
 21
108.6730860750382
 31
0.0
  0
LINE
  5
263
  8
2
 10
65.837308720461962
 20
29.868729075038249
 30
0.0
 11
65.837308720461962
 21
32.86872907503826
 31
0.0
  0
LINE
  5
264
  8
2
 10
62.337308720461962
 20
29.868729075038249
 30
0.0
 11
65.837308720461962
 21
29.868729075038249
 31
0.0
  0
LINE
  5
265
  8
2
 10
62.337308720461962
 20
31.368729075038249
 30
0.0
 11
65.837308720461948
 21
31.3687290750382
 31
0.0
  0
LINE
  5
266
  8
2
 10
62.337308720461962
 20
32.868729075038253
 30
0.0
 11
65.837308720461962
 21
32.868729075038253
 31
0.0
  0
TEXT
  5
309
  8
0
 62
     3
 10
0.0
 20
0.0
 30
0.0
 40
5.0
  1
PLH10-SUS
  7
STANDARD1
  0
ENDSEC
  0
EOF
